  0
SECTION
  2
HEADER
  9
$ACADVER
  1
AC1015
  9
$ACADMAINTVER
 70
     6
  9
$DWGCODEPAGE
  3
ANSI_1250
  9
$INSBASE
 10
0.0
 20
0.0
 30
0.0
  9
$EXTMIN
 10
-57.4451
 20
-36.6356
 30
0.0
  9
$EXTMAX
 10
57.1622
 20
36.6855
 30
0.0
  9
$LIMMIN
 10
0.0
 20
0.0
  9
$LIMMAX
 10
12.0
 20
9.0
  9
$ORTHOMODE
 70
     0
  9
$REGENMODE
 70
     1
  9
$FILLMODE
 70
     1
  9
$QTEXTMODE
 70
     0
  9
$MIRRTEXT
 70
     1
  9
$LTSCALE
 40
1.0
  9
$ATTMODE
 70
     1
  9
$TEXTSIZE
 40
0.2
  9
$TRACEWID
 40
0.05
  9
$TEXTSTYLE
  7
Standard
  9
$CLAYER
  8
0
  9
$CELTYPE
  6
ByLayer
  9
$CECOLOR
 62
   256
  9
$CELTSCALE
 40
1.0
  9
$DISPSILH
 70
     0
  9
$DIMSCALE
 40
1.0
  9
$DIMASZ
 40
0.18
  9
$DIMEXO
 40
0.0625
  9
$DIMDLI
 40
0.38
  9
$DIMRND
 40
0.0
  9
$DIMDLE
 40
0.0
  9
$DIMEXE
 40
0.18
  9
$DIMTP
 40
0.0
  9
$DIMTM
 40
0.0
  9
$DIMTXT
 40
0.18
  9
$DIMCEN
 40
0.09
  9
$DIMTSZ
 40
0.0
  9
$DIMTOL
 70
     0
  9
$DIMLIM
 70
     0
  9
$DIMTIH
 70
     1
  9
$DIMTOH
 70
     1
  9
$DIMSE1
 70
     0
  9
$DIMSE2
 70
     0
  9
$DIMTAD
 70
     0
  9
$DIMZIN
 70
     0
  9
$DIMBLK
  1

  9
$DIMASO
 70
     1
  9
$DIMSHO
 70
     1
  9
$DIMPOST
  1

  9
$DIMAPOST
  1

  9
$DIMALT
 70
     0
  9
$DIMALTD
 70
     2
  9
$DIMALTF
 40
25.4
  9
$DIMLFAC
 40
1.0
  9
$DIMTOFL
 70
     0
  9
$DIMTVP
 40
0.0
  9
$DIMTIX
 70
     0
  9
$DIMSOXD
 70
     0
  9
$DIMSAH
 70
     0
  9
$DIMBLK1
  1

  9
$DIMBLK2
  1

  9
$DIMSTYLE
  2
Standard
  9
$DIMCLRD
 70
     0
  9
$DIMCLRE
 70
     0
  9
$DIMCLRT
 70
     0
  9
$DIMTFAC
 40
1.0
  9
$DIMGAP
 40
0.09
  9
$DIMJUST
 70
     0
  9
$DIMSD1
 70
     0
  9
$DIMSD2
 70
     0
  9
$DIMTOLJ
 70
     1
  9
$DIMTZIN
 70
     0
  9
$DIMALTZ
 70
     0
  9
$DIMALTTZ
 70
     0
  9
$DIMUPT
 70
     0
  9
$DIMDEC
 70
     4
  9
$DIMTDEC
 70
     4
  9
$DIMALTU
 70
     2
  9
$DIMALTTD
 70
     2
  9
$DIMTXSTY
  7
Standard
  9
$DIMAUNIT
 70
     0
  9
$DIMADEC
 70
     0
  9
$DIMALTRND
 40
0.0
  9
$DIMAZIN
 70
     0
  9
$DIMDSEP
 70
    46
  9
$DIMATFIT
 70
     3
  9
$DIMFRAC
 70
     0
  9
$DIMLDRBLK
  1

  9
$DIMLUNIT
 70
     2
  9
$DIMLWD
 70
    -2
  9
$DIMLWE
 70
    -2
  9
$DIMTMOVE
 70
     0
  9
$LUNITS
 70
     2
  9
$LUPREC
 70
     4
  9
$SKETCHINC
 40
0.1
  9
$FILLETRAD
 40
0.5
  9
$AUNITS
 70
     0
  9
$AUPREC
 70
     0
  9
$MENU
  1
.
  9
$ELEVATION
 40
0.0
  9
$PELEVATION
 40
0.0
  9
$THICKNESS
 40
0.0
  9
$LIMCHECK
 70
     0
  9
$CHAMFERA
 40
0.5
  9
$CHAMFERB
 40
0.5
  9
$CHAMFERC
 40
1.0
  9
$CHAMFERD
 40
0.0
  9
$SKPOLY
 70
     0
  9
$TDCREATE
 40
2457653.408285382
  9
$TDUCREATE
 40
2457653.324952049
  9
$TDUPDATE
 40
2457653.408285393
  9
$TDUUPDATE
 40
2457653.32495206
  9
$TDINDWG
 40
0.0000000116
  9
$TDUSRTIMER
 40
0.0000000116
  9
$USRTIMER
 70
     1
  9
$ANGBASE
 50
0.0
  9
$ANGDIR
 70
     0
  9
$PDMODE
 70
     0
  9
$PDSIZE
 40
0.0
  9
$PLINEWID
 40
0.0
  9
$SPLFRAME
 70
     0
  9
$SPLINETYPE
 70
     6
  9
$SPLINESEGS
 70
     8
  9
$HANDSEED
  5
104
  9
$SURFTAB1
 70
     6
  9
$SURFTAB2
 70
     6
  9
$SURFTYPE
 70
     6
  9
$SURFU
 70
     6
  9
$SURFV
 70
     6
  9
$UCSBASE
  2

  9
$UCSNAME
  2

  9
$UCSORG
 10
0.0
 20
0.0
 30
0.0
  9
$UCSXDIR
 10
1.0
 20
0.0
 30
0.0
  9
$UCSYDIR
 10
0.0
 20
1.0
 30
0.0
  9
$UCSORTHOREF
  2

  9
$UCSORTHOVIEW
 70
     0
  9
$UCSORGTOP
 10
0.0
 20
0.0
 30
0.0
  9
$UCSORGBOTTOM
 10
0.0
 20
0.0
 30
0.0
  9
$UCSORGLEFT
 10
0.0
 20
0.0
 30
0.0
  9
$UCSORGRIGHT
 10
0.0
 20
0.0
 30
0.0
  9
$UCSORGFRONT
 10
0.0
 20
0.0
 30
0.0
  9
$UCSORGBACK
 10
0.0
 20
0.0
 30
0.0
  9
$PUCSBASE
  2

  9
$PUCSNAME
  2

  9
$PUCSORG
 10
0.0
 20
0.0
 30
0.0
  9
$PUCSXDIR
 10
1.0
 20
0.0
 30
0.0
  9
$PUCSYDIR
 10
0.0
 20
1.0
 30
0.0
  9
$PUCSORTHOREF
  2

  9
$PUCSORTHOVIEW
 70
     0
  9
$PUCSORGTOP
 10
0.0
 20
0.0
 30
0.0
  9
$PUCSORGBOTTOM
 10
0.0
 20
0.0
 30
0.0
  9
$PUCSORGLEFT
 10
0.0
 20
0.0
 30
0.0
  9
$PUCSORGRIGHT
 10
0.0
 20
0.0
 30
0.0
  9
$PUCSORGFRONT
 10
0.0
 20
0.0
 30
0.0
  9
$PUCSORGBACK
 10
0.0
 20
0.0
 30
0.0
  9
$USERI1
 70
     0
  9
$USERI2
 70
     0
  9
$USERI3
 70
     0
  9
$USERI4
 70
     0
  9
$USERI5
 70
     0
  9
$USERR1
 40
0.0
  9
$USERR2
 40
0.0
  9
$USERR3
 40
0.0
  9
$USERR4
 40
0.0
  9
$USERR5
 40
0.0
  9
$WORLDVIEW
 70
     1
  9
$SHADEDGE
 70
     3
  9
$SHADEDIF
 70
    70
  9
$TILEMODE
 70
     1
  9
$MAXACTVP
 70
    64
  9
$PINSBASE
 10
0.0
 20
0.0
 30
0.0
  9
$PLIMCHECK
 70
     0
  9
$PEXTMIN
 10
1.000000000000000E+20
 20
1.000000000000000E+20
 30
1.000000000000000E+20
  9
$PEXTMAX
 10
-1.000000000000000E+20
 20
-1.000000000000000E+20
 30
-1.000000000000000E+20
  9
$PLIMMIN
 10
0.0
 20
0.0
  9
$PLIMMAX
 10
12.0
 20
9.0
  9
$UNITMODE
 70
     0
  9
$VISRETAIN
 70
     1
  9
$PLINEGEN
 70
     0
  9
$PSLTSCALE
 70
     1
  9
$TREEDEPTH
 70
  3020
  9
$CMLSTYLE
  2
Standard
  9
$CMLJUST
 70
     0
  9
$CMLSCALE
 40
1.0
  9
$PROXYGRAPHICS
 70
     1
  9
$MEASUREMENT
 70
     0
  9
$CELWEIGHT
370
    -1
  9
$ENDCAPS
280
     0
  9
$JOINSTYLE
280
     0
  9
$LWDISPLAY
290
     0
  9
$INSUNITS
 70
     4
  9
$HYPERLINKBASE
  1

  9
$STYLESHEET
  1

  9
$XEDIT
290
     1
  9
$CEPSNTYPE
380
     0
  9
$PSTYLEMODE
290
     1
  9
$FINGERPRINTGUID
  2
{66E442C4-DAC5-4B2E-8F27-9728F7AFB692}
  9
$VERSIONGUID
  2
{FAEB1C32-E019-11D5-929B-00C0DF256EC4}
  9
$EXTNAMES
290
     1
  9
$PSVPSCALE
 40
0.0
  9
$OLESTARTUP
290
     0
  0
ENDSEC
  0
SECTION
  2
CLASSES
  0
CLASS
  1
ACDBDICTIONARYWDFLT
  2
AcDbDictionaryWithDefault
  3
ObjectDBX Classes
 90
        0
280
     0
281
     0
  0
CLASS
  1
VISUALSTYLE
  2
AcDbVisualStyle
  3
ObjectDBX Classes
 90
     4095
280
     0
281
     0
  0
CLASS
  1
MATERIAL
  2
AcDbMaterial
  3
ObjectDBX Classes
 90
     1153
280
     0
281
     0
  0
CLASS
  1
DICTIONARYVAR
  2
AcDbDictionaryVar
  3
ObjectDBX Classes
 90
        0
280
     0
281
     0
  0
CLASS
  1
ACDBPLACEHOLDER
  2
AcDbPlaceHolder
  3
ObjectDBX Classes
 90
        0
280
     0
281
     0
  0
CLASS
  1
LAYOUT
  2
AcDbLayout
  3
ObjectDBX Classes
 90
        0
280
     0
281
     0
  0
ENDSEC
  0
SECTION
  2
TABLES
  0
TABLE
  2
VPORT
  5
8
330
0
100
AcDbSymbolTable
 70
     1
  0
VPORT
  5
29
330
8
100
AcDbSymbolTableRecord
100
AcDbViewportTableRecord
  2
*Active
 70
     0
 10
0.0
 20
0.0
 11
1.0
 21
1.0
 12
10.42990654205607
 22
4.5
 13
0.0
 23
0.0
 14
0.5
 24
0.5
 15
0.5
 25
0.5
 16
0.0
 26
0.0
 36
1.0
 17
0.0
 27
0.0
 37
0.0
 40
9.0
 41
1.972972972850329
 42
50.0
 43
0.0
 44
0.0
 50
0.0
 51
0.0
 71
     0
 72
   100
 73
     1
 74
     3
 75
     0
 76
     0
 77
     0
 78
     0
281
     0
 65
     1
110
0.0
120
0.0
130
0.0
111
1.0
121
0.0
131
0.0
112
0.0
122
1.0
132
0.0
 79
     0
146
0.0
  0
ENDTAB
  0
TABLE
  2
LTYPE
  5
5
330
0
100
AcDbSymbolTable
 70
     1
  0
LTYPE
  5
14
330
5
100
AcDbSymbolTableRecord
100
AcDbLinetypeTableRecord
  2
ByBlock
 70
     0
  3

 72
    65
 73
     0
 40
0.0
  0
LTYPE
  5
15
330
5
100
AcDbSymbolTableRecord
100
AcDbLinetypeTableRecord
  2
ByLayer
 70
     0
  3

 72
    65
 73
     0
 40
0.0
  0
LTYPE
  5
16
330
5
100
AcDbSymbolTableRecord
100
AcDbLinetypeTableRecord
  2
Continuous
 70
     0
  3
Solid line
 72
    65
 73
     0
 40
0.0
  0
ENDTAB
  0
TABLE
  2
LAYER
  5
2
330
0
100
AcDbSymbolTable
 70
     2
  0
LAYER
  5
10
330
2
100
AcDbSymbolTableRecord
100
AcDbLayerTableRecord
  2
0
 70
     0
 62
     7
  6
Continuous
370
    -3
390
F
  0
LAYER
  5
40
330
2
100
AcDbSymbolTableRecord
100
AcDbLayerTableRecord
  2
Ilustrace
 70
     0
 62
     7
  6
Continuous
370
    -3
390
F
  0
ENDTAB
  0
TABLE
  2
STYLE
  5
3
330
0
100
AcDbSymbolTable
 70
     1
  0
STYLE
  5
11
330
3
100
AcDbSymbolTableRecord
100
AcDbTextStyleTableRecord
  2
Standard
 70
     0
 40
0.0
 41
1.0
 50
0.0
 71
     0
 42
0.2
  3
txt
  4

  0
ENDTAB
  0
TABLE
  2
VIEW
  5
6
330
0
100
AcDbSymbolTable
 70
     0
  0
ENDTAB
  0
TABLE
  2
UCS
  5
7
330
0
100
AcDbSymbolTable
 70
     0
  0
ENDTAB
  0
TABLE
  2
APPID
  5
9
330
0
100
AcDbSymbolTable
 70
     2
  0
APPID
  5
12
330
9
100
AcDbSymbolTableRecord
100
AcDbRegAppTableRecord
  2
ACAD
 70
     0
  0
APPID
  5
3F
330
9
100
AcDbSymbolTableRecord
100
AcDbRegAppTableRecord
  2
ODA
 70
     0
  0
ENDTAB
  0
TABLE
  2
DIMSTYLE
  5
A
330
0
100
AcDbSymbolTable
 70
     1
100
AcDbDimStyleTable
  0
DIMSTYLE
105
27
330
A
100
AcDbSymbolTableRecord
100
AcDbDimStyleTableRecord
  2
Standard
 70
     0
340
11
  0
ENDTAB
  0
TABLE
  2
BLOCK_RECORD
  5
1
330
0
100
AcDbSymbolTable
 70
     1
  0
BLOCK_RECORD
  5
1F
330
1
100
AcDbSymbolTableRecord
100
AcDbBlockTableRecord
  2
*Model_Space
340
22
  0
BLOCK_RECORD
  5
1B
330
1
100
AcDbSymbolTableRecord
100
AcDbBlockTableRecord
  2
*Paper_Space
340
1E
  0
BLOCK_RECORD
  5
23
330
1
100
AcDbSymbolTableRecord
100
AcDbBlockTableRecord
  2
*Paper_Space0
340
26
  0
ENDTAB
  0
ENDSEC
  0
SECTION
  2
BLOCKS
  0
BLOCK
  5
20
330
1F
100
AcDbEntity
  8
0
100
AcDbBlockBegin
  2
*Model_Space
 70
     0
 10
0.0
 20
0.0
 30
0.0
  3
*Model_Space
  1

  0
ENDBLK
  5
21
330
1F
100
AcDbEntity
  8
0
100
AcDbBlockEnd
  0
BLOCK
  5
1C
330
1B
100
AcDbEntity
 67
     1
  8
0
100
AcDbBlockBegin
  2
*Paper_Space
 70
     0
 10
0.0
 20
0.0
 30
0.0
  3
*Paper_Space
  1

  0
ENDBLK
  5
1D
330
1B
100
AcDbEntity
 67
     1
  8
0
100
AcDbBlockEnd
  0
BLOCK
  5
24
330
23
100
AcDbEntity
  8
0
100
AcDbBlockBegin
  2
*Paper_Space0
 70
     0
 10
0.0
 20
0.0
 30
0.0
  3
*Paper_Space0
  1

  0
ENDBLK
  5
25
330
23
100
AcDbEntity
  8
0
100
AcDbBlockEnd
  0
ENDSEC
  0
SECTION
  2
ENTITIES
  0
SPLINE
  5
41
330
1F
100
AcDbEntity
  8
Ilustrace
 62
   250
370
    30
100
AcDbSpline
210
0.0
220
0.0
230
1.0
 70
    11
 71
     3
 72
    16
 73
    12
 74
     0
 42
0.0000000001
 43
0.0000000001
 40
0.0
 40
0.0
 40
0.0
 40
0.0
 40
0.25
 40
0.25
 40
0.25
 40
0.25
 40
0.5
 40
0.5
 40
0.5
 40
0.5
 40
1.0
 40
1.0
 40
1.0
 40
1.0
 10
-57.1041
 20
-20.0659
 30
0.0
 10
-57.1041
 20
-20.0659
 30
0.0
 10
51.6841
 20
-20.0877
 30
0.0
 10
51.6841
 20
-20.0877
 30
0.0
 10
51.6841
 20
-20.0877
 30
0.0
 10
51.6841
 20
-20.0877
 30
0.0
 10
-2.688
 20
34.2626
 30
0.0
 10
-2.688
 20
34.2626
 30
0.0
 10
-2.688
 20
34.2626
 30
0.0
 10
-2.688
 20
34.2626
 30
0.0
 10
-57.1041
 20
-20.0659
 30
0.0
 10
-57.1041
 20
-20.0659
 30
0.0
  0
SPLINE
  5
42
330
1F
100
AcDbEntity
  8
Ilustrace
 62
   250
370
    30
100
AcDbSpline
210
0.0
220
0.0
230
1.0
 70
    11
 71
     3
 72
    36
 73
    32
 74
     0
 42
0.0000000001
 43
0.0000000001
 40
0.0
 40
0.0
 40
0.0
 40
0.0
 40
0.1111111111111111
 40
0.1111111111111111
 40
0.1111111111111111
 40
0.1111111111111111
 40
0.2222222222222222
 40
0.2222222222222222
 40
0.2222222222222222
 40
0.2222222222222222
 40
0.3333333333333333
 40
0.3333333333333333
 40
0.3333333333333333
 40
0.3333333333333333
 40
0.4444444444444444
 40
0.4444444444444444
 40
0.4444444444444444
 40
0.4444444444444444
 40
0.5555555555555556
 40
0.5555555555555556
 40
0.5555555555555556
 40
0.5555555555555556
 40
0.6666666666666666
 40
0.6666666666666666
 40
0.6666666666666666
 40
0.6666666666666666
 40
0.7777777777777778
 40
0.7777777777777778
 40
0.7777777777777778
 40
0.7777777777777778
 40
1.0
 40
1.0
 40
1.0
 40
1.0
 10
-20.8043
 20
-13.6598
 30
0.0
 10
-20.7984
 20
-13.4964
 30
0.0
 10
-20.7633
 20
-13.3472
 30
0.0
 10
-20.6776
 20
-13.2089
 30
0.0
 10
-20.6776
 20
-13.2089
 30
0.0
 10
-20.6216
 20
-13.1202
 30
0.0
 10
-20.5493
 20
-13.0392
 30
0.0
 10
-20.4653
 20
-12.9756
 30
0.0
 10
-20.4653
 20
-12.9756
 30
0.0
 10
-19.9934
 20
-12.622
 30
0.0
 10
-19.2916
 20
-12.8578
 30
0.0
 10
-19.1278
 20
-13.4254
 30
0.0
 10
-19.1278
 20
-13.4254
 30
0.0
 10
-19.0998
 20
-13.5257
 30
0.0
 10
-19.0898
 20
-13.6318
 30
0.0
 10
-19.0998
 20
-13.738
 30
0.0
 10
-19.0998
 20
-13.738
 30
0.0
 10
-19.1132
 20
-13.8692
 30
0.0
 10
-19.1558
 20
-13.9959
 30
0.0
 10
-19.2239
 20
-14.1096
 30
0.0
 10
-19.2239
 20
-14.1096
 30
0.0
 10
-19.2946
 20
-14.2203
 30
0.0
 10
-19.3903
 20
-14.316
 30
0.0
 10
-19.501
 20
-14.3854
 30
0.0
 10
-19.501
 20
-14.3854
 30
0.0
 10
-19.6394
 20
-14.4707
 30
0.0
 10
-19.7915
 20
-14.5062
 30
0.0
 10
-19.9508
 20
-14.5137
 30
0.0
 10
-19.9508
 20
-14.5137
 30
0.0
 10
-20.4327
 20
-14.4899
 30
0.0
 10
-20.7838
 20
-14.1392
 30
0.0
 10
-20.8043
 20
-13.6598
 30
0.0
  0
SPLINE
  5
43
330
1F
100
AcDbEntity
  8
Ilustrace
 62
   250
370
    30
100
AcDbSpline
210
0.0
220
0.0
230
1.0
 70
    11
 71
     3
 72
    40
 73
    36
 74
     0
 42
0.0000000001
 43
0.0000000001
 40
0.0
 40
0.0
 40
0.0
 40
0.0
 40
0.1
 40
0.1
 40
0.1
 40
0.1
 40
0.2
 40
0.2
 40
0.2
 40
0.2
 40
0.3
 40
0.3
 40
0.3
 40
0.3
 40
0.4
 40
0.4
 40
0.4
 40
0.4
 40
0.5
 40
0.5
 40
0.5
 40
0.5
 40
0.6
 40
0.6
 40
0.6
 40
0.6
 40
0.7
 40
0.7
 40
0.7
 40
0.7
 40
0.8
 40
0.8
 40
0.8
 40
0.8
 40
1.0
 40
1.0
 40
1.0
 40
1.0
 10
-21.142
 20
-5.0033
 30
0.0
 10
-21.1319
 20
-4.7981
 30
0.0
 10
-21.0918
 20
-4.6108
 30
0.0
 10
-20.9886
 20
-4.4324
 30
0.0
 10
-20.9886
 20
-4.4324
 30
0.0
 10
-20.9075
 20
-4.2882
 30
0.0
 10
-20.7913
 20
-4.164
 30
0.0
 10
-20.6555
 20
-4.0683
 30
0.0
 10
-20.6555
 20
-4.0683
 30
0.0
 10
-20.0185
 20
-3.6215
 30
0.0
 10
-19.1027
 20
-3.9546
 30
0.0
 10
-18.9008
 20
-4.7066
 30
0.0
 10
-18.9008
 20
-4.7066
 30
0.0
 10
-18.867
 20
-4.8365
 30
0.0
 10
-18.8553
 20
-4.969
 30
0.0
 10
-18.867
 20
-5.1003
 30
0.0
 10
-18.867
 20
-5.1003
 30
0.0
 10
-18.8804
 20
-5.2671
 30
0.0
 10
-18.9334
 20
-5.4292
 30
0.0
 10
-19.0145
 20
-5.5709
 30
0.0
 10
-19.0145
 20
-5.5709
 30
0.0
 10
-19.0998
 20
-5.7168
 30
0.0
 10
-19.2135
 20
-5.8405
 30
0.0
 10
-19.3476
 20
-5.9366
 30
0.0
 10
-19.3476
 20
-5.9366
 30
0.0
 10
-19.5437
 20
-6.0737
 30
0.0
 10
-19.7664
 20
-6.131
 30
0.0
 10
-20.0039
 20
-6.1414
 30
0.0
 10
-20.0039
 20
-6.1414
 30
0.0
 10
-20.4787
 20
-6.121
 30
0.0
 10
-20.9046
 20
-5.851
 30
0.0
 10
-21.0743
 20
-5.3908
 30
0.0
 10
-21.0743
 20
-5.3908
 30
0.0
 10
-21.1198
 20
-5.2658
 30
0.0
 10
-21.1349
 20
-5.1358
 30
0.0
 10
-21.142
 20
-5.0033
 30
0.0
  0
SPLINE
  5
44
330
1F
100
AcDbEntity
  8
Ilustrace
 62
   250
370
    30
100
AcDbSpline
210
0.0
220
0.0
230
1.0
 70
    11
 71
     3
 72
    36
 73
    32
 74
     0
 42
0.0000000001
 43
0.0000000001
 40
0.0
 40
0.0
 40
0.0
 40
0.0
 40
0.1111111111111111
 40
0.1111111111111111
 40
0.1111111111111111
 40
0.1111111111111111
 40
0.2222222222222222
 40
0.2222222222222222
 40
0.2222222222222222
 40
0.2222222222222222
 40
0.3333333333333333
 40
0.3333333333333333
 40
0.3333333333333333
 40
0.3333333333333333
 40
0.4444444444444444
 40
0.4444444444444444
 40
0.4444444444444444
 40
0.4444444444444444
 40
0.5555555555555556
 40
0.5555555555555556
 40
0.5555555555555556
 40
0.5555555555555556
 40
0.6666666666666666
 40
0.6666666666666666
 40
0.6666666666666666
 40
0.6666666666666666
 40
0.7777777777777778
 40
0.7777777777777778
 40
0.7777777777777778
 40
0.7777777777777778
 40
1.0
 40
1.0
 40
1.0
 40
1.0
 10
13.7529
 20
-13.6318
 30
0.0
 10
13.7604
 20
-13.794
 30
0.0
 10
13.7955
 20
-13.9428
 30
0.0
 10
13.8812
 20
-14.0816
 30
0.0
 10
13.8812
 20
-14.0816
 30
0.0
 10
13.9372
 20
-14.1731
 30
0.0
 10
14.0078
 20
-14.2513
 30
0.0
 10
14.0935
 20
-14.316
 30
0.0
 10
14.0935
 20
-14.316
 30
0.0
 10
14.5637
 20
-14.6701
 30
0.0
 10
15.2672
 20
-14.4356
 30
0.0
 10
15.4293
 20
-13.868
 30
0.0
 10
15.4293
 20
-13.868
 30
0.0
 10
15.4573
 20
-13.766
 30
0.0
 10
15.4695
 20
-13.6598
 30
0.0
 10
15.4573
 20
-13.5537
 30
0.0
 10
15.4573
 20
-13.5537
 30
0.0
 10
15.4473
 20
-13.4224
 30
0.0
 10
15.4043
 20
-13.2941
 30
0.0
 10
15.3336
 20
-13.1821
 30
0.0
 10
15.3336
 20
-13.1821
 30
0.0
 10
15.2659
 20
-13.0718
 30
0.0
 10
15.1685
 20
-12.9756
 30
0.0
 10
15.0578
 20
-12.905
 30
0.0
 10
15.0578
 20
-12.905
 30
0.0
 10
14.9194
 20
-12.8193
 30
0.0
 10
14.7673
 20
-12.7871
 30
0.0
 10
14.608
 20
-12.7767
 30
0.0
 10
14.608
 20
-12.7767
 30
0.0
 10
14.1261
 20
-12.8018
 30
0.0
 10
13.775
 20
-13.1528
 30
0.0
 10
13.7529
 20
-13.6318
 30
0.0
  0
SPLINE
  5
45
330
1F
100
AcDbEntity
  8
Ilustrace
 62
   250
370
    30
100
AcDbSpline
210
0.0
220
0.0
230
1.0
 70
    11
 71
     3
 72
    40
 73
    36
 74
     0
 42
0.0000000001
 43
0.0000000001
 40
0.0
 40
0.0
 40
0.0
 40
0.0
 40
0.1
 40
0.1
 40
0.1
 40
0.1
 40
0.2
 40
0.2
 40
0.2
 40
0.2
 40
0.3
 40
0.3
 40
0.3
 40
0.3
 40
0.4
 40
0.4
 40
0.4
 40
0.4
 40
0.5
 40
0.5
 40
0.5
 40
0.5
 40
0.6
 40
0.6
 40
0.6
 40
0.6
 40
0.7
 40
0.7
 40
0.7
 40
0.7
 40
0.8
 40
0.8
 40
0.8
 40
0.8
 40
1.0
 40
1.0
 40
1.0
 40
1.0
 10
13.467
 20
-4.9753
 30
0.0
 10
13.477
 20
-4.7392
 30
0.0
 10
13.5376
 20
-4.5181
 30
0.0
 10
13.6747
 20
-4.3233
 30
0.0
 10
13.6747
 20
-4.3233
 30
0.0
 10
13.7708
 20
-4.1862
 30
0.0
 10
13.8946
 20
-4.0712
 30
0.0
 10
14.0375
 20
-3.9902
 30
0.0
 10
14.0375
 20
-3.9902
 30
0.0
 10
14.7129
 20
-3.601
 30
0.0
 10
15.5961
 20
-4.0123
 30
0.0
 10
15.7303
 20
-4.7776
 30
0.0
 10
15.7303
 20
-4.7776
 30
0.0
 10
15.7524
 20
-4.9089
 30
0.0
 10
15.7524
 20
-5.043
 30
0.0
 10
15.7303
 20
-5.1743
 30
0.0
 10
15.7303
 20
-5.1743
 30
0.0
 10
15.7023
 20
-5.3377
 30
0.0
 10
15.6358
 20
-5.4928
 30
0.0
 10
15.5401
 20
-5.6311
 30
0.0
 10
15.5401
 20
-5.6311
 30
0.0
 10
15.4473
 20
-5.7653
 30
0.0
 10
15.3202
 20
-5.879
 30
0.0
 10
15.179
 20
-5.9646
 30
0.0
 10
15.179
 20
-5.9646
 30
0.0
 10
15.0005
 20
-6.065
 30
0.0
 10
14.8103
 20
-6.1059
 30
0.0
 10
14.608
 20
-6.1164
 30
0.0
 10
14.608
 20
-6.1164
 30
0.0
 10
14.129
 20
-6.0959
 30
0.0
 10
13.7044
 20
-5.8259
 30
0.0
 10
13.5376
 20
-5.3657
 30
0.0
 10
13.5376
 20
-5.3657
 30
0.0
 10
13.4904
 20
-5.2374
 30
0.0
 10
13.4728
 20
-5.1107
 30
0.0
 10
13.467
 20
-4.9753
 30
0.0
  0
SPLINE
  5
46
330
1F
100
AcDbEntity
  8
Ilustrace
 62
   250
370
    30
100
AcDbSpline
210
0.0
220
0.0
230
1.0
 70
    11
 71
     3
 72
    36
 73
    32
 74
     0
 42
0.0000000001
 43
0.0000000001
 40
0.0
 40
0.0
 40
0.0
 40
0.0
 40
0.1111111111111111
 40
0.1111111111111111
 40
0.1111111111111111
 40
0.1111111111111111
 40
0.2222222222222222
 40
0.2222222222222222
 40
0.2222222222222222
 40
0.2222222222222222
 40
0.3333333333333333
 40
0.3333333333333333
 40
0.3333333333333333
 40
0.3333333333333333
 40
0.4444444444444444
 40
0.4444444444444444
 40
0.4444444444444444
 40
0.4444444444444444
 40
0.5555555555555556
 40
0.5555555555555556
 40
0.5555555555555556
 40
0.5555555555555556
 40
0.6666666666666666
 40
0.6666666666666666
 40
0.6666666666666666
 40
0.6666666666666666
 40
0.7777777777777778
 40
0.7777777777777778
 40
0.7777777777777778
 40
0.7777777777777778
 40
1.0
 40
1.0
 40
1.0
 40
1.0
 10
31.096
 20
-9.3427
 30
0.0
 10
31.1035
 20
-9.1805
 30
0.0
 10
31.1386
 20
-9.03
 30
0.0
 10
31.2243
 20
-8.8929
 30
0.0
 10
31.2243
 20
-8.8929
 30
0.0
 10
31.2803
 20
-8.8043
 30
0.0
 10
31.351
 20
-8.7232
 30
0.0
 10
31.4366
 20
-8.6614
 30
0.0
 10
31.4366
 20
-8.6614
 30
0.0
 10
31.5207
 20
-8.5978
 30
0.0
 10
31.618
 20
-8.5493
 30
0.0
 10
31.7167
 20
-8.5197
 30
0.0
 10
31.7167
 20
-8.5197
 30
0.0
 10
32.2843
 20
-8.3575
 30
0.0
 10
32.8582
 20
-8.8323
 30
0.0
 10
32.8021
 20
-9.4208
 30
0.0
 10
32.8021
 20
-9.4208
 30
0.0
 10
32.79
 20
-9.5521
 30
0.0
 10
32.7474
 20
-9.6804
 30
0.0
 10
32.678
 20
-9.7924
 30
0.0
 10
32.678
 20
-9.7924
 30
0.0
 10
32.6086
 20
-9.9057
 30
0.0
 10
32.5146
 20
-9.9989
 30
0.0
 10
32.4009
 20
-10.0695
 30
0.0
 10
32.4009
 20
-10.0695
 30
0.0
 10
32.2621
 20
-10.1535
 30
0.0
 10
32.1133
 20
-10.189
 30
0.0
 10
31.9512
 20
-10.1961
 30
0.0
 10
31.9512
 20
-10.1961
 30
0.0
 10
31.4688
 20
-10.1757
 30
0.0
 10
31.1182
 20
-9.8246
 30
0.0
 10
31.096
 20
-9.3427
 30
0.0
  0
SPLINE
  5
47
330
1F
100
AcDbEntity
  8
Ilustrace
 62
   250
370
    30
100
AcDbSpline
210
0.0
220
0.0
230
1.0
 70
    11
 71
     3
 72
    36
 73
    32
 74
     0
 42
0.0000000001
 43
0.0000000001
 40
0.0
 40
0.0
 40
0.0
 40
0.0
 40
0.1111111111111111
 40
0.1111111111111111
 40
0.1111111111111111
 40
0.1111111111111111
 40
0.2222222222222222
 40
0.2222222222222222
 40
0.2222222222222222
 40
0.2222222222222222
 40
0.3333333333333333
 40
0.3333333333333333
 40
0.3333333333333333
 40
0.3333333333333333
 40
0.4444444444444444
 40
0.4444444444444444
 40
0.4444444444444444
 40
0.4444444444444444
 40
0.5555555555555556
 40
0.5555555555555556
 40
0.5555555555555556
 40
0.5555555555555556
 40
0.6666666666666666
 40
0.6666666666666666
 40
0.6666666666666666
 40
0.6666666666666666
 40
0.7777777777777778
 40
0.7777777777777778
 40
0.7777777777777778
 40
0.7777777777777778
 40
1.0
 40
1.0
 40
1.0
 40
1.0
 10
26.7257
 20
-4.9941
 30
0.0
 10
26.7299
 20
-4.8336
 30
0.0
 10
26.7654
 20
-4.6815
 30
0.0
 10
26.8507
 20
-4.5461
 30
0.0
 10
26.8507
 20
-4.5461
 30
0.0
 10
26.9067
 20
-4.4545
 30
0.0
 10
26.9807
 20
-4.3764
 30
0.0
 10
27.063
 20
-4.3133
 30
0.0
 10
27.063
 20
-4.3133
 30
0.0
 10
27.1475
 20
-4.2497
 30
0.0
 10
27.2432
 20
-4.2025
 30
0.0
 10
27.3464
 20
-4.1716
 30
0.0
 10
27.3464
 20
-4.1716
 30
0.0
 10
27.914
 20
-4.0106
 30
0.0
 10
28.4845
 20
-4.4842
 30
0.0
 10
28.4302
 20
-5.0723
 30
0.0
 10
28.4302
 20
-5.0723
 30
0.0
 10
28.4168
 20
-5.2052
 30
0.0
 10
28.3742
 20
-5.3335
 30
0.0
 10
28.3061
 20
-5.4439
 30
0.0
 10
28.3061
 20
-5.4439
 30
0.0
 10
28.2354
 20
-5.5575
 30
0.0
 10
28.1397
 20
-5.652
 30
0.0
 10
28.0277
 20
-5.7197
 30
0.0
 10
28.0277
 20
-5.7197
 30
0.0
 10
27.8889
 20
-5.8054
 30
0.0
 10
27.7401
 20
-5.8405
 30
0.0
 10
27.5792
 20
-5.848
 30
0.0
 10
27.5792
 20
-5.848
 30
0.0
 10
27.0973
 20
-5.8259
 30
0.0
 10
26.7475
 20
-5.4748
 30
0.0
 10
26.7257
 20
-4.9941
 30
0.0
  0
SPLINE
  5
48
330
1F
100
AcDbEntity
  8
Ilustrace
 62
   250
370
    30
100
AcDbSpline
210
0.0
220
0.0
230
1.0
 70
    11
 71
     3
 72
    36
 73
    32
 74
     0
 42
0.0000000001
 43
0.0000000001
 40
0.0
 40
0.0
 40
0.0
 40
0.0
 40
0.1111111111111111
 40
0.1111111111111111
 40
0.1111111111111111
 40
0.1111111111111111
 40
0.2222222222222222
 40
0.2222222222222222
 40
0.2222222222222222
 40
0.2222222222222222
 40
0.3333333333333333
 40
0.3333333333333333
 40
0.3333333333333333
 40
0.3333333333333333
 40
0.4444444444444444
 40
0.4444444444444444
 40
0.4444444444444444
 40
0.4444444444444444
 40
0.5555555555555556
 40
0.5555555555555556
 40
0.5555555555555556
 40
0.5555555555555556
 40
0.6666666666666666
 40
0.6666666666666666
 40
0.6666666666666666
 40
0.6666666666666666
 40
0.7777777777777778
 40
0.7777777777777778
 40
0.7777777777777778
 40
0.7777777777777778
 40
1.0
 40
1.0
 40
1.0
 40
1.0
 10
35.4207
 20
-13.6849
 30
0.0
 10
35.4282
 20
-13.5244
 30
0.0
 10
35.4633
 20
-13.3723
 30
0.0
 10
35.549
 20
-13.2339
 30
0.0
 10
35.549
 20
-13.2339
 30
0.0
 10
35.6197
 20
-13.1215
 30
0.0
 10
35.7141
 20
-13.0258
 30
0.0
 10
35.8278
 20
-12.9581
 30
0.0
 10
35.8278
 20
-12.9581
 30
0.0
 10
36.3273
 20
-12.6454
 30
0.0
 10
37.0086
 20
-12.9476
 30
0.0
 10
37.1177
 20
-13.5286
 30
0.0
 10
37.1177
 20
-13.5286
 30
0.0
 10
37.1356
 20
-13.6318
 30
0.0
 10
37.1356
 20
-13.738
 30
0.0
 10
37.1177
 20
-13.8412
 30
0.0
 10
37.1177
 20
-13.8412
 30
0.0
 10
37.0972
 20
-13.9461
 30
0.0
 10
37.0575
 20
-14.0431
 30
0.0
 10
37.0044
 20
-14.1346
 30
0.0
 10
37.0044
 20
-14.1346
 30
0.0
 10
36.9333
 20
-14.2454
 30
0.0
 10
36.8376
 20
-14.3411
 30
0.0
 10
36.7256
 20
-14.4105
 30
0.0
 10
36.7256
 20
-14.4105
 30
0.0
 10
36.5868
 20
-14.4958
 30
0.0
 10
36.438
 20
-14.5313
 30
0.0
 10
36.2775
 20
-14.5388
 30
0.0
 10
36.2775
 20
-14.5388
 30
0.0
 10
35.7952
 20
-14.5167
 30
0.0
 10
35.4458
 20
-14.1672
 30
0.0
 10
35.4207
 20
-13.6849
 30
0.0
  0
SPLINE
  5
49
330
1F
100
AcDbEntity
  8
Ilustrace
 62
   250
370
    30
100
AcDbSpline
210
0.0
220
0.0
230
1.0
 70
    11
 71
     3
 72
    36
 73
    32
 74
     0
 42
0.0000000001
 43
0.0000000001
 40
0.0
 40
0.0
 40
0.0
 40
0.0
 40
0.1111111111111111
 40
0.1111111111111111
 40
0.1111111111111111
 40
0.1111111111111111
 40
0.2222222222222222
 40
0.2222222222222222
 40
0.2222222222222222
 40
0.2222222222222222
 40
0.3333333333333333
 40
0.3333333333333333
 40
0.3333333333333333
 40
0.3333333333333333
 40
0.4444444444444444
 40
0.4444444444444444
 40
0.4444444444444444
 40
0.4444444444444444
 40
0.5555555555555556
 40
0.5555555555555556
 40
0.5555555555555556
 40
0.5555555555555556
 40
0.6666666666666666
 40
0.6666666666666666
 40
0.6666666666666666
 40
0.6666666666666666
 40
0.7777777777777778
 40
0.7777777777777778
 40
0.7777777777777778
 40
0.7777777777777778
 40
1.0
 40
1.0
 40
1.0
 40
1.0
 10
31.0931
 20
-13.6849
 30
0.0
 10
31.1035
 20
-13.5244
 30
0.0
 10
31.1357
 20
-13.3723
 30
0.0
 10
31.2214
 20
-13.2339
 30
0.0
 10
31.2214
 20
-13.2339
 30
0.0
 10
31.2774
 20
-13.1453
 30
0.0
 10
31.351
 20
-13.0672
 30
0.0
 10
31.4337
 20
-13.0036
 30
0.0
 10
31.4337
 20
-13.0036
 30
0.0
 10
31.9039
 20
-12.6454
 30
0.0
 10
32.6103
 20
-12.8828
 30
0.0
 10
32.7695
 20
-13.4504
 30
0.0
 10
32.7695
 20
-13.4504
 30
0.0
 10
32.8005
 20
-13.5507
 30
0.0
 10
32.8109
 20
-13.6569
 30
0.0
 10
32.8005
 20
-13.7631
 30
0.0
 10
32.8005
 20
-13.7631
 30
0.0
 10
32.7871
 20
-13.8943
 30
0.0
 10
32.7445
 20
-14.021
 30
0.0
 10
32.6768
 20
-14.1346
 30
0.0
 10
32.6768
 20
-14.1346
 30
0.0
 10
32.6057
 20
-14.2454
 30
0.0
 10
32.51
 20
-14.3411
 30
0.0
 10
32.398
 20
-14.4105
 30
0.0
 10
32.398
 20
-14.4105
 30
0.0
 10
32.2592
 20
-14.4958
 30
0.0
 10
32.1104
 20
-14.5313
 30
0.0
 10
31.9495
 20
-14.5388
 30
0.0
 10
31.9495
 20
-14.5388
 30
0.0
 10
31.4676
 20
-14.5167
 30
0.0
 10
31.1182
 20
-14.1672
 30
0.0
 10
31.0931
 20
-13.6849
 30
0.0
  0
SPLINE
  5
4A
330
1F
100
AcDbEntity
  8
Ilustrace
 62
   250
370
    30
100
AcDbSpline
210
0.0
220
0.0
230
1.0
 70
    11
 71
     3
 72
    36
 73
    32
 74
     0
 42
0.0000000001
 43
0.0000000001
 40
0.0
 40
0.0
 40
0.0
 40
0.0
 40
0.1111111111111111
 40
0.1111111111111111
 40
0.1111111111111111
 40
0.1111111111111111
 40
0.2222222222222222
 40
0.2222222222222222
 40
0.2222222222222222
 40
0.2222222222222222
 40
0.3333333333333333
 40
0.3333333333333333
 40
0.3333333333333333
 40
0.3333333333333333
 40
0.4444444444444444
 40
0.4444444444444444
 40
0.4444444444444444
 40
0.4444444444444444
 40
0.5555555555555556
 40
0.5555555555555556
 40
0.5555555555555556
 40
0.5555555555555556
 40
0.6666666666666666
 40
0.6666666666666666
 40
0.6666666666666666
 40
0.6666666666666666
 40
0.7777777777777778
 40
0.7777777777777778
 40
0.7777777777777778
 40
0.7777777777777778
 40
1.0
 40
1.0
 40
1.0
 40
1.0
 10
26.7684
 20
-13.6849
 30
0.0
 10
26.7759
 20
-13.8442
 30
0.0
 10
26.8081
 20
-13.9959
 30
0.0
 10
26.895
 20
-14.1346
 30
0.0
 10
26.895
 20
-14.1346
 30
0.0
 10
26.9631
 20
-14.2454
 30
0.0
 10
27.0589
 20
-14.3411
 30
0.0
 10
27.1721
 20
-14.4105
 30
0.0
 10
27.1721
 20
-14.4105
 30
0.0
 10
27.672
 20
-14.7231
 30
0.0
 10
28.3533
 20
-14.4222
 30
0.0
 10
28.4624
 20
-13.8412
 30
0.0
 10
28.4624
 20
-13.8412
 30
0.0
 10
28.4804
 20
-13.738
 30
0.0
 10
28.4804
 20
-13.6318
 30
0.0
 10
28.4624
 20
-13.5286
 30
0.0
 10
28.4624
 20
-13.5286
 30
0.0
 10
28.4419
 20
-13.4224
 30
0.0
 10
28.4022
 20
-13.3238
 30
0.0
 10
28.3491
 20
-13.2339
 30
0.0
 10
28.3491
 20
-13.2339
 30
0.0
 10
28.2781
 20
-13.1215
 30
0.0
 10
28.1824
 20
-13.0258
 30
0.0
 10
28.0703
 20
-12.9581
 30
0.0
 10
28.0703
 20
-12.9581
 30
0.0
 10
27.9316
 20
-12.8724
 30
0.0
 10
27.7828
 20
-12.8373
 30
0.0
 10
27.6219
 20
-12.8298
 30
0.0
 10
27.6219
 20
-12.8298
 30
0.0
 10
27.1399
 20
-12.8519
 30
0.0
 10
26.7905
 20
-13.203
 30
0.0
 10
26.7684
 20
-13.6849
 30
0.0
  0
SPLINE
  5
4B
330
1F
100
AcDbEntity
  8
Ilustrace
 62
   250
370
    30
100
AcDbSpline
210
0.0
220
0.0
230
1.0
 70
    11
 71
     3
 72
    40
 73
    36
 74
     0
 42
0.0000000001
 43
0.0000000001
 40
0.0
 40
0.0
 40
0.0
 40
0.0
 40
0.1
 40
0.1
 40
0.1
 40
0.1
 40
0.2
 40
0.2
 40
0.2
 40
0.2
 40
0.3
 40
0.3
 40
0.3
 40
0.3
 40
0.4
 40
0.4
 40
0.4
 40
0.4
 40
0.5
 40
0.5
 40
0.5
 40
0.5
 40
0.6
 40
0.6
 40
0.6
 40
0.6
 40
0.7
 40
0.7
 40
0.7
 40
0.7
 40
0.8
 40
0.8
 40
0.8
 40
0.8
 40
1.0
 40
1.0
 40
1.0
 40
1.0
 10
26.6238
 20
-9.3573
 30
0.0
 10
26.6342
 20
-9.1437
 30
0.0
 10
26.6873
 20
-8.946
 30
0.0
 10
26.8139
 20
-8.7688
 30
0.0
 10
26.8139
 20
-8.7688
 30
0.0
 10
26.9025
 20
-8.648
 30
0.0
 10
27.0175
 20
-8.5493
 30
0.0
 10
27.1487
 20
-8.477
 30
0.0
 10
27.1487
 20
-8.477
 30
0.0
 10
27.2536
 20
-8.421
 30
0.0
 10
27.3686
 20
-8.3826
 30
0.0
 10
27.4877
 20
-8.368
 30
0.0
 10
27.4877
 20
-8.368
 30
0.0
 10
28.1468
 20
-8.2793
 30
0.0
 10
28.722
 20
-8.8783
 30
0.0
 10
28.6012
 20
-9.5341
 30
0.0
 10
28.6012
 20
-9.5341
 30
0.0
 10
28.5807
 20
-9.6507
 30
0.0
 10
28.5376
 20
-9.7644
 30
0.0
 10
28.4774
 20
-9.8676
 30
0.0
 10
28.4774
 20
-9.8676
 30
0.0
 10
28.4022
 20
-9.9943
 30
0.0
 10
28.296
 20
-10.105
 30
0.0
 10
28.1719
 20
-10.189
 30
0.0
 10
28.1719
 20
-10.189
 30
0.0
 10
28.0156
 20
-10.2893
 30
0.0
 10
27.8492
 20
-10.3349
 30
0.0
 10
27.6649
 20
-10.3525
 30
0.0
 10
27.6649
 20
-10.3525
 30
0.0
 10
27.2357
 20
-10.3525
 30
0.0
 10
26.8436
 20
-10.1197
 30
0.0
 10
26.6873
 20
-9.7067
 30
0.0
 10
26.6873
 20
-9.7067
 30
0.0
 10
26.6447
 20
-9.5934
 30
0.0
 10
26.6296
 20
-9.4768
 30
0.0
 10
26.6238
 20
-9.3573
 30
0.0
  0
SPLINE
  5
4C
330
1F
100
AcDbEntity
  8
Ilustrace
 62
   250
370
    30
100
AcDbSpline
210
0.0
220
0.0
230
1.0
 70
    11
 71
     3
 72
    36
 73
    32
 74
     0
 42
0.0000000001
 43
0.0000000001
 40
0.0
 40
0.0
 40
0.0
 40
0.0
 40
0.1111111111111111
 40
0.1111111111111111
 40
0.1111111111111111
 40
0.1111111111111111
 40
0.2222222222222222
 40
0.2222222222222222
 40
0.2222222222222222
 40
0.2222222222222222
 40
0.3333333333333333
 40
0.3333333333333333
 40
0.3333333333333333
 40
0.3333333333333333
 40
0.4444444444444444
 40
0.4444444444444444
 40
0.4444444444444444
 40
0.4444444444444444
 40
0.5555555555555556
 40
0.5555555555555556
 40
0.5555555555555556
 40
0.5555555555555556
 40
0.6666666666666666
 40
0.6666666666666666
 40
0.6666666666666666
 40
0.6666666666666666
 40
0.7777777777777778
 40
0.7777777777777778
 40
0.7777777777777778
 40
0.7777777777777778
 40
1.0
 40
1.0
 40
1.0
 40
1.0
 10
22.4407
 20
-0.7008
 30
0.0
 10
22.4478
 20
-0.5382
 30
0.0
 10
22.4804
 20
-0.3894
 30
0.0
 10
22.5674
 20
-0.251
 30
0.0
 10
22.5674
 20
-0.251
 30
0.0
 10
22.6221
 20
-0.1595
 30
0.0
 10
22.6957
 20
-0.0813
 30
0.0
 10
22.7785
 20
-0.0165
 30
0.0
 10
22.7785
 20
-0.0165
 30
0.0
 10
22.8625
 20
0.047
 30
0.0
 10
22.9582
 20
0.0925
 30
0.0
 10
23.0614
 20
0.1239
 30
0.0
 10
23.0614
 20
0.1239
 30
0.0
 10
23.6278
 20
0.2844
 30
0.0
 10
24.1983
 20
-0.1904
 30
0.0
 10
24.1452
 20
-0.7785
 30
0.0
 10
24.1452
 20
-0.7785
 30
0.0
 10
24.1318
 20
-0.9097
 30
0.0
 10
24.0892
 20
-1.0381
 30
0.0
 10
24.0215
 20
-1.1501
 30
0.0
 10
24.0215
 20
-1.1501
 30
0.0
 10
23.9504
 20
-1.2608
 30
0.0
 10
23.8547
 20
-1.3565
 30
0.0
 10
23.744
 20
-1.4276
 30
0.0
 10
23.744
 20
-1.4276
 30
0.0
 10
23.6039
 20
-1.5129
 30
0.0
 10
23.4551
 20
-1.5455
 30
0.0
 10
23.2942
 20
-1.553
 30
0.0
 10
23.2942
 20
-1.553
 30
0.0
 10
22.8123
 20
-1.5308
 30
0.0
 10
22.4612
 20
-1.1797
 30
0.0
 10
22.4407
 20
-0.7008
 30
0.0
  0
SPLINE
  5
4D
330
1F
100
AcDbEntity
  8
Ilustrace
 62
   250
370
    30
100
AcDbSpline
210
0.0
220
0.0
230
1.0
 70
    11
 71
     3
 72
    36
 73
    32
 74
     0
 42
0.0000000001
 43
0.0000000001
 40
0.0
 40
0.0
 40
0.0
 40
0.0
 40
0.1111111111111111
 40
0.1111111111111111
 40
0.1111111111111111
 40
0.1111111111111111
 40
0.2222222222222222
 40
0.2222222222222222
 40
0.2222222222222222
 40
0.2222222222222222
 40
0.3333333333333333
 40
0.3333333333333333
 40
0.3333333333333333
 40
0.3333333333333333
 40
0.4444444444444444
 40
0.4444444444444444
 40
0.4444444444444444
 40
0.4444444444444444
 40
0.5555555555555556
 40
0.5555555555555556
 40
0.5555555555555556
 40
0.5555555555555556
 40
0.6666666666666666
 40
0.6666666666666666
 40
0.6666666666666666
 40
0.6666666666666666
 40
0.7777777777777778
 40
0.7777777777777778
 40
0.7777777777777778
 40
0.7777777777777778
 40
1.0
 40
1.0
 40
1.0
 40
1.0
 10
22.4407
 20
-13.6849
 30
0.0
 10
22.4478
 20
-13.5244
 30
0.0
 10
22.4804
 20
-13.3723
 30
0.0
 10
22.5674
 20
-13.2339
 30
0.0
 10
22.5674
 20
-13.2339
 30
0.0
 10
22.6221
 20
-13.1453
 30
0.0
 10
22.6957
 20
-13.0672
 30
0.0
 10
22.7785
 20
-13.0036
 30
0.0
 10
22.7785
 20
-13.0036
 30
0.0
 10
22.8625
 20
-12.9376
 30
0.0
 10
22.9582
 20
-12.8904
 30
0.0
 10
23.0614
 20
-12.8624
 30
0.0
 10
23.0614
 20
-12.8624
 30
0.0
 10
23.6278
 20
-12.7002
 30
0.0
 10
24.1983
 20
-13.1746
 30
0.0
 10
24.1452
 20
-13.7631
 30
0.0
 10
24.1452
 20
-13.7631
 30
0.0
 10
24.1318
 20
-13.8943
 30
0.0
 10
24.0892
 20
-14.021
 30
0.0
 10
24.0215
 20
-14.1346
 30
0.0
 10
24.0215
 20
-14.1346
 30
0.0
 10
23.9504
 20
-14.2454
 30
0.0
 10
23.8547
 20
-14.3411
 30
0.0
 10
23.744
 20
-14.4105
 30
0.0
 10
23.744
 20
-14.4105
 30
0.0
 10
23.6039
 20
-14.4958
 30
0.0
 10
23.4551
 20
-14.5313
 30
0.0
 10
23.2942
 20
-14.5388
 30
0.0
 10
23.2942
 20
-14.5388
 30
0.0
 10
22.8123
 20
-14.5167
 30
0.0
 10
22.4612
 20
-14.1672
 30
0.0
 10
22.4407
 20
-13.6849
 30
0.0
  0
SPLINE
  5
4E
330
1F
100
AcDbEntity
  8
Ilustrace
 62
   250
370
    30
100
AcDbSpline
210
0.0
220
0.0
230
1.0
 70
    11
 71
     3
 72
    40
 73
    36
 74
     0
 42
0.0000000001
 43
0.0000000001
 40
0.0
 40
0.0
 40
0.0
 40
0.0
 40
0.1
 40
0.1
 40
0.1
 40
0.1
 40
0.2
 40
0.2
 40
0.2
 40
0.2
 40
0.3
 40
0.3
 40
0.3
 40
0.3
 40
0.4
 40
0.4
 40
0.4
 40
0.4
 40
0.5
 40
0.5
 40
0.5
 40
0.5
 40
0.6
 40
0.6
 40
0.6
 40
0.6
 40
0.7
 40
0.7
 40
0.7
 40
0.7
 40
0.8
 40
0.8
 40
0.8
 40
0.8
 40
1.0
 40
1.0
 40
1.0
 40
1.0
 10
22.2961
 20
-9.3573
 30
0.0
 10
22.3066
 20
-9.1437
 30
0.0
 10
22.3597
 20
-8.946
 30
0.0
 10
22.4863
 20
-8.7688
 30
0.0
 10
22.4863
 20
-8.7688
 30
0.0
 10
22.5749
 20
-8.648
 30
0.0
 10
22.6915
 20
-8.5493
 30
0.0
 10
22.8228
 20
-8.477
 30
0.0
 10
22.8228
 20
-8.477
 30
0.0
 10
22.954
 20
-8.4064
 30
0.0
 10
23.0999
 20
-8.368
 30
0.0
 10
23.2487
 20
-8.3604
 30
0.0
 10
23.2487
 20
-8.3604
 30
0.0
 10
23.3695
 20
-8.3533
 30
0.0
 10
23.489
 20
-8.3709
 30
0.0
 10
23.6027
 20
-8.4064
 30
0.0
 10
23.6027
 20
-8.4064
 30
0.0
 10
24.2351
 20
-8.6129
 30
0.0
 10
24.4934
 20
-9.4028
 30
0.0
 10
24.0996
 20
-9.9412
 30
0.0
 10
24.0996
 20
-9.9412
 30
0.0
 10
24.0315
 20
-10.0398
 30
0.0
 10
23.9433
 20
-10.1226
 30
0.0
 10
23.8443
 20
-10.189
 30
0.0
 10
23.8443
 20
-10.189
 30
0.0
 10
23.688
 20
-10.2893
 30
0.0
 10
23.5216
 20
-10.3349
 30
0.0
 10
23.3373
 20
-10.3525
 30
0.0
 10
23.3373
 20
-10.3525
 30
0.0
 10
23.2161
 20
-10.3525
 30
0.0
 10
23.1028
 20
-10.3424
 30
0.0
 10
22.9862
 20
-10.304
 30
0.0
 10
22.9862
 20
-10.304
 30
0.0
 10
22.5645
 20
-10.1681
 30
0.0
 10
22.317
 20
-9.7849
 30
0.0
 10
22.2961
 20
-9.3573
 30
0.0
  0
SPLINE
  5
4F
330
1F
100
AcDbEntity
  8
Ilustrace
 62
   250
370
    30
100
AcDbSpline
210
0.0
220
0.0
230
1.0
 70
    11
 71
     3
 72
    40
 73
    36
 74
     0
 42
0.0000000001
 43
0.0000000001
 40
0.0
 40
0.0
 40
0.0
 40
0.0
 40
0.1
 40
0.1
 40
0.1
 40
0.1
 40
0.2
 40
0.2
 40
0.2
 40
0.2
 40
0.3
 40
0.3
 40
0.3
 40
0.3
 40
0.4
 40
0.4
 40
0.4
 40
0.4
 40
0.5
 40
0.5
 40
0.5
 40
0.5
 40
0.6
 40
0.6
 40
0.6
 40
0.6
 40
0.7
 40
0.7
 40
0.7
 40
0.7
 40
0.8
 40
0.8
 40
0.8
 40
0.8
 40
1.0
 40
1.0
 40
1.0
 40
1.0
 10
22.2961
 20
-5.0284
 30
0.0
 10
22.3066
 20
-5.242
 30
0.0
 10
22.3597
 20
-5.4397
 30
0.0
 10
22.4863
 20
-5.6135
 30
0.0
 10
22.4863
 20
-5.6135
 30
0.0
 10
22.5749
 20
-5.7343
 30
0.0
 10
22.6915
 20
-5.8363
 30
0.0
 10
22.8228
 20
-5.907
 30
0.0
 10
22.8228
 20
-5.907
 30
0.0
 10
22.954
 20
-5.9763
 30
0.0
 10
23.0999
 20
-6.0177
 30
0.0
 10
23.2487
 20
-6.0248
 30
0.0
 10
23.2487
 20
-6.0248
 30
0.0
 10
23.3695
 20
-6.0278
 30
0.0
 10
23.489
 20
-6.0119
 30
0.0
 10
23.6027
 20
-5.9747
 30
0.0
 10
23.6027
 20
-5.9747
 30
0.0
 10
23.716
 20
-5.9396
 30
0.0
 10
23.8221
 20
-5.8806
 30
0.0
 10
23.9153
 20
-5.8083
 30
0.0
 10
23.9153
 20
-5.8083
 30
0.0
 10
24.465
 20
-5.3686
 30
0.0
 10
24.3839
 20
-4.4825
 30
0.0
 10
23.7661
 20
-4.1494
 30
0.0
 10
23.7661
 20
-4.1494
 30
0.0
 10
23.6039
 20
-4.0637
 30
0.0
 10
23.433
 20
-4.0328
 30
0.0
 10
23.2487
 20
-4.0328
 30
0.0
 10
23.2487
 20
-4.0328
 30
0.0
 10
23.1279
 20
-4.0432
 30
0.0
 10
23.0142
 20
-4.0637
 30
0.0
 10
22.9022
 20
-4.111
 30
0.0
 10
22.9022
 20
-4.111
 30
0.0
 10
22.526
 20
-4.2702
 30
0.0
 10
22.3137
 20
-4.6284
 30
0.0
 10
22.2961
 20
-5.0284
 30
0.0
  0
SPLINE
  5
50
330
1F
100
AcDbEntity
  8
Ilustrace
 62
   250
370
    30
100
AcDbSpline
210
0.0
220
0.0
230
1.0
 70
    11
 71
     3
 72
    36
 73
    32
 74
     0
 42
0.0000000001
 43
0.0000000001
 40
0.0
 40
0.0
 40
0.0
 40
0.0
 40
0.1111111111111111
 40
0.1111111111111111
 40
0.1111111111111111
 40
0.1111111111111111
 40
0.2222222222222222
 40
0.2222222222222222
 40
0.2222222222222222
 40
0.2222222222222222
 40
0.3333333333333333
 40
0.3333333333333333
 40
0.3333333333333333
 40
0.3333333333333333
 40
0.4444444444444444
 40
0.4444444444444444
 40
0.4444444444444444
 40
0.4444444444444444
 40
0.5555555555555556
 40
0.5555555555555556
 40
0.5555555555555556
 40
0.5555555555555556
 40
0.6666666666666666
 40
0.6666666666666666
 40
0.6666666666666666
 40
0.6666666666666666
 40
0.7777777777777778
 40
0.7777777777777778
 40
0.7777777777777778
 40
0.7777777777777778
 40
1.0
 40
1.0
 40
1.0
 40
1.0
 10
18.1102
 20
3.6302
 30
0.0
 10
18.1202
 20
3.468
 30
0.0
 10
18.1528
 20
3.3176
 30
0.0
 10
18.2397
 20
3.1776
 30
0.0
 10
18.2397
 20
3.1776
 30
0.0
 10
18.2945
 20
3.089
 30
0.0
 10
18.3681
 20
3.0091
 30
0.0
 10
18.4521
 20
2.946
 30
0.0
 10
18.4521
 20
2.946
 30
0.0
 10
18.921
 20
2.592
 30
0.0
 10
19.6257
 20
2.8265
 30
0.0
 10
19.7896
 20
3.3957
 30
0.0
 10
19.7896
 20
3.3957
 30
0.0
 10
19.8176
 20
3.4961
 30
0.0
 10
19.828
 20
3.6022
 30
0.0
 10
19.8176
 20
3.7084
 30
0.0
 10
19.8176
 20
3.7084
 30
0.0
 10
19.8042
 20
3.8396
 30
0.0
 10
19.7616
 20
3.9663
 30
0.0
 10
19.6939
 20
4.08
 30
0.0
 10
19.6939
 20
4.08
 30
0.0
 10
19.6228
 20
4.1903
 30
0.0
 10
19.5271
 20
4.286
 30
0.0
 10
19.4163
 20
4.3541
 30
0.0
 10
19.4163
 20
4.3541
 30
0.0
 10
19.2763
 20
4.4423
 30
0.0
 10
19.1258
 20
4.4766
 30
0.0
 10
18.9666
 20
4.4837
 30
0.0
 10
18.9666
 20
4.4837
 30
0.0
 10
18.4847
 20
4.4603
 30
0.0
 10
18.1336
 20
4.1092
 30
0.0
 10
18.1102
 20
3.6302
 30
0.0
  0
SPLINE
  5
51
330
1F
100
AcDbEntity
  8
Ilustrace
 62
   250
370
    30
100
AcDbSpline
210
0.0
220
0.0
230
1.0
 70
    11
 71
     3
 72
    36
 73
    32
 74
     0
 42
0.0000000001
 43
0.0000000001
 40
0.0
 40
0.0
 40
0.0
 40
0.0
 40
0.1111111111111111
 40
0.1111111111111111
 40
0.1111111111111111
 40
0.1111111111111111
 40
0.2222222222222222
 40
0.2222222222222222
 40
0.2222222222222222
 40
0.2222222222222222
 40
0.3333333333333333
 40
0.3333333333333333
 40
0.3333333333333333
 40
0.3333333333333333
 40
0.4444444444444444
 40
0.4444444444444444
 40
0.4444444444444444
 40
0.4444444444444444
 40
0.5555555555555556
 40
0.5555555555555556
 40
0.5555555555555556
 40
0.5555555555555556
 40
0.6666666666666666
 40
0.6666666666666666
 40
0.6666666666666666
 40
0.6666666666666666
 40
0.7777777777777778
 40
0.7777777777777778
 40
0.7777777777777778
 40
0.7777777777777778
 40
1.0
 40
1.0
 40
1.0
 40
1.0
 10
18.1102
 20
-13.6849
 30
0.0
 10
18.1202
 20
-13.8442
 30
0.0
 10
18.1528
 20
-13.9959
 30
0.0
 10
18.2397
 20
-14.1346
 30
0.0
 10
18.2397
 20
-14.1346
 30
0.0
 10
18.2945
 20
-14.2233
 30
0.0
 10
18.3681
 20
-14.3043
 30
0.0
 10
18.4521
 20
-14.3675
 30
0.0
 10
18.4521
 20
-14.3675
 30
0.0
 10
18.5348
 20
-14.4297
 30
0.0
 10
18.6305
 20
-14.4782
 30
0.0
 10
18.7338
 20
-14.5062
 30
0.0
 10
18.7338
 20
-14.5062
 30
0.0
 10
19.3001
 20
-14.6671
 30
0.0
 10
19.8707
 20
-14.1923
 30
0.0
 10
19.8176
 20
-13.6068
 30
0.0
 10
19.8176
 20
-13.6068
 30
0.0
 10
19.8042
 20
-13.4755
 30
0.0
 10
19.7616
 20
-13.3472
 30
0.0
 10
19.6939
 20
-13.2339
 30
0.0
 10
19.6939
 20
-13.2339
 30
0.0
 10
19.6228
 20
-13.1215
 30
0.0
 10
19.5271
 20
-13.0258
 30
0.0
 10
19.4163
 20
-12.9581
 30
0.0
 10
19.4163
 20
-12.9581
 30
0.0
 10
19.2763
 20
-12.8724
 30
0.0
 10
19.1258
 20
-12.8373
 30
0.0
 10
18.9666
 20
-12.8298
 30
0.0
 10
18.9666
 20
-12.8298
 30
0.0
 10
18.4847
 20
-12.8519
 30
0.0
 10
18.1336
 20
-13.203
 30
0.0
 10
18.1102
 20
-13.6849
 30
0.0
  0
SPLINE
  5
52
330
1F
100
AcDbEntity
  8
Ilustrace
 62
   250
370
    30
100
AcDbSpline
210
0.0
220
0.0
230
1.0
 70
    11
 71
     3
 72
    40
 73
    36
 74
     0
 42
0.0000000001
 43
0.0000000001
 40
0.0
 40
0.0
 40
0.0
 40
0.0
 40
0.1
 40
0.1
 40
0.1
 40
0.1
 40
0.2
 40
0.2
 40
0.2
 40
0.2
 40
0.3
 40
0.3
 40
0.3
 40
0.3
 40
0.4
 40
0.4
 40
0.4
 40
0.4
 40
0.5
 40
0.5
 40
0.5
 40
0.5
 40
0.6
 40
0.6
 40
0.6
 40
0.6
 40
0.7
 40
0.7
 40
0.7
 40
0.7
 40
0.8
 40
0.8
 40
0.8
 40
0.8
 40
1.0
 40
1.0
 40
1.0
 40
1.0
 10
17.9685
 20
-9.3573
 30
0.0
 10
17.9773
 20
-9.173
 30
0.0
 10
18.0174
 20
-9.002
 30
0.0
 10
18.1102
 20
-8.8457
 30
0.0
 10
18.1102
 20
-8.8457
 30
0.0
 10
18.1867
 20
-8.7157
 30
0.0
 10
18.2928
 20
-8.6054
 30
0.0
 10
18.4182
 20
-8.5243
 30
0.0
 10
18.4182
 20
-8.5243
 30
0.0
 10
18.5169
 20
-8.4595
 30
0.0
 10
18.6276
 20
-8.4106
 30
0.0
 10
18.7442
 20
-8.3826
 30
0.0
 10
18.7442
 20
-8.3826
 30
0.0
 10
18.8604
 20
-8.3575
 30
0.0
 10
18.9816
 20
-8.3533
 30
0.0
 10
19.1008
 20
-8.368
 30
0.0
 10
19.1008
 20
-8.368
 30
0.0
 10
19.7616
 20
-8.4566
 30
0.0
 10
20.1536
 20
-9.1893
 30
0.0
 10
19.8631
 20
-9.7895
 30
0.0
 10
19.8631
 20
-9.7895
 30
0.0
 10
19.8
 20
-9.9236
 30
0.0
 10
19.7039
 20
-10.0415
 30
0.0
 10
19.5877
 20
-10.136
 30
0.0
 10
19.5877
 20
-10.136
 30
0.0
 10
19.418
 20
-10.2714
 30
0.0
 10
19.2232
 20
-10.332
 30
0.0
 10
19.0096
 20
-10.3525
 30
0.0
 10
19.0096
 20
-10.3525
 30
0.0
 10
18.8884
 20
-10.3525
 30
0.0
 10
18.7752
 20
-10.3424
 30
0.0
 10
18.6585
 20
-10.304
 30
0.0
 10
18.6585
 20
-10.304
 30
0.0
 10
18.2368
 20
-10.1681
 30
0.0
 10
17.989
 20
-9.7849
 30
0.0
 10
17.9685
 20
-9.3573
 30
0.0
  0
SPLINE
  5
53
330
1F
100
AcDbEntity
  8
Ilustrace
 62
   250
370
    30
100
AcDbSpline
210
0.0
220
0.0
230
1.0
 70
    11
 71
     3
 72
    40
 73
    36
 74
     0
 42
0.0000000001
 43
0.0000000001
 40
0.0
 40
0.0
 40
0.0
 40
0.0
 40
0.1
 40
0.1
 40
0.1
 40
0.1
 40
0.2
 40
0.2
 40
0.2
 40
0.2
 40
0.3
 40
0.3
 40
0.3
 40
0.3
 40
0.4
 40
0.4
 40
0.4
 40
0.4
 40
0.5
 40
0.5
 40
0.5
 40
0.5
 40
0.6
 40
0.6
 40
0.6
 40
0.6
 40
0.7
 40
0.7
 40
0.7
 40
0.7
 40
0.8
 40
0.8
 40
0.8
 40
0.8
 40
1.0
 40
1.0
 40
1.0
 40
1.0
 10
17.9685
 20
-5.0284
 30
0.0
 10
17.9773
 20
-4.8453
 30
0.0
 10
18.0174
 20
-4.6744
 30
0.0
 10
18.1102
 20
-4.5151
 30
0.0
 10
18.1102
 20
-4.5151
 30
0.0
 10
18.1867
 20
-4.3868
 30
0.0
 10
18.2928
 20
-4.2777
 30
0.0
 10
18.4182
 20
-4.1966
 30
0.0
 10
18.4182
 20
-4.1966
 30
0.0
 10
18.5169
 20
-4.1289
 30
0.0
 10
18.6276
 20
-4.083
 30
0.0
 10
18.7442
 20
-4.0549
 30
0.0
 10
18.7442
 20
-4.0549
 30
0.0
 10
18.8604
 20
-4.0299
 30
0.0
 10
18.9816
 20
-4.0228
 30
0.0
 10
19.1008
 20
-4.0403
 30
0.0
 10
19.1008
 20
-4.0403
 30
0.0
 10
19.7616
 20
-4.1289
 30
0.0
 10
20.1536
 20
-4.8616
 30
0.0
 10
19.8631
 20
-5.4618
 30
0.0
 10
19.8631
 20
-5.4618
 30
0.0
 10
19.8
 20
-5.596
 30
0.0
 10
19.7039
 20
-5.7139
 30
0.0
 10
19.5877
 20
-5.8083
 30
0.0
 10
19.5877
 20
-5.8083
 30
0.0
 10
19.418
 20
-5.9425
 30
0.0
 10
19.2232
 20
-6.0043
 30
0.0
 10
19.0096
 20
-6.0248
 30
0.0
 10
19.0096
 20
-6.0248
 30
0.0
 10
18.5804
 20
-6.0248
 30
0.0
 10
18.1867
 20
-5.7903
 30
0.0
 10
18.032
 20
-5.3791
 30
0.0
 10
18.032
 20
-5.3791
 30
0.0
 10
17.989
 20
-5.2625
 30
0.0
 10
17.9743
 20
-5.1492
 30
0.0
 10
17.9685
 20
-5.0284
 30
0.0
  0
SPLINE
  5
54
330
1F
100
AcDbEntity
  8
Ilustrace
 62
   250
370
    30
100
AcDbSpline
210
0.0
220
0.0
230
1.0
 70
    11
 71
     3
 72
    40
 73
    36
 74
     0
 42
0.0000000001
 43
0.0000000001
 40
0.0
 40
0.0
 40
0.0
 40
0.0
 40
0.1
 40
0.1
 40
0.1
 40
0.1
 40
0.2
 40
0.2
 40
0.2
 40
0.2
 40
0.3
 40
0.3
 40
0.3
 40
0.3
 40
0.4
 40
0.4
 40
0.4
 40
0.4
 40
0.5
 40
0.5
 40
0.5
 40
0.5
 40
0.6
 40
0.6
 40
0.6
 40
0.6
 40
0.7
 40
0.7
 40
0.7
 40
0.7
 40
0.8
 40
0.8
 40
0.8
 40
0.8
 40
1.0
 40
1.0
 40
1.0
 40
1.0
 10
17.9685
 20
-0.7008
 30
0.0
 10
17.9773
 20
-0.5164
 30
0.0
 10
18.0174
 20
-0.3467
 30
0.0
 10
18.1102
 20
-0.1875
 30
0.0
 10
18.1102
 20
-0.1875
 30
0.0
 10
18.1867
 20
-0.0592
 30
0.0
 10
18.2928
 20
0.0499
 30
0.0
 10
18.4182
 20
0.1327
 30
0.0
 10
18.4182
 20
0.1327
 30
0.0
 10
18.5419
 20
0.2138
 30
0.0
 10
18.6836
 20
0.2698
 30
0.0
 10
18.8324
 20
0.2873
 30
0.0
 10
18.8324
 20
0.2873
 30
0.0
 10
18.952
 20
0.3049
 30
0.0
 10
19.0728
 20
0.2978
 30
0.0
 10
19.1894
 20
0.2727
 30
0.0
 10
19.1894
 20
0.2727
 30
0.0
 10
19.8381
 20
0.1251
 30
0.0
 10
20.1624
 20
-0.6402
 30
0.0
 10
19.8222
 20
-1.2123
 30
0.0
 10
19.8222
 20
-1.2123
 30
0.0
 10
19.7616
 20
-1.3139
 30
0.0
 10
19.6805
 20
-1.4038
 30
0.0
 10
19.5877
 20
-1.4807
 30
0.0
 10
19.5877
 20
-1.4807
 30
0.0
 10
19.418
 20
-1.6149
 30
0.0
 10
19.2232
 20
-1.675
 30
0.0
 10
19.0096
 20
-1.6943
 30
0.0
 10
19.0096
 20
-1.6943
 30
0.0
 10
18.5804
 20
-1.6943
 30
0.0
 10
18.1867
 20
-1.4627
 30
0.0
 10
18.032
 20
-1.0485
 30
0.0
 10
18.032
 20
-1.0485
 30
0.0
 10
17.989
 20
-0.9348
 30
0.0
 10
17.9743
 20
-0.8216
 30
0.0
 10
17.9685
 20
-0.7008
 30
0.0
  0
SPLINE
  5
55
330
1F
100
AcDbEntity
  8
Ilustrace
 62
   250
370
    30
100
AcDbSpline
210
0.0
220
0.0
230
1.0
 70
    11
 71
     3
 72
    36
 73
    32
 74
     0
 42
0.0000000001
 43
0.0000000001
 40
0.0
 40
0.0
 40
0.0
 40
0.0
 40
0.1111111111111111
 40
0.1111111111111111
 40
0.1111111111111111
 40
0.1111111111111111
 40
0.2222222222222222
 40
0.2222222222222222
 40
0.2222222222222222
 40
0.2222222222222222
 40
0.3333333333333333
 40
0.3333333333333333
 40
0.3333333333333333
 40
0.3333333333333333
 40
0.4444444444444444
 40
0.4444444444444444
 40
0.4444444444444444
 40
0.4444444444444444
 40
0.5555555555555556
 40
0.5555555555555556
 40
0.5555555555555556
 40
0.5555555555555556
 40
0.6666666666666666
 40
0.6666666666666666
 40
0.6666666666666666
 40
0.6666666666666666
 40
0.7777777777777778
 40
0.7777777777777778
 40
0.7777777777777778
 40
0.7777777777777778
 40
1.0
 40
1.0
 40
1.0
 40
1.0
 10
13.7855
 20
7.9579
 30
0.0
 10
13.7926
 20
7.7957
 30
0.0
 10
13.8268
 20
7.6465
 30
0.0
 10
13.9121
 20
7.5081
 30
0.0
 10
13.9121
 20
7.5081
 30
0.0
 10
13.9798
 20
7.3944
 30
0.0
 10
14.076
 20
7.2987
 30
0.0
 10
14.1892
 20
7.2306
 30
0.0
 10
14.1892
 20
7.2306
 30
0.0
 10
14.2778
 20
7.1746
 30
0.0
 10
14.3765
 20
7.1365
 30
0.0
 10
14.4826
 20
7.1173
 30
0.0
 10
14.4826
 20
7.1173
 30
0.0
 10
14.5859
 20
7.0964
 30
0.0
 10
14.692
 20
7.0964
 30
0.0
 10
14.7953
 20
7.1173
 30
0.0
 10
14.7953
 20
7.1173
 30
0.0
 10
15.3763
 20
7.2247
 30
0.0
 10
15.6772
 20
7.9048
 30
0.0
 10
15.3662
 20
8.4076
 30
0.0
 10
15.3662
 20
8.4076
 30
0.0
 10
15.2952
 20
8.5179
 30
0.0
 10
15.1995
 20
8.6136
 30
0.0
 10
15.0887
 20
8.6847
 30
0.0
 10
15.0887
 20
8.6847
 30
0.0
 10
14.9503
 20
8.77
 30
0.0
 10
14.7982
 20
8.8055
 30
0.0
 10
14.639
 20
8.813
 30
0.0
 10
14.639
 20
8.813
 30
0.0
 10
14.157
 20
8.7879
 30
0.0
 10
13.8059
 20
8.4368
 30
0.0
 10
13.7855
 20
7.9579
 30
0.0
  0
SPLINE
  5
56
330
1F
100
AcDbEntity
  8
Ilustrace
 62
   250
370
    30
100
AcDbSpline
210
0.0
220
0.0
230
1.0
 70
    11
 71
     3
 72
    40
 73
    36
 74
     0
 42
0.0000000001
 43
0.0000000001
 40
0.0
 40
0.0
 40
0.0
 40
0.0
 40
0.1
 40
0.1
 40
0.1
 40
0.1
 40
0.2
 40
0.2
 40
0.2
 40
0.2
 40
0.3
 40
0.3
 40
0.3
 40
0.3
 40
0.4
 40
0.4
 40
0.4
 40
0.4
 40
0.5
 40
0.5
 40
0.5
 40
0.5
 40
0.6
 40
0.6
 40
0.6
 40
0.6
 40
0.7
 40
0.7
 40
0.7
 40
0.7
 40
0.8
 40
0.8
 40
0.8
 40
0.8
 40
1.0
 40
1.0
 40
1.0
 40
1.0
 10
13.6425
 20
3.6302
 30
0.0
 10
13.6513
 20
3.8425
 30
0.0
 10
13.7044
 20
4.0415
 30
0.0
 10
13.831
 20
4.2154
 30
0.0
 10
13.831
 20
4.2154
 30
0.0
 10
14.2248
 20
4.7537
 30
0.0
 10
15.0536
 20
4.7537
 30
0.0
 10
15.4444
 20
4.2154
 30
0.0
 10
15.4444
 20
4.2154
 30
0.0
 10
15.515
 20
4.1197
 30
0.0
 10
15.5681
 20
4.0089
 30
0.0
 10
15.6003
 20
3.8927
 30
0.0
 10
15.6003
 20
3.8927
 30
0.0
 10
15.6316
 20
3.779
 30
0.0
 10
15.6417
 20
3.6582
 30
0.0
 10
15.6316
 20
3.5387
 30
0.0
 10
15.6316
 20
3.5387
 30
0.0
 10
15.6183
 20
3.3899
 30
0.0
 10
15.571
 20
3.2465
 30
0.0
 10
15.4941
 20
3.117
 30
0.0
 10
15.4941
 20
3.117
 30
0.0
 10
15.4193
 20
2.9886
 30
0.0
 10
15.3131
 20
2.8779
 30
0.0
 10
15.189
 20
2.7968
 30
0.0
 10
15.189
 20
2.7968
 30
0.0
 10
15.0327
 20
2.6936
 30
0.0
 10
14.8663
 20
2.648
 30
0.0
 10
14.6849
 20
2.6334
 30
0.0
 10
14.6849
 20
2.6334
 30
0.0
 10
14.2528
 20
2.6334
 30
0.0
 10
13.859
 20
2.8649
 30
0.0
 10
13.7044
 20
3.2791
 30
0.0
 10
13.7044
 20
3.2791
 30
0.0
 10
13.6613
 20
3.3928
 30
0.0
 10
13.6467
 20
3.5061
 30
0.0
 10
13.6425
 20
3.6302
 30
0.0
  0
SPLINE
  5
57
330
1F
100
AcDbEntity
  8
Ilustrace
 62
   250
370
    30
100
AcDbSpline
210
0.0
220
0.0
230
1.0
 70
    11
 71
     3
 72
    40
 73
    36
 74
     0
 42
0.0000000001
 43
0.0000000001
 40
0.0
 40
0.0
 40
0.0
 40
0.0
 40
0.1
 40
0.1
 40
0.1
 40
0.1
 40
0.2
 40
0.2
 40
0.2
 40
0.2
 40
0.3
 40
0.3
 40
0.3
 40
0.3
 40
0.4
 40
0.4
 40
0.4
 40
0.4
 40
0.5
 40
0.5
 40
0.5
 40
0.5
 40
0.6
 40
0.6
 40
0.6
 40
0.6
 40
0.7
 40
0.7
 40
0.7
 40
0.7
 40
0.8
 40
0.8
 40
0.8
 40
0.8
 40
1.0
 40
1.0
 40
1.0
 40
1.0
 10
13.6425
 20
-0.7008
 30
0.0
 10
13.6513
 20
-0.9131
 30
0.0
 10
13.7044
 20
-1.112
 30
0.0
 10
13.831
 20
-1.2859
 30
0.0
 10
13.831
 20
-1.2859
 30
0.0
 10
13.9196
 20
-1.4067
 30
0.0
 10
14.0362
 20
-1.5058
 30
0.0
 10
14.1671
 20
-1.5764
 30
0.0
 10
14.1671
 20
-1.5764
 30
0.0
 10
14.2983
 20
-1.647
 30
0.0
 10
14.4446
 20
-1.6901
 30
0.0
 10
14.5934
 20
-1.6943
 30
0.0
 10
14.5934
 20
-1.6943
 30
0.0
 10
14.7142
 20
-1.7001
 30
0.0
 10
14.8337
 20
-1.6855
 30
0.0
 10
14.9474
 20
-1.647
 30
0.0
 10
14.9474
 20
-1.647
 30
0.0
 10
15.0607
 20
-1.6119
 30
0.0
 10
15.1668
 20
-1.553
 30
0.0
 10
15.2601
 20
-1.4807
 30
0.0
 10
15.2601
 20
-1.4807
 30
0.0
 10
15.8097
 20
-1.041
 30
0.0
 10
15.7315
 20
-0.1549
 30
0.0
 10
15.1108
 20
0.1782
 30
0.0
 10
15.1108
 20
0.1782
 30
0.0
 10
14.9474
 20
0.2668
 30
0.0
 10
14.7777
 20
0.2978
 30
0.0
 10
14.5934
 20
0.2978
 30
0.0
 10
14.5934
 20
0.2978
 30
0.0
 10
14.1967
 20
0.2593
 30
0.0
 10
13.8486
 20
0.0324
 30
0.0
 10
13.7044
 20
-0.3497
 30
0.0
 10
13.7044
 20
-0.3497
 30
0.0
 10
13.6613
 20
-0.4634
 30
0.0
 10
13.6467
 20
-0.5795
 30
0.0
 10
13.6425
 20
-0.7008
 30
0.0
  0
SPLINE
  5
58
330
1F
100
AcDbEntity
  8
Ilustrace
 62
   250
370
    30
100
AcDbSpline
210
0.0
220
0.0
230
1.0
 70
    11
 71
     3
 72
    40
 73
    36
 74
     0
 42
0.0000000001
 43
0.0000000001
 40
0.0
 40
0.0
 40
0.0
 40
0.0
 40
0.1
 40
0.1
 40
0.1
 40
0.1
 40
0.2
 40
0.2
 40
0.2
 40
0.2
 40
0.3
 40
0.3
 40
0.3
 40
0.3
 40
0.4
 40
0.4
 40
0.4
 40
0.4
 40
0.5
 40
0.5
 40
0.5
 40
0.5
 40
0.6
 40
0.6
 40
0.6
 40
0.6
 40
0.7
 40
0.7
 40
0.7
 40
0.7
 40
0.8
 40
0.8
 40
0.8
 40
0.8
 40
1.0
 40
1.0
 40
1.0
 40
1.0
 10
13.9489
 20
-8.6363
 30
0.0
 10
14.0655
 20
-8.5347
 30
0.0
 10
14.185
 20
-8.4566
 30
0.0
 10
14.3309
 20
-8.4064
 30
0.0
 10
14.3309
 20
-8.4064
 30
0.0
 10
14.4446
 20
-8.3709
 30
0.0
 10
14.5654
 20
-8.3533
 30
0.0
 10
14.6849
 20
-8.3604
 30
0.0
 10
14.6849
 20
-8.3604
 30
0.0
 10
15.3131
 20
-8.3884
 30
0.0
 10
15.7671
 20
-9.0137
 30
0.0
 10
15.6003
 20
-9.6227
 30
0.0
 10
15.6003
 20
-9.6227
 30
0.0
 10
15.5681
 20
-9.7364
 30
0.0
 10
15.515
 20
-9.8455
 30
0.0
 10
15.4444
 20
-9.9412
 30
0.0
 10
15.4444
 20
-9.9412
 30
0.0
 10
15.3763
 20
-10.0398
 30
0.0
 10
15.2881
 20
-10.1226
 30
0.0
 10
15.189
 20
-10.189
 30
0.0
 10
15.189
 20
-10.189
 30
0.0
 10
15.0327
 20
-10.2893
 30
0.0
 10
14.8663
 20
-10.3349
 30
0.0
 10
14.6849
 20
-10.3525
 30
0.0
 10
14.6849
 20
-10.3525
 30
0.0
 10
14.5006
 20
-10.3525
 30
0.0
 10
14.328
 20
-10.3203
 30
0.0
 10
14.1671
 20
-10.2333
 30
0.0
 10
14.1671
 20
-10.2333
 30
0.0
 10
13.7324
 20
-10.0018
 30
0.0
 10
13.5334
 20
-9.4664
 30
0.0
 10
13.7044
 20
-9.0062
 30
0.0
 10
13.7044
 20
-9.0062
 30
0.0
 10
13.7604
 20
-8.8632
 30
0.0
 10
13.8457
 20
-8.7441
 30
0.0
 10
13.9489
 20
-8.6363
 30
0.0
  0
SPLINE
  5
59
330
1F
100
AcDbEntity
  8
Ilustrace
 62
   250
370
    30
100
AcDbSpline
210
0.0
220
0.0
230
1.0
 70
    11
 71
     3
 72
    36
 73
    32
 74
     0
 42
0.0000000001
 43
0.0000000001
 40
0.0
 40
0.0
 40
0.0
 40
0.0
 40
0.1111111111111111
 40
0.1111111111111111
 40
0.1111111111111111
 40
0.1111111111111111
 40
0.2222222222222222
 40
0.2222222222222222
 40
0.2222222222222222
 40
0.2222222222222222
 40
0.3333333333333333
 40
0.3333333333333333
 40
0.3333333333333333
 40
0.3333333333333333
 40
0.4444444444444444
 40
0.4444444444444444
 40
0.4444444444444444
 40
0.4444444444444444
 40
0.5555555555555556
 40
0.5555555555555556
 40
0.5555555555555556
 40
0.5555555555555556
 40
0.6666666666666666
 40
0.6666666666666666
 40
0.6666666666666666
 40
0.6666666666666666
 40
0.7777777777777778
 40
0.7777777777777778
 40
0.7777777777777778
 40
0.7777777777777778
 40
1.0
 40
1.0
 40
1.0
 40
1.0
 10
9.4578
 20
12.2855
 30
0.0
 10
9.4649
 20
12.1233
 30
0.0
 10
9.4992
 20
11.9741
 30
0.0
 10
9.5845
 20
11.8358
 30
0.0
 10
9.5845
 20
11.8358
 30
0.0
 10
9.6522
 20
11.7221
 30
0.0
 10
9.7483
 20
11.6293
 30
0.0
 10
9.8616
 20
11.5599
 30
0.0
 10
9.8616
 20
11.5599
 30
0.0
 10
10.3644
 20
11.2473
 30
0.0
 10
11.0415
 20
11.5482
 30
0.0
 10
11.1519
 20
12.1292
 30
0.0
 10
11.1519
 20
12.1292
 30
0.0
 10
11.1698
 20
12.2324
 30
0.0
 10
11.1698
 20
12.3386
 30
0.0
 10
11.1519
 20
12.4418
 30
0.0
 10
11.1519
 20
12.4418
 30
0.0
 10
11.1314
 20
12.545
 30
0.0
 10
11.0946
 20
12.6466
 30
0.0
 10
11.0386
 20
12.7352
 30
0.0
 10
11.0386
 20
12.7352
 30
0.0
 10
10.9675
 20
12.8456
 30
0.0
 10
10.8718
 20
12.9417
 30
0.0
 10
10.7611
 20
13.0123
 30
0.0
 10
10.7611
 20
13.0123
 30
0.0
 10
10.6227
 20
13.0976
 30
0.0
 10
10.4706
 20
13.1331
 30
0.0
 10
10.3113
 20
13.1407
 30
0.0
 10
10.3113
 20
13.1407
 30
0.0
 10
9.8294
 20
13.1185
 30
0.0
 10
9.4783
 20
12.7674
 30
0.0
 10
9.4578
 20
12.2855
 30
0.0
  0
SPLINE
  5
5A
330
1F
100
AcDbEntity
  8
Ilustrace
 62
   250
370
    30
100
AcDbSpline
210
0.0
220
0.0
230
1.0
 70
    11
 71
     3
 72
    36
 73
    32
 74
     0
 42
0.0000000001
 43
0.0000000001
 40
0.0
 40
0.0
 40
0.0
 40
0.0
 40
0.1111111111111111
 40
0.1111111111111111
 40
0.1111111111111111
 40
0.1111111111111111
 40
0.2222222222222222
 40
0.2222222222222222
 40
0.2222222222222222
 40
0.2222222222222222
 40
0.3333333333333333
 40
0.3333333333333333
 40
0.3333333333333333
 40
0.3333333333333333
 40
0.4444444444444444
 40
0.4444444444444444
 40
0.4444444444444444
 40
0.4444444444444444
 40
0.5555555555555556
 40
0.5555555555555556
 40
0.5555555555555556
 40
0.5555555555555556
 40
0.6666666666666666
 40
0.6666666666666666
 40
0.6666666666666666
 40
0.6666666666666666
 40
0.7777777777777778
 40
0.7777777777777778
 40
0.7777777777777778
 40
0.7777777777777778
 40
1.0
 40
1.0
 40
1.0
 40
1.0
 10
9.4578
 20
-13.6849
 30
0.0
 10
9.4649
 20
-13.8442
 30
0.0
 10
9.4992
 20
-13.9959
 30
0.0
 10
9.5845
 20
-14.1346
 30
0.0
 10
9.5845
 20
-14.1346
 30
0.0
 10
9.6392
 20
-14.2233
 30
0.0
 10
9.7128
 20
-14.3043
 30
0.0
 10
9.7968
 20
-14.3675
 30
0.0
 10
9.7968
 20
-14.3675
 30
0.0
 10
10.2687
 20
-14.7231
 30
0.0
 10
10.9705
 20
-14.4857
 30
0.0
 10
11.1343
 20
-13.9181
 30
0.0
 10
11.1343
 20
-13.9181
 30
0.0
 10
11.1623
 20
-13.8162
 30
0.0
 10
11.1728
 20
-13.71
 30
0.0
 10
11.1623
 20
-13.6068
 30
0.0
 10
11.1623
 20
-13.6068
 30
0.0
 10
11.1489
 20
-13.4755
 30
0.0
 10
11.1063
 20
-13.3472
 30
0.0
 10
11.0386
 20
-13.2339
 30
0.0
 10
11.0386
 20
-13.2339
 30
0.0
 10
10.9675
 20
-13.1215
 30
0.0
 10
10.8718
 20
-13.0258
 30
0.0
 10
10.7611
 20
-12.9581
 30
0.0
 10
10.7611
 20
-12.9581
 30
0.0
 10
10.6227
 20
-12.8724
 30
0.0
 10
10.4706
 20
-12.8373
 30
0.0
 10
10.3113
 20
-12.8298
 30
0.0
 10
10.3113
 20
-12.8298
 30
0.0
 10
9.8294
 20
-12.8519
 30
0.0
 10
9.4783
 20
-13.203
 30
0.0
 10
9.4578
 20
-13.6849
 30
0.0
  0
SPLINE
  5
5B
330
1F
100
AcDbEntity
  8
Ilustrace
 62
   250
370
    30
100
AcDbSpline
210
0.0
220
0.0
230
1.0
 70
    11
 71
     3
 72
    40
 73
    36
 74
     0
 42
0.0000000001
 43
0.0000000001
 40
0.0
 40
0.0
 40
0.0
 40
0.0
 40
0.1
 40
0.1
 40
0.1
 40
0.1
 40
0.2
 40
0.2
 40
0.2
 40
0.2
 40
0.3
 40
0.3
 40
0.3
 40
0.3
 40
0.4
 40
0.4
 40
0.4
 40
0.4
 40
0.5
 40
0.5
 40
0.5
 40
0.5
 40
0.6
 40
0.6
 40
0.6
 40
0.6
 40
0.7
 40
0.7
 40
0.7
 40
0.7
 40
0.8
 40
0.8
 40
0.8
 40
0.8
 40
1.0
 40
1.0
 40
1.0
 40
1.0
 10
9.3149
 20
7.9579
 30
0.0
 10
9.322
 20
7.7735
 30
0.0
 10
9.3617
 20
7.6038
 30
0.0
 10
9.4549
 20
7.4446
 30
0.0
 10
9.4549
 20
7.4446
 30
0.0
 10
9.5314
 20
7.3163
 30
0.0
 10
9.6376
 20
7.2072
 30
0.0
 10
9.7613
 20
7.1244
 30
0.0
 10
9.7613
 20
7.1244
 30
0.0
 10
9.8867
 20
7.0433
 30
0.0
 10
10.0284
 20
6.9873
 30
0.0
 10
10.1772
 20
6.9698
 30
0.0
 10
10.1772
 20
6.9698
 30
0.0
 10
10.2967
 20
6.9522
 30
0.0
 10
10.4175
 20
6.9581
 30
0.0
 10
10.5341
 20
6.9861
 30
0.0
 10
10.5341
 20
6.9861
 30
0.0
 10
11.2183
 20
7.1424
 30
0.0
 10
11.531
 20
7.9754
 30
0.0
 10
11.1167
 20
8.543
 30
0.0
 10
11.1167
 20
8.543
 30
0.0
 10
11.0486
 20
8.6387
 30
0.0
 10
10.9604
 20
8.7232
 30
0.0
 10
10.8614
 20
8.7879
 30
0.0
 10
10.8614
 20
8.7879
 30
0.0
 10
10.68
 20
8.9075
 30
0.0
 10
10.4781
 20
8.953
 30
0.0
 10
10.2658
 20
8.953
 30
0.0
 10
10.2658
 20
8.953
 30
0.0
 10
10.145
 20
8.9426
 30
0.0
 10
10.0313
 20
8.9221
 30
0.0
 10
9.9176
 20
8.8732
 30
0.0
 10
9.9176
 20
8.8732
 30
0.0
 10
9.5431
 20
8.7127
 30
0.0
 10
9.3324
 20
8.3545
 30
0.0
 10
9.3149
 20
7.9579
 30
0.0
  0
SPLINE
  5
5C
330
1F
100
AcDbEntity
  8
Ilustrace
 62
   250
370
    30
100
AcDbSpline
210
0.0
220
0.0
230
1.0
 70
    11
 71
     3
 72
    40
 73
    36
 74
     0
 42
0.0000000001
 43
0.0000000001
 40
0.0
 40
0.0
 40
0.0
 40
0.0
 40
0.1
 40
0.1
 40
0.1
 40
0.1
 40
0.2
 40
0.2
 40
0.2
 40
0.2
 40
0.3
 40
0.3
 40
0.3
 40
0.3
 40
0.4
 40
0.4
 40
0.4
 40
0.4
 40
0.5
 40
0.5
 40
0.5
 40
0.5
 40
0.6
 40
0.6
 40
0.6
 40
0.6
 40
0.7
 40
0.7
 40
0.7
 40
0.7
 40
0.8
 40
0.8
 40
0.8
 40
0.8
 40
1.0
 40
1.0
 40
1.0
 40
1.0
 10
9.3149
 20
3.6302
 30
0.0
 10
9.322
 20
3.8112
 30
0.0
 10
9.3617
 20
3.9809
 30
0.0
 10
9.4549
 20
4.1401
 30
0.0
 10
9.4549
 20
4.1401
 30
0.0
 10
9.5314
 20
4.2685
 30
0.0
 10
9.6376
 20
4.3775
 30
0.0
 10
9.7613
 20
4.4603
 30
0.0
 10
9.7613
 20
4.4603
 30
0.0
 10
9.8616
 20
4.5263
 30
0.0
 10
9.9736
 20
4.5736
 30
0.0
 10
10.089
 20
4.6016
 30
0.0
 10
10.089
 20
4.6016
 30
0.0
 10
10.7376
 20
4.7479
 30
0.0
 10
11.3642
 20
4.2037
 30
0.0
 10
11.304
 20
3.5387
 30
0.0
 10
11.304
 20
3.5387
 30
0.0
 10
11.2935
 20
3.4208
 30
0.0
 10
11.2609
 20
3.3042
 30
0.0
 10
11.2079
 20
3.1951
 30
0.0
 10
11.2079
 20
3.1951
 30
0.0
 10
11.1447
 20
3.0622
 30
0.0
 10
11.0486
 20
2.9431
 30
0.0
 10
10.9324
 20
2.8499
 30
0.0
 10
10.9324
 20
2.8499
 30
0.0
 10
10.7627
 20
2.7157
 30
0.0
 10
10.5667
 20
2.6526
 30
0.0
 10
10.3544
 20
2.6334
 30
0.0
 10
10.3544
 20
2.6334
 30
0.0
 10
10.2332
 20
2.6334
 30
0.0
 10
10.1199
 20
2.6421
 30
0.0
 10
10.0033
 20
2.6806
 30
0.0
 10
10.0033
 20
2.6806
 30
0.0
 10
9.5845
 20
2.8177
 30
0.0
 10
9.3337
 20
3.198
 30
0.0
 10
9.3149
 20
3.6302
 30
0.0
  0
SPLINE
  5
5D
330
1F
100
AcDbEntity
  8
Ilustrace
 62
   250
370
    30
100
AcDbSpline
210
0.0
220
0.0
230
1.0
 70
    11
 71
     3
 72
    40
 73
    36
 74
     0
 42
0.0000000001
 43
0.0000000001
 40
0.0
 40
0.0
 40
0.0
 40
0.0
 40
0.1
 40
0.1
 40
0.1
 40
0.1
 40
0.2
 40
0.2
 40
0.2
 40
0.2
 40
0.3
 40
0.3
 40
0.3
 40
0.3
 40
0.4
 40
0.4
 40
0.4
 40
0.4
 40
0.5
 40
0.5
 40
0.5
 40
0.5
 40
0.6
 40
0.6
 40
0.6
 40
0.6
 40
0.7
 40
0.7
 40
0.7
 40
0.7
 40
0.8
 40
0.8
 40
0.8
 40
0.8
 40
1.0
 40
1.0
 40
1.0
 40
1.0
 10
9.3149
 20
-9.3573
 30
0.0
 10
9.3237
 20
-9.1437
 30
0.0
 10
9.3767
 20
-8.946
 30
0.0
 10
9.5034
 20
-8.7688
 30
0.0
 10
9.5034
 20
-8.7688
 30
0.0
 10
9.592
 20
-8.648
 30
0.0
 10
9.7082
 20
-8.5493
 30
0.0
 10
9.8394
 20
-8.477
 30
0.0
 10
9.8394
 20
-8.477
 30
0.0
 10
9.9707
 20
-8.4064
 30
0.0
 10
10.117
 20
-8.368
 30
0.0
 10
10.2658
 20
-8.3604
 30
0.0
 10
10.2658
 20
-8.3604
 30
0.0
 10
10.9324
 20
-8.3295
 30
0.0
 10
11.4499
 20
-8.9782
 30
0.0
 10
11.2714
 20
-9.6227
 30
0.0
 10
11.2714
 20
-9.6227
 30
0.0
 10
11.2405
 20
-9.7364
 30
0.0
 10
11.1874
 20
-9.8455
 30
0.0
 10
11.1167
 20
-9.9412
 30
0.0
 10
11.1167
 20
-9.9412
 30
0.0
 10
11.0486
 20
-10.0398
 30
0.0
 10
10.9604
 20
-10.1226
 30
0.0
 10
10.8614
 20
-10.189
 30
0.0
 10
10.8614
 20
-10.189
 30
0.0
 10
10.705
 20
-10.2893
 30
0.0
 10
10.5387
 20
-10.3349
 30
0.0
 10
10.3544
 20
-10.3525
 30
0.0
 10
10.3544
 20
-10.3525
 30
0.0
 10
9.9251
 20
-10.3525
 30
0.0
 10
9.5314
 20
-10.1197
 30
0.0
 10
9.3767
 20
-9.7067
 30
0.0
 10
9.3767
 20
-9.7067
 30
0.0
 10
9.3337
 20
-9.5934
 30
0.0
 10
9.3191
 20
-9.4768
 30
0.0
 10
9.3149
 20
-9.3573
 30
0.0
  0
SPLINE
  5
5E
330
1F
100
AcDbEntity
  8
Ilustrace
 62
   250
370
    30
100
AcDbSpline
210
0.0
220
0.0
230
1.0
 70
    11
 71
     3
 72
    40
 73
    36
 74
     0
 42
0.0000000001
 43
0.0000000001
 40
0.0
 40
0.0
 40
0.0
 40
0.0
 40
0.1
 40
0.1
 40
0.1
 40
0.1
 40
0.2
 40
0.2
 40
0.2
 40
0.2
 40
0.3
 40
0.3
 40
0.3
 40
0.3
 40
0.4
 40
0.4
 40
0.4
 40
0.4
 40
0.5
 40
0.5
 40
0.5
 40
0.5
 40
0.6
 40
0.6
 40
0.6
 40
0.6
 40
0.7
 40
0.7
 40
0.7
 40
0.7
 40
0.8
 40
0.8
 40
0.8
 40
0.8
 40
1.0
 40
1.0
 40
1.0
 40
1.0
 10
9.1703
 20
-5.0284
 30
0.0
 10
9.1807
 20
-4.791
 30
0.0
 10
9.2409
 20
-4.5711
 30
0.0
 10
9.3767
 20
-4.3734
 30
0.0
 10
9.3767
 20
-4.3734
 30
0.0
 10
9.4725
 20
-4.238
 30
0.0
 10
9.5962
 20
-4.1243
 30
0.0
 10
9.7408
 20
-4.0403
 30
0.0
 10
9.7408
 20
-4.0403
 30
0.0
 10
10.4146
 20
-3.6512
 30
0.0
 10
11.2977
 20
-4.0654
 30
0.0
 10
11.4319
 20
-4.8307
 30
0.0
 10
11.4319
 20
-4.8307
 30
0.0
 10
11.4557
 20
-4.9619
 30
0.0
 10
11.4557
 20
-5.0961
 30
0.0
 10
11.4319
 20
-5.2244
 30
0.0
 10
11.4319
 20
-5.2244
 30
0.0
 10
11.4039
 20
-5.3895
 30
0.0
 10
11.3391
 20
-5.5458
 30
0.0
 10
11.2434
 20
-5.6813
 30
0.0
 10
11.2434
 20
-5.6813
 30
0.0
 10
11.1489
 20
-5.8184
 30
0.0
 10
11.0235
 20
-5.932
 30
0.0
 10
10.8823
 20
-6.0148
 30
0.0
 10
10.8823
 20
-6.0148
 30
0.0
 10
10.7021
 20
-6.1164
 30
0.0
 10
10.5136
 20
-6.159
 30
0.0
 10
10.3113
 20
-6.1665
 30
0.0
 10
10.3113
 20
-6.1665
 30
0.0
 10
9.8336
 20
-6.146
 30
0.0
 10
9.4077
 20
-5.876
 30
0.0
 10
9.2409
 20
-5.4188
 30
0.0
 10
9.2409
 20
-5.4188
 30
0.0
 10
9.1924
 20
-5.2905
 30
0.0
 10
9.1774
 20
-5.1609
 30
0.0
 10
9.1703
 20
-5.0284
 30
0.0
  0
SPLINE
  5
5F
330
1F
100
AcDbEntity
  8
Ilustrace
 62
   250
370
    30
100
AcDbSpline
210
0.0
220
0.0
230
1.0
 70
    11
 71
     3
 72
    40
 73
    36
 74
     0
 42
0.0000000001
 43
0.0000000001
 40
0.0
 40
0.0
 40
0.0
 40
0.0
 40
0.1
 40
0.1
 40
0.1
 40
0.1
 40
0.2
 40
0.2
 40
0.2
 40
0.2
 40
0.3
 40
0.3
 40
0.3
 40
0.3
 40
0.4
 40
0.4
 40
0.4
 40
0.4
 40
0.5
 40
0.5
 40
0.5
 40
0.5
 40
0.6
 40
0.6
 40
0.6
 40
0.6
 40
0.7
 40
0.7
 40
0.7
 40
0.7
 40
0.8
 40
0.8
 40
0.8
 40
0.8
 40
1.0
 40
1.0
 40
1.0
 40
1.0
 10
9.1703
 20
-0.7008
 30
0.0
 10
9.1807
 20
-0.4634
 30
0.0
 10
9.2409
 20
-0.2435
 30
0.0
 10
9.3767
 20
-0.0458
 30
0.0
 10
9.3767
 20
-0.0458
 30
0.0
 10
9.4725
 20
0.0896
 30
0.0
 10
9.5962
 20
0.2033
 30
0.0
 10
9.7408
 20
0.2873
 30
0.0
 10
9.7408
 20
0.2873
 30
0.0
 10
9.8854
 20
0.3701
 30
0.0
 10
10.0459
 20
0.4215
 30
0.0
 10
10.2127
 20
0.4361
 30
0.0
 10
10.2127
 20
0.4361
 30
0.0
 10
10.3439
 20
0.4466
 30
0.0
 10
10.4781
 20
0.4361
 30
0.0
 10
10.6064
 20
0.401
 30
0.0
 10
10.6064
 20
0.401
 30
0.0
 10
11.3571
 20
0.1987
 30
0.0
 10
11.6902
 20
-0.7154
 30
0.0
 10
11.2434
 20
-1.3536
 30
0.0
 10
11.2434
 20
-1.3536
 30
0.0
 10
11.1489
 20
-1.4878
 30
0.0
 10
11.0235
 20
-1.6044
 30
0.0
 10
10.8823
 20
-1.6872
 30
0.0
 10
10.8823
 20
-1.6872
 30
0.0
 10
10.7021
 20
-1.7887
 30
0.0
 10
10.5136
 20
-1.8314
 30
0.0
 10
10.3113
 20
-1.8389
 30
0.0
 10
10.3113
 20
-1.8389
 30
0.0
 10
9.8336
 20
-1.8184
 30
0.0
 10
9.4077
 20
-1.5484
 30
0.0
 10
9.2409
 20
-1.0882
 30
0.0
 10
9.2409
 20
-1.0882
 30
0.0
 10
9.1924
 20
-0.9628
 30
0.0
 10
9.1774
 20
-0.8333
 30
0.0
 10
9.1703
 20
-0.7008
 30
0.0
  0
SPLINE
  5
60
330
1F
100
AcDbEntity
  8
Ilustrace
 62
   250
370
    30
100
AcDbSpline
210
0.0
220
0.0
230
1.0
 70
    11
 71
     3
 72
    36
 73
    32
 74
     0
 42
0.0000000001
 43
0.0000000001
 40
0.0
 40
0.0
 40
0.0
 40
0.0
 40
0.1111111111111111
 40
0.1111111111111111
 40
0.1111111111111111
 40
0.1111111111111111
 40
0.2222222222222222
 40
0.2222222222222222
 40
0.2222222222222222
 40
0.2222222222222222
 40
0.3333333333333333
 40
0.3333333333333333
 40
0.3333333333333333
 40
0.3333333333333333
 40
0.4444444444444444
 40
0.4444444444444444
 40
0.4444444444444444
 40
0.4444444444444444
 40
0.5555555555555556
 40
0.5555555555555556
 40
0.5555555555555556
 40
0.5555555555555556
 40
0.6666666666666666
 40
0.6666666666666666
 40
0.6666666666666666
 40
0.6666666666666666
 40
0.7777777777777778
 40
0.7777777777777778
 40
0.7777777777777778
 40
0.7777777777777778
 40
1.0
 40
1.0
 40
1.0
 40
1.0
 10
5.1302
 20
-13.6849
 30
0.0
 10
5.136
 20
-13.8442
 30
0.0
 10
5.1716
 20
-13.9959
 30
0.0
 10
5.2568
 20
-14.1346
 30
0.0
 10
5.2568
 20
-14.1346
 30
0.0
 10
5.3128
 20
-14.2233
 30
0.0
 10
5.3852
 20
-14.3043
 30
0.0
 10
5.4692
 20
-14.3675
 30
0.0
 10
5.4692
 20
-14.3675
 30
0.0
 10
5.5519
 20
-14.4297
 30
0.0
 10
5.6476
 20
-14.4782
 30
0.0
 10
5.7492
 20
-14.5062
 30
0.0
 10
5.7492
 20
-14.5062
 30
0.0
 10
6.3172
 20
-14.6671
 30
0.0
 10
6.8878
 20
-14.1923
 30
0.0
 10
6.8347
 20
-13.6068
 30
0.0
 10
6.8347
 20
-13.6068
 30
0.0
 10
6.823
 20
-13.4755
 30
0.0
 10
6.7787
 20
-13.3472
 30
0.0
 10
6.711
 20
-13.2339
 30
0.0
 10
6.711
 20
-13.2339
 30
0.0
 10
6.6399
 20
-13.1215
 30
0.0
 10
6.5442
 20
-13.0258
 30
0.0
 10
6.4334
 20
-12.9581
 30
0.0
 10
6.4334
 20
-12.9581
 30
0.0
 10
6.2951
 20
-12.8724
 30
0.0
 10
6.1429
 20
-12.8373
 30
0.0
 10
5.9837
 20
-12.8298
 30
0.0
 10
5.9837
 20
-12.8298
 30
0.0
 10
5.5018
 20
-12.8519
 30
0.0
 10
5.1507
 20
-13.203
 30
0.0
 10
5.1302
 20
-13.6849
 30
0.0
  0
SPLINE
  5
61
330
1F
100
AcDbEntity
  8
Ilustrace
 62
   250
370
    30
100
AcDbSpline
210
0.0
220
0.0
230
1.0
 70
    11
 71
     3
 72
    36
 73
    32
 74
     0
 42
0.0000000001
 43
0.0000000001
 40
0.0
 40
0.0
 40
0.0
 40
0.0
 40
0.1111111111111111
 40
0.1111111111111111
 40
0.1111111111111111
 40
0.1111111111111111
 40
0.2222222222222222
 40
0.2222222222222222
 40
0.2222222222222222
 40
0.2222222222222222
 40
0.3333333333333333
 40
0.3333333333333333
 40
0.3333333333333333
 40
0.3333333333333333
 40
0.4444444444444444
 40
0.4444444444444444
 40
0.4444444444444444
 40
0.4444444444444444
 40
0.5555555555555556
 40
0.5555555555555556
 40
0.5555555555555556
 40
0.5555555555555556
 40
0.6666666666666666
 40
0.6666666666666666
 40
0.6666666666666666
 40
0.6666666666666666
 40
0.7777777777777778
 40
0.7777777777777778
 40
0.7777777777777778
 40
0.7777777777777778
 40
1.0
 40
1.0
 40
1.0
 40
1.0
 10
5.1302
 20
16.6127
 30
0.0
 10
5.136
 20
16.7732
 30
0.0
 10
5.1716
 20
16.9253
 30
0.0
 10
5.2568
 20
17.0637
 30
0.0
 10
5.2568
 20
17.0637
 30
0.0
 10
5.3128
 20
17.1523
 30
0.0
 10
5.3852
 20
17.2305
 30
0.0
 10
5.4692
 20
17.294
 30
0.0
 10
5.4692
 20
17.294
 30
0.0
 10
5.9411
 20
17.6522
 30
0.0
 10
6.6428
 20
17.4148
 30
0.0
 10
6.8067
 20
16.8472
 30
0.0
 10
6.8067
 20
16.8472
 30
0.0
 10
6.8347
 20
16.7452
 30
0.0
 10
6.8451
 20
16.6378
 30
0.0
 10
6.8347
 20
16.5345
 30
0.0
 10
6.8347
 20
16.5345
 30
0.0
 10
6.823
 20
16.4033
 30
0.0
 10
6.7787
 20
16.2762
 30
0.0
 10
6.711
 20
16.163
 30
0.0
 10
6.711
 20
16.163
 30
0.0
 10
6.6399
 20
16.0522
 30
0.0
 10
6.5442
 20
15.9565
 30
0.0
 10
6.4334
 20
15.8871
 30
0.0
 10
6.4334
 20
15.8871
 30
0.0
 10
6.2951
 20
15.8014
 30
0.0
 10
6.1429
 20
15.7663
 30
0.0
 10
5.9837
 20
15.7588
 30
0.0
 10
5.9837
 20
15.7588
 30
0.0
 10
5.5018
 20
15.7793
 30
0.0
 10
5.1507
 20
16.1304
 30
0.0
 10
5.1302
 20
16.6127
 30
0.0
  0
SPLINE
  5
62
330
1F
100
AcDbEntity
  8
Ilustrace
 62
   250
370
    30
100
AcDbSpline
210
0.0
220
0.0
230
1.0
 70
    11
 71
     3
 72
    40
 73
    36
 74
     0
 42
0.0000000001
 43
0.0000000001
 40
0.0
 40
0.0
 40
0.0
 40
0.0
 40
0.1
 40
0.1
 40
0.1
 40
0.1
 40
0.2
 40
0.2
 40
0.2
 40
0.2
 40
0.3
 40
0.3
 40
0.3
 40
0.3
 40
0.4
 40
0.4
 40
0.4
 40
0.4
 40
0.5
 40
0.5
 40
0.5
 40
0.5
 40
0.6
 40
0.6
 40
0.6
 40
0.6
 40
0.7
 40
0.7
 40
0.7
 40
0.7
 40
0.8
 40
0.8
 40
0.8
 40
0.8
 40
1.0
 40
1.0
 40
1.0
 40
1.0
 10
4.9873
 20
-9.3573
 30
0.0
 10
4.9944
 20
-9.537
 30
0.0
 10
5.0341
 20
-9.7084
 30
0.0
 10
5.1285
 20
-9.8676
 30
0.0
 10
5.1285
 20
-9.8676
 30
0.0
 10
5.2038
 20
-9.9943
 30
0.0
 10
5.3099
 20
-10.105
 30
0.0
 10
5.4336
 20
-10.189
 30
0.0
 10
5.4336
 20
-10.189
 30
0.0
 10
5.534
 20
-10.2538
 30
0.0
 10
5.646
 20
-10.3023
 30
0.0
 10
5.7613
 20
-10.3274
 30
0.0
 10
5.7613
 20
-10.3274
 30
0.0
 10
5.8775
 20
-10.3554
 30
0.0
 10
5.9987
 20
-10.36
 30
0.0
 10
6.1179
 20
-10.3454
 30
0.0
 10
6.1179
 20
-10.3454
 30
0.0
 10
6.8138
 20
-10.2492
 30
0.0
 10
7.1987
 20
-9.4488
 30
0.0
 10
6.8405
 20
-8.8457
 30
0.0
 10
6.8405
 20
-8.8457
 30
0.0
 10
6.764
 20
-8.7157
 30
0.0
 10
6.6579
 20
-8.6054
 30
0.0
 10
6.5337
 20
-8.5243
 30
0.0
 10
6.5337
 20
-8.5243
 30
0.0
 10
6.3523
 20
-8.4064
 30
0.0
 10
6.1505
 20
-8.3604
 30
0.0
 10
5.9381
 20
-8.3604
 30
0.0
 10
5.9381
 20
-8.3604
 30
0.0
 10
5.5415
 20
-8.396
 30
0.0
 10
5.1933
 20
-8.6229
 30
0.0
 10
5.0491
 20
-9.0062
 30
0.0
 10
5.0491
 20
-9.0062
 30
0.0
 10
5.0061
 20
-9.1199
 30
0.0
 10
4.9914
 20
-9.2365
 30
0.0
 10
4.9873
 20
-9.3573
 30
0.0
  0
SPLINE
  5
63
330
1F
100
AcDbEntity
  8
Ilustrace
 62
   250
370
    30
100
AcDbSpline
210
0.0
220
0.0
230
1.0
 70
    11
 71
     3
 72
    40
 73
    36
 74
     0
 42
0.0000000001
 43
0.0000000001
 40
0.0
 40
0.0
 40
0.0
 40
0.0
 40
0.1
 40
0.1
 40
0.1
 40
0.1
 40
0.2
 40
0.2
 40
0.2
 40
0.2
 40
0.3
 40
0.3
 40
0.3
 40
0.3
 40
0.4
 40
0.4
 40
0.4
 40
0.4
 40
0.5
 40
0.5
 40
0.5
 40
0.5
 40
0.6
 40
0.6
 40
0.6
 40
0.6
 40
0.7
 40
0.7
 40
0.7
 40
0.7
 40
0.8
 40
0.8
 40
0.8
 40
0.8
 40
1.0
 40
1.0
 40
1.0
 40
1.0
 10
4.9873
 20
12.2855
 30
0.0
 10
4.9944
 20
12.4991
 30
0.0
 10
5.0491
 20
12.6968
 30
0.0
 10
5.1758
 20
12.8706
 30
0.0
 10
5.1758
 20
12.8706
 30
0.0
 10
5.2644
 20
12.9914
 30
0.0
 10
5.3806
 20
13.0934
 30
0.0
 10
5.5118
 20
13.1641
 30
0.0
 10
5.5118
 20
13.1641
 30
0.0
 10
6.0974
 20
13.4796
 30
0.0
 10
6.8451
 20
13.1185
 30
0.0
 10
6.963
 20
12.4623
 30
0.0
 10
6.963
 20
12.4623
 30
0.0
 10
6.9864
 20
12.3457
 30
0.0
 10
6.9864
 20
12.2249
 30
0.0
 10
6.963
 20
12.1083
 30
0.0
 10
6.963
 20
12.1083
 30
0.0
 10
6.9438
 20
11.9892
 30
0.0
 10
6.9011
 20
11.8755
 30
0.0
 10
6.8405
 20
11.7752
 30
0.0
 10
6.8405
 20
11.7752
 30
0.0
 10
6.764
 20
11.6468
 30
0.0
 10
6.6579
 20
11.5348
 30
0.0
 10
6.5337
 20
11.4521
 30
0.0
 10
6.5337
 20
11.4521
 30
0.0
 10
6.3774
 20
11.3505
 30
0.0
 10
6.2111
 20
11.3049
 30
0.0
 10
6.0297
 20
11.2899
 30
0.0
 10
6.0297
 20
11.2899
 30
0.0
 10
5.5975
 20
11.2899
 30
0.0
 10
5.2038
 20
11.5202
 30
0.0
 10
5.0491
 20
11.9344
 30
0.0
 10
5.0491
 20
11.9344
 30
0.0
 10
5.0061
 20
12.0481
 30
0.0
 10
4.9914
 20
12.1643
 30
0.0
 10
4.9873
 20
12.2855
 30
0.0
  0
SPLINE
  5
64
330
1F
100
AcDbEntity
  8
Ilustrace
 62
   250
370
    30
100
AcDbSpline
210
0.0
220
0.0
230
1.0
 70
    11
 71
     3
 72
    40
 73
    36
 74
     0
 42
0.0000000001
 43
0.0000000001
 40
0.0
 40
0.0
 40
0.0
 40
0.0
 40
0.1
 40
0.1
 40
0.1
 40
0.1
 40
0.2
 40
0.2
 40
0.2
 40
0.2
 40
0.3
 40
0.3
 40
0.3
 40
0.3
 40
0.4
 40
0.4
 40
0.4
 40
0.4
 40
0.5
 40
0.5
 40
0.5
 40
0.5
 40
0.6
 40
0.6
 40
0.6
 40
0.6
 40
0.7
 40
0.7
 40
0.7
 40
0.7
 40
0.8
 40
0.8
 40
0.8
 40
0.8
 40
1.0
 40
1.0
 40
1.0
 40
1.0
 10
4.9873
 20
7.9579
 30
0.0
 10
4.9944
 20
7.7426
 30
0.0
 10
5.0491
 20
7.5462
 30
0.0
 10
5.1758
 20
7.3694
 30
0.0
 10
5.1758
 20
7.3694
 30
0.0
 10
5.2644
 20
7.2498
 30
0.0
 10
5.3806
 20
7.1495
 30
0.0
 10
5.5118
 20
7.0789
 30
0.0
 10
5.5118
 20
7.0789
 30
0.0
 10
5.643
 20
7.0082
 30
0.0
 10
5.7893
 20
6.9681
 30
0.0
 10
5.9381
 20
6.9593
 30
0.0
 10
5.9381
 20
6.9593
 30
0.0
 10
6.6399
 20
6.9301
 30
0.0
 10
7.1636
 20
7.6494
 30
0.0
 10
6.9158
 20
8.3085
 30
0.0
 10
6.9158
 20
8.3085
 30
0.0
 10
6.8744
 20
8.4193
 30
0.0
 10
6.8125
 20
8.5225
 30
0.0
 10
6.7356
 20
8.6136
 30
0.0
 10
6.7356
 20
8.6136
 30
0.0
 10
6.6562
 20
8.7023
 30
0.0
 10
6.5617
 20
8.7775
 30
0.0
 10
6.4556
 20
8.8335
 30
0.0
 10
6.4556
 20
8.8335
 30
0.0
 10
6.2921
 20
8.9221
 30
0.0
 10
6.1225
 20
8.953
 30
0.0
 10
5.9381
 20
8.953
 30
0.0
 10
5.9381
 20
8.953
 30
0.0
 10
5.5415
 20
8.9175
 30
0.0
 10
5.1933
 20
8.6889
 30
0.0
 10
5.0491
 20
8.3085
 30
0.0
 10
5.0491
 20
8.3085
 30
0.0
 10
5.0061
 20
8.1923
 30
0.0
 10
4.9914
 20
8.0786
 30
0.0
 10
4.9873
 20
7.9579
 30
0.0
  0
SPLINE
  5
65
330
1F
100
AcDbEntity
  8
Ilustrace
 62
   250
370
    30
100
AcDbSpline
210
0.0
220
0.0
230
1.0
 70
    11
 71
     3
 72
    40
 73
    36
 74
     0
 42
0.0000000001
 43
0.0000000001
 40
0.0
 40
0.0
 40
0.0
 40
0.0
 40
0.1
 40
0.1
 40
0.1
 40
0.1
 40
0.2
 40
0.2
 40
0.2
 40
0.2
 40
0.3
 40
0.3
 40
0.3
 40
0.3
 40
0.4
 40
0.4
 40
0.4
 40
0.4
 40
0.5
 40
0.5
 40
0.5
 40
0.5
 40
0.6
 40
0.6
 40
0.6
 40
0.6
 40
0.7
 40
0.7
 40
0.7
 40
0.7
 40
0.8
 40
0.8
 40
0.8
 40
0.8
 40
1.0
 40
1.0
 40
1.0
 40
1.0
 10
4.8456
 20
3.6302
 30
0.0
 10
4.8531
 20
3.8321
 30
0.0
 10
4.8957
 20
4.0206
 30
0.0
 10
4.9973
 20
4.1978
 30
0.0
 10
4.9973
 20
4.1978
 30
0.0
 10
5.08
 20
4.3424
 30
0.0
 10
5.1933
 20
4.4662
 30
0.0
 10
5.3308
 20
4.5619
 30
0.0
 10
5.3308
 20
4.5619
 30
0.0
 10
5.4382
 20
4.6371
 30
0.0
 10
5.559
 20
4.696
 30
0.0
 10
5.689
 20
4.7286
 30
0.0
 10
5.689
 20
4.7286
 30
0.0
 10
6.4409
 20
4.9305
 30
0.0
 10
7.1853
 20
4.304
 30
0.0
 10
7.1176
 20
3.5282
 30
0.0
 10
7.1176
 20
3.5282
 30
0.0
 10
7.1043
 20
3.3648
 30
0.0
 10
7.0541
 20
3.2039
 30
0.0
 10
6.9688
 20
3.0593
 30
0.0
 10
6.9688
 20
3.0593
 30
0.0
 10
6.8878
 20
2.9151
 30
0.0
 10
6.7711
 20
2.7897
 30
0.0
 10
6.6357
 20
2.6936
 30
0.0
 10
6.6357
 20
2.6936
 30
0.0
 10
6.4409
 20
2.5565
 30
0.0
 10
6.2211
 20
2.4992
 30
0.0
 10
5.9837
 20
2.4888
 30
0.0
 10
5.9837
 20
2.4888
 30
0.0
 10
5.506
 20
2.5092
 30
0.0
 10
5.08
 20
2.7792
 30
0.0
 10
4.9133
 20
3.2394
 30
0.0
 10
4.9133
 20
3.2394
 30
0.0
 10
4.8677
 20
3.3677
 30
0.0
 10
4.8497
 20
3.4927
 30
0.0
 10
4.8456
 20
3.6302
 30
0.0
  0
SPLINE
  5
66
330
1F
100
AcDbEntity
  8
Ilustrace
 62
   250
370
    30
100
AcDbSpline
210
0.0
220
0.0
230
1.0
 70
    11
 71
     3
 72
    40
 73
    36
 74
     0
 42
0.0000000001
 43
0.0000000001
 40
0.0
 40
0.0
 40
0.0
 40
0.0
 40
0.1
 40
0.1
 40
0.1
 40
0.1
 40
0.2
 40
0.2
 40
0.2
 40
0.2
 40
0.3
 40
0.3
 40
0.3
 40
0.3
 40
0.4
 40
0.4
 40
0.4
 40
0.4
 40
0.5
 40
0.5
 40
0.5
 40
0.5
 40
0.6
 40
0.6
 40
0.6
 40
0.6
 40
0.7
 40
0.7
 40
0.7
 40
0.7
 40
0.8
 40
0.8
 40
0.8
 40
0.8
 40
1.0
 40
1.0
 40
1.0
 40
1.0
 10
4.8456
 20
-5.0284
 30
0.0
 10
4.8531
 20
-5.2315
 30
0.0
 10
4.8957
 20
-5.4188
 30
0.0
 10
4.9973
 20
-5.5989
 30
0.0
 10
4.9973
 20
-5.5989
 30
0.0
 10
5.08
 20
-5.7419
 30
0.0
 10
5.1933
 20
-5.8656
 30
0.0
 10
5.3308
 20
-5.9617
 30
0.0
 10
5.3308
 20
-5.9617
 30
0.0
 10
5.9661
 20
-6.4085
 30
0.0
 10
6.8832
 20
-6.075
 30
0.0
 10
7.0854
 20
-5.3231
 30
0.0
 10
7.0854
 20
-5.3231
 30
0.0
 10
7.1176
 20
-5.1947
 30
0.0
 10
7.1293
 20
-5.0606
 30
0.0
 10
7.1176
 20
-4.9293
 30
0.0
 10
7.1176
 20
-4.9293
 30
0.0
 10
7.1043
 20
-4.763
 30
0.0
 10
7.0541
 20
-4.6004
 30
0.0
 10
6.9688
 20
-4.4574
 30
0.0
 10
6.9688
 20
-4.4574
 30
0.0
 10
6.8878
 20
-4.3133
 30
0.0
 10
6.7711
 20
-4.1891
 30
0.0
 10
6.6357
 20
-4.0934
 30
0.0
 10
6.6357
 20
-4.0934
 30
0.0
 10
6.4409
 20
-3.9576
 30
0.0
 10
6.2211
 20
-3.8986
 30
0.0
 10
5.9837
 20
-3.8886
 30
0.0
 10
5.9837
 20
-3.8886
 30
0.0
 10
5.506
 20
-3.9091
 30
0.0
 10
5.08
 20
-4.1791
 30
0.0
 10
4.9133
 20
-4.6388
 30
0.0
 10
4.9133
 20
-4.6388
 30
0.0
 10
4.8677
 20
-4.7659
 30
0.0
 10
4.8497
 20
-4.8938
 30
0.0
 10
4.8456
 20
-5.0284
 30
0.0
  0
SPLINE
  5
67
330
1F
100
AcDbEntity
  8
Ilustrace
 62
   250
370
    30
100
AcDbSpline
210
0.0
220
0.0
230
1.0
 70
    11
 71
     3
 72
    40
 73
    36
 74
     0
 42
0.0000000001
 43
0.0000000001
 40
0.0
 40
0.0
 40
0.0
 40
0.0
 40
0.1
 40
0.1
 40
0.1
 40
0.1
 40
0.2
 40
0.2
 40
0.2
 40
0.2
 40
0.3
 40
0.3
 40
0.3
 40
0.3
 40
0.4
 40
0.4
 40
0.4
 40
0.4
 40
0.5
 40
0.5
 40
0.5
 40
0.5
 40
0.6
 40
0.6
 40
0.6
 40
0.6
 40
0.7
 40
0.7
 40
0.7
 40
0.7
 40
0.8
 40
0.8
 40
0.8
 40
0.8
 40
1.0
 40
1.0
 40
1.0
 40
1.0
 10
4.8426
 20
-0.7008
 30
0.0
 10
4.8531
 20
-0.4634
 30
0.0
 10
4.9133
 20
-0.2435
 30
0.0
 10
5.0491
 20
-0.0458
 30
0.0
 10
5.0491
 20
-0.0458
 30
0.0
 10
5.1465
 20
0.0896
 30
0.0
 10
5.2685
 20
0.2033
 30
0.0
 10
5.4132
 20
0.2873
 30
0.0
 10
5.4132
 20
0.2873
 30
0.0
 10
5.5298
 20
0.3521
 30
0.0
 10
5.6535
 20
0.401
 30
0.0
 10
5.7847
 20
0.4232
 30
0.0
 10
5.7847
 20
0.4232
 30
0.0
 10
6.5517
 20
0.5573
 30
0.0
 10
7.2418
 20
-0.1315
 30
0.0
 10
7.1043
 20
-0.8968
 30
0.0
 10
7.1043
 20
-0.8968
 30
0.0
 10
7.0763
 20
-1.0619
 30
0.0
 10
7.0115
 20
-1.2182
 30
0.0
 10
6.9158
 20
-1.3536
 30
0.0
 10
6.9158
 20
-1.3536
 30
0.0
 10
6.823
 20
-1.4878
 30
0.0
 10
6.6959
 20
-1.6044
 30
0.0
 10
6.5546
 20
-1.6872
 30
0.0
 10
6.5546
 20
-1.6872
 30
0.0
 10
6.3745
 20
-1.7887
 30
0.0
 10
6.186
 20
-1.8314
 30
0.0
 10
5.9837
 20
-1.8389
 30
0.0
 10
5.9837
 20
-1.8389
 30
0.0
 10
5.506
 20
-1.8184
 30
0.0
 10
5.08
 20
-1.5484
 30
0.0
 10
4.9133
 20
-1.0882
 30
0.0
 10
4.9133
 20
-1.0882
 30
0.0
 10
4.8677
 20
-0.9628
 30
0.0
 10
4.8497
 20
-0.8333
 30
0.0
 10
4.8426
 20
-0.7008
 30
0.0
  0
SPLINE
  5
68
330
1F
100
AcDbEntity
  8
Ilustrace
 62
   250
370
    30
100
AcDbSpline
210
0.0
220
0.0
230
1.0
 70
    11
 71
     3
 72
    36
 73
    32
 74
     0
 42
0.0000000001
 43
0.0000000001
 40
0.0
 40
0.0
 40
0.0
 40
0.0
 40
0.1111111111111111
 40
0.1111111111111111
 40
0.1111111111111111
 40
0.1111111111111111
 40
0.2222222222222222
 40
0.2222222222222222
 40
0.2222222222222222
 40
0.2222222222222222
 40
0.3333333333333333
 40
0.3333333333333333
 40
0.3333333333333333
 40
0.3333333333333333
 40
0.4444444444444444
 40
0.4444444444444444
 40
0.4444444444444444
 40
0.4444444444444444
 40
0.5555555555555556
 40
0.5555555555555556
 40
0.5555555555555556
 40
0.5555555555555556
 40
0.6666666666666666
 40
0.6666666666666666
 40
0.6666666666666666
 40
0.6666666666666666
 40
0.7777777777777778
 40
0.7777777777777778
 40
0.7777777777777778
 40
0.7777777777777778
 40
1.0
 40
1.0
 40
1.0
 40
1.0
 10
0.8026
 20
20.9403
 30
0.0
 10
0.8084
 20
21.1008
 30
0.0
 10
0.8435
 20
21.253
 30
0.0
 10
0.9292
 20
21.3913
 30
0.0
 10
0.9292
 20
21.3913
 30
0.0
 10
0.9998
 20
21.5033
 30
0.0
 10
1.0931
 20
21.5995
 30
0.0
 10
1.2063
 20
21.6672
 30
0.0
 10
1.2063
 20
21.6672
 30
0.0
 10
1.3183
 20
21.7378
 30
0.0
 10
1.4467
 20
21.7809
 30
0.0
 10
1.5779
 20
21.7909
 30
0.0
 10
1.5779
 20
21.7909
 30
0.0
 10
2.1664
 20
21.8457
 30
0.0
 10
2.6383
 20
21.2751
 30
0.0
 10
2.479
 20
20.7071
 30
0.0
 10
2.479
 20
20.7071
 30
0.0
 10
2.4494
 20
20.6068
 30
0.0
 10
2.4009
 20
20.5111
 30
0.0
 10
2.3373
 20
20.4271
 30
0.0
 10
2.3373
 20
20.4271
 30
0.0
 10
2.2755
 20
20.3414
 30
0.0
 10
2.1944
 20
20.2708
 30
0.0
 10
2.1058
 20
20.2147
 30
0.0
 10
2.1058
 20
20.2147
 30
0.0
 10
1.9674
 20
20.1291
 30
0.0
 10
1.8182
 20
20.094
 30
0.0
 10
1.6561
 20
20.0864
 30
0.0
 10
1.6561
 20
20.0864
 30
0.0
 10
1.1741
 20
20.1086
 30
0.0
 10
0.823
 20
20.4597
 30
0.0
 10
0.8026
 20
20.9403
 30
0.0
  0
SPLINE
  5
69
330
1F
100
AcDbEntity
  8
Ilustrace
 62
   250
370
    30
100
AcDbSpline
210
0.0
220
0.0
230
1.0
 70
    11
 71
     3
 72
    36
 73
    32
 74
     0
 42
0.0000000001
 43
0.0000000001
 40
0.0
 40
0.0
 40
0.0
 40
0.0
 40
0.1111111111111111
 40
0.1111111111111111
 40
0.1111111111111111
 40
0.1111111111111111
 40
0.2222222222222222
 40
0.2222222222222222
 40
0.2222222222222222
 40
0.2222222222222222
 40
0.3333333333333333
 40
0.3333333333333333
 40
0.3333333333333333
 40
0.3333333333333333
 40
0.4444444444444444
 40
0.4444444444444444
 40
0.4444444444444444
 40
0.4444444444444444
 40
0.5555555555555556
 40
0.5555555555555556
 40
0.5555555555555556
 40
0.5555555555555556
 40
0.6666666666666666
 40
0.6666666666666666
 40
0.6666666666666666
 40
0.6666666666666666
 40
0.7777777777777778
 40
0.7777777777777778
 40
0.7777777777777778
 40
0.7777777777777778
 40
1.0
 40
1.0
 40
1.0
 40
1.0
 10
0.8026
 20
-13.6849
 30
0.0
 10
0.8084
 20
-13.8442
 30
0.0
 10
0.8435
 20
-13.9959
 30
0.0
 10
0.9292
 20
-14.1346
 30
0.0
 10
0.9292
 20
-14.1346
 30
0.0
 10
0.9998
 20
-14.2454
 30
0.0
 10
1.0931
 20
-14.3411
 30
0.0
 10
1.2063
 20
-14.4105
 30
0.0
 10
1.2063
 20
-14.4105
 30
0.0
 10
1.3183
 20
-14.4811
 30
0.0
 10
1.4467
 20
-14.5238
 30
0.0
 10
1.5779
 20
-14.5359
 30
0.0
 10
1.5779
 20
-14.5359
 30
0.0
 10
2.1664
 20
-14.589
 30
0.0
 10
2.6383
 20
-14.018
 30
0.0
 10
2.479
 20
-13.4504
 30
0.0
 10
2.479
 20
-13.4504
 30
0.0
 10
2.4494
 20
-13.3489
 30
0.0
 10
2.4009
 20
-13.2527
 30
0.0
 10
2.3373
 20
-13.1704
 30
0.0
 10
2.3373
 20
-13.1704
 30
0.0
 10
2.2755
 20
-13.0847
 30
0.0
 10
2.1944
 20
-13.0141
 30
0.0
 10
2.1058
 20
-12.9581
 30
0.0
 10
2.1058
 20
-12.9581
 30
0.0
 10
1.9674
 20
-12.8724
 30
0.0
 10
1.8182
 20
-12.8373
 30
0.0
 10
1.6561
 20
-12.8298
 30
0.0
 10
1.6561
 20
-12.8298
 30
0.0
 10
1.1741
 20
-12.8519
 30
0.0
 10
0.823
 20
-13.203
 30
0.0
 10
0.8026
 20
-13.6849
 30
0.0
  0
SPLINE
  5
6A
330
1F
100
AcDbEntity
  8
Ilustrace
 62
   250
370
    30
100
AcDbSpline
210
0.0
220
0.0
230
1.0
 70
    11
 71
     3
 72
    40
 73
    36
 74
     0
 42
0.0000000001
 43
0.0000000001
 40
0.0
 40
0.0
 40
0.0
 40
0.0
 40
0.1
 40
0.1
 40
0.1
 40
0.1
 40
0.2
 40
0.2
 40
0.2
 40
0.2
 40
0.3
 40
0.3
 40
0.3
 40
0.3
 40
0.4
 40
0.4
 40
0.4
 40
0.4
 40
0.5
 40
0.5
 40
0.5
 40
0.5
 40
0.6
 40
0.6
 40
0.6
 40
0.6
 40
0.7
 40
0.7
 40
0.7
 40
0.7
 40
0.8
 40
0.8
 40
0.8
 40
0.8
 40
1.0
 40
1.0
 40
1.0
 40
1.0
 10
0.6596
 20
16.6127
 30
0.0
 10
0.6667
 20
16.7941
 30
0.0
 10
0.7064
 20
16.9651
 30
0.0
 10
0.8009
 20
17.1243
 30
0.0
 10
0.8009
 20
17.1243
 30
0.0
 10
0.8615
 20
17.2259
 30
0.0
 10
0.9397
 20
17.3187
 30
0.0
 10
1.0354
 20
17.3926
 30
0.0
 10
1.0354
 20
17.3926
 30
0.0
 10
1.5557
 20
17.8068
 30
0.0
 10
2.3549
 20
17.5874
 30
0.0
 10
2.5881
 20
16.9634
 30
0.0
 10
2.5881
 20
16.9634
 30
0.0
 10
2.6308
 20
16.8514
 30
0.0
 10
2.6517
 20
16.7335
 30
0.0
 10
2.6517
 20
16.6127
 30
0.0
 10
2.6517
 20
16.6127
 30
0.0
 10
2.6517
 20
16.4635
 30
0.0
 10
2.619
 20
16.3147
 30
0.0
 10
2.5555
 20
16.1805
 30
0.0
 10
2.5555
 20
16.1805
 30
0.0
 10
2.4891
 20
16.0464
 30
0.0
 10
2.3933
 20
15.9256
 30
0.0
 10
2.2767
 20
15.834
 30
0.0
 10
2.2767
 20
15.834
 30
0.0
 10
2.1087
 20
15.6982
 30
0.0
 10
1.9144
 20
15.6351
 30
0.0
 10
1.702
 20
15.6171
 30
0.0
 10
1.702
 20
15.6171
 30
0.0
 10
1.5779
 20
15.6171
 30
0.0
 10
1.4646
 20
15.6276
 30
0.0
 10
1.348
 20
15.666
 30
0.0
 10
1.348
 20
15.666
 30
0.0
 10
0.9292
 20
15.8014
 30
0.0
 10
0.6772
 20
16.1835
 30
0.0
 10
0.6596
 20
16.6127
 30
0.0
  0
SPLINE
  5
6B
330
1F
100
AcDbEntity
  8
Ilustrace
 62
   250
370
    30
100
AcDbSpline
210
0.0
220
0.0
230
1.0
 70
    11
 71
     3
 72
    40
 73
    36
 74
     0
 42
0.0000000001
 43
0.0000000001
 40
0.0
 40
0.0
 40
0.0
 40
0.0
 40
0.1
 40
0.1
 40
0.1
 40
0.1
 40
0.2
 40
0.2
 40
0.2
 40
0.2
 40
0.3
 40
0.3
 40
0.3
 40
0.3
 40
0.4
 40
0.4
 40
0.4
 40
0.4
 40
0.5
 40
0.5
 40
0.5
 40
0.5
 40
0.6
 40
0.6
 40
0.6
 40
0.6
 40
0.7
 40
0.7
 40
0.7
 40
0.7
 40
0.8
 40
0.8
 40
0.8
 40
0.8
 40
1.0
 40
1.0
 40
1.0
 40
1.0
 10
0.6596
 20
12.2855
 30
0.0
 10
0.6667
 20
12.4669
 30
0.0
 10
0.7064
 20
12.6391
 30
0.0
 10
0.8009
 20
12.7954
 30
0.0
 10
0.8009
 20
12.7954
 30
0.0
 10
0.8615
 20
12.8986
 30
0.0
 10
0.9397
 20
12.9902
 30
0.0
 10
1.0354
 20
13.0654
 30
0.0
 10
1.0354
 20
13.0654
 30
0.0
 10
1.5557
 20
13.4796
 30
0.0
 10
2.3549
 20
13.2602
 30
0.0
 10
2.5881
 20
12.6362
 30
0.0
 10
2.5881
 20
12.6362
 30
0.0
 10
2.6308
 20
12.5229
 30
0.0
 10
2.6517
 20
12.4034
 30
0.0
 10
2.6517
 20
12.2855
 30
0.0
 10
2.6517
 20
12.2855
 30
0.0
 10
2.6517
 20
12.1363
 30
0.0
 10
2.619
 20
11.9875
 30
0.0
 10
2.5555
 20
11.8533
 30
0.0
 10
2.5555
 20
11.8533
 30
0.0
 10
2.4891
 20
11.7191
 30
0.0
 10
2.3933
 20
11.5984
 30
0.0
 10
2.2767
 20
11.5051
 30
0.0
 10
2.2767
 20
11.5051
 30
0.0
 10
2.1087
 20
11.371
 30
0.0
 10
1.9144
 20
11.3079
 30
0.0
 10
1.702
 20
11.2899
 30
0.0
 10
1.702
 20
11.2899
 30
0.0
 10
1.5779
 20
11.2899
 30
0.0
 10
1.4646
 20
11.3003
 30
0.0
 10
1.348
 20
11.3359
 30
0.0
 10
1.348
 20
11.3359
 30
0.0
 10
0.9292
 20
11.4742
 30
0.0
 10
0.6772
 20
11.8562
 30
0.0
 10
0.6596
 20
12.2855
 30
0.0
  0
SPLINE
  5
6C
330
1F
100
AcDbEntity
  8
Ilustrace
 62
   250
370
    30
100
AcDbSpline
210
0.0
220
0.0
230
1.0
 70
    11
 71
     3
 72
    40
 73
    36
 74
     0
 42
0.0000000001
 43
0.0000000001
 40
0.0
 40
0.0
 40
0.0
 40
0.0
 40
0.1
 40
0.1
 40
0.1
 40
0.1
 40
0.2
 40
0.2
 40
0.2
 40
0.2
 40
0.3
 40
0.3
 40
0.3
 40
0.3
 40
0.4
 40
0.4
 40
0.4
 40
0.4
 40
0.5
 40
0.5
 40
0.5
 40
0.5
 40
0.6
 40
0.6
 40
0.6
 40
0.6
 40
0.7
 40
0.7
 40
0.7
 40
0.7
 40
0.8
 40
0.8
 40
0.8
 40
0.8
 40
1.0
 40
1.0
 40
1.0
 40
1.0
 10
0.6596
 20
-9.3573
 30
0.0
 10
0.6667
 20
-9.173
 30
0.0
 10
0.7064
 20
-9.002
 30
0.0
 10
0.8009
 20
-8.8457
 30
0.0
 10
0.8009
 20
-8.8457
 30
0.0
 10
0.8615
 20
-8.7408
 30
0.0
 10
0.9397
 20
-8.6509
 30
0.0
 10
1.0354
 20
-8.5774
 30
0.0
 10
1.0354
 20
-8.5774
 30
0.0
 10
1.5557
 20
-8.1615
 30
0.0
 10
2.3549
 20
-8.3826
 30
0.0
 10
2.5881
 20
-9.0062
 30
0.0
 10
2.5881
 20
-9.0062
 30
0.0
 10
2.6308
 20
-9.1186
 30
0.0
 10
2.6517
 20
-9.2365
 30
0.0
 10
2.6517
 20
-9.3573
 30
0.0
 10
2.6517
 20
-9.3573
 30
0.0
 10
2.6517
 20
-9.5061
 30
0.0
 10
2.619
 20
-9.6553
 30
0.0
 10
2.5555
 20
-9.7895
 30
0.0
 10
2.5555
 20
-9.7895
 30
0.0
 10
2.4891
 20
-9.9236
 30
0.0
 10
2.3933
 20
-10.0415
 30
0.0
 10
2.2767
 20
-10.136
 30
0.0
 10
2.2767
 20
-10.136
 30
0.0
 10
2.1087
 20
-10.2714
 30
0.0
 10
1.9144
 20
-10.332
 30
0.0
 10
1.702
 20
-10.3525
 30
0.0
 10
1.702
 20
-10.3525
 30
0.0
 10
1.2699
 20
-10.3525
 30
0.0
 10
0.8761
 20
-10.1197
 30
0.0
 10
0.7227
 20
-9.7067
 30
0.0
 10
0.7227
 20
-9.7067
 30
0.0
 10
0.6784
 20
-9.5934
 30
0.0
 10
0.6638
 20
-9.4768
 30
0.0
 10
0.6596
 20
-9.3573
 30
0.0
  0
SPLINE
  5
6D
330
1F
100
AcDbEntity
  8
Ilustrace
 62
   250
370
    30
100
AcDbSpline
210
0.0
220
0.0
230
1.0
 70
    11
 71
     3
 72
    40
 73
    36
 74
     0
 42
0.0000000001
 43
0.0000000001
 40
0.0
 40
0.0
 40
0.0
 40
0.0
 40
0.1
 40
0.1
 40
0.1
 40
0.1
 40
0.2
 40
0.2
 40
0.2
 40
0.2
 40
0.3
 40
0.3
 40
0.3
 40
0.3
 40
0.4
 40
0.4
 40
0.4
 40
0.4
 40
0.5
 40
0.5
 40
0.5
 40
0.5
 40
0.6
 40
0.6
 40
0.6
 40
0.6
 40
0.7
 40
0.7
 40
0.7
 40
0.7
 40
0.8
 40
0.8
 40
0.8
 40
0.8
 40
1.0
 40
1.0
 40
1.0
 40
1.0
 10
0.515
 20
3.6302
 30
0.0
 10
0.525
 20
3.8321
 30
0.0
 10
0.5681
 20
4.0206
 30
0.0
 10
0.6696
 20
4.1978
 30
0.0
 10
0.6696
 20
4.1978
 30
0.0
 10
0.7524
 20
4.3424
 30
0.0
 10
0.8657
 20
4.4662
 30
0.0
 10
1.0028
 20
4.5619
 30
0.0
 10
1.0028
 20
4.5619
 30
0.0
 10
1.6385
 20
5.0087
 30
0.0
 10
2.5555
 20
4.6756
 30
0.0
 10
2.7578
 20
3.9249
 30
0.0
 10
2.7578
 20
3.9249
 30
0.0
 10
2.79
 20
3.7966
 30
0.0
 10
2.8034
 20
3.6624
 30
0.0
 10
2.79
 20
3.5282
 30
0.0
 10
2.79
 20
3.5282
 30
0.0
 10
2.7754
 20
3.3648
 30
0.0
 10
2.7265
 20
3.2039
 30
0.0
 10
2.6412
 20
3.0593
 30
0.0
 10
2.6412
 20
3.0593
 30
0.0
 10
2.5601
 20
2.9151
 30
0.0
 10
2.4464
 20
2.7897
 30
0.0
 10
2.311
 20
2.6936
 30
0.0
 10
2.311
 20
2.6936
 30
0.0
 10
2.1133
 20
2.5565
 30
0.0
 10
1.8935
 20
2.4992
 30
0.0
 10
1.6561
 20
2.4888
 30
0.0
 10
1.6561
 20
2.4888
 30
0.0
 10
1.5219
 20
2.4963
 30
0.0
 10
1.3936
 20
2.5109
 30
0.0
 10
1.2653
 20
2.5565
 30
0.0
 10
1.2653
 20
2.5565
 30
0.0
 10
0.8055
 20
2.7262
 30
0.0
 10
0.5384
 20
3.1525
 30
0.0
 10
0.515
 20
3.6302
 30
0.0
  0
SPLINE
  5
6E
330
1F
100
AcDbEntity
  8
Ilustrace
 62
   250
370
    30
100
AcDbSpline
210
0.0
220
0.0
230
1.0
 70
    11
 71
     3
 72
    40
 73
    36
 74
     0
 42
0.0000000001
 43
0.0000000001
 40
0.0
 40
0.0
 40
0.0
 40
0.0
 40
0.1
 40
0.1
 40
0.1
 40
0.1
 40
0.2
 40
0.2
 40
0.2
 40
0.2
 40
0.3
 40
0.3
 40
0.3
 40
0.3
 40
0.4
 40
0.4
 40
0.4
 40
0.4
 40
0.5
 40
0.5
 40
0.5
 40
0.5
 40
0.6
 40
0.6
 40
0.6
 40
0.6
 40
0.7
 40
0.7
 40
0.7
 40
0.7
 40
0.8
 40
0.8
 40
0.8
 40
0.8
 40
1.0
 40
1.0
 40
1.0
 40
1.0
 10
0.515
 20
7.9579
 30
0.0
 10
0.525
 20
8.1597
 30
0.0
 10
0.5652
 20
8.3482
 30
0.0
 10
0.6696
 20
8.5255
 30
0.0
 10
0.6696
 20
8.5255
 30
0.0
 10
0.7524
 20
8.6701
 30
0.0
 10
0.8657
 20
8.795
 30
0.0
 10
1.0028
 20
8.8895
 30
0.0
 10
1.0028
 20
8.8895
 30
0.0
 10
1.1386
 20
8.9852
 30
0.0
 10
1.2949
 20
9.0504
 30
0.0
 10
1.4571
 20
9.0784
 30
0.0
 10
1.4571
 20
9.0784
 30
0.0
 10
1.5883
 20
9.1035
 30
0.0
 10
1.7242
 20
9.1035
 30
0.0
 10
1.8538
 20
9.0784
 30
0.0
 10
1.8538
 20
9.0784
 30
0.0
 10
2.6203
 20
8.9426
 30
0.0
 10
3.032
 20
8.0611
 30
0.0
 10
2.6412
 20
7.3869
 30
0.0
 10
2.6412
 20
7.3869
 30
0.0
 10
2.5601
 20
7.2427
 30
0.0
 10
2.4464
 20
7.1173
 30
0.0
 10
2.311
 20
7.0229
 30
0.0
 10
2.311
 20
7.0229
 30
0.0
 10
2.1133
 20
6.887
 30
0.0
 10
1.8935
 20
6.8268
 30
0.0
 10
1.6561
 20
6.8164
 30
0.0
 10
1.6561
 20
6.8164
 30
0.0
 10
1.5219
 20
6.8239
 30
0.0
 10
1.3936
 20
6.8385
 30
0.0
 10
1.2653
 20
6.887
 30
0.0
 10
1.2653
 20
6.887
 30
0.0
 10
0.8055
 20
7.0538
 30
0.0
 10
0.5384
 20
7.4801
 30
0.0
 10
0.515
 20
7.9579
 30
0.0
  0
SPLINE
  5
6F
330
1F
100
AcDbEntity
  8
Ilustrace
 62
   250
370
    30
100
AcDbSpline
210
0.0
220
0.0
230
1.0
 70
    11
 71
     3
 72
    40
 73
    36
 74
     0
 42
0.0000000001
 43
0.0000000001
 40
0.0
 40
0.0
 40
0.0
 40
0.0
 40
0.1
 40
0.1
 40
0.1
 40
0.1
 40
0.2
 40
0.2
 40
0.2
 40
0.2
 40
0.3
 40
0.3
 40
0.3
 40
0.3
 40
0.4
 40
0.4
 40
0.4
 40
0.4
 40
0.5
 40
0.5
 40
0.5
 40
0.5
 40
0.6
 40
0.6
 40
0.6
 40
0.6
 40
0.7
 40
0.7
 40
0.7
 40
0.7
 40
0.8
 40
0.8
 40
0.8
 40
0.8
 40
1.0
 40
1.0
 40
1.0
 40
1.0
 10
0.515
 20
-0.7008
 30
0.0
 10
0.525
 20
-0.4955
 30
0.0
 10
0.5652
 20
-0.3083
 30
0.0
 10
0.6696
 20
-0.1298
 30
0.0
 10
0.6696
 20
-0.1298
 30
0.0
 10
0.7524
 20
0.0144
 30
0.0
 10
0.8657
 20
0.1385
 30
0.0
 10
1.0028
 20
0.2342
 30
0.0
 10
1.0028
 20
0.2342
 30
0.0
 10
1.6385
 20
0.681
 30
0.0
 10
2.5555
 20
0.3479
 30
0.0
 10
2.7578
 20
-0.404
 30
0.0
 10
2.7578
 20
-0.404
 30
0.0
 10
2.79
 20
-0.534
 30
0.0
 10
2.8034
 20
-0.6665
 30
0.0
 10
2.79
 20
-0.7977
 30
0.0
 10
2.79
 20
-0.7977
 30
0.0
 10
2.7754
 20
-0.9628
 30
0.0
 10
2.7265
 20
-1.1267
 30
0.0
 10
2.6412
 20
-1.2684
 30
0.0
 10
2.6412
 20
-1.2684
 30
0.0
 10
2.5601
 20
-1.4142
 30
0.0
 10
2.4464
 20
-1.5379
 30
0.0
 10
2.311
 20
-1.6341
 30
0.0
 10
2.311
 20
-1.6341
 30
0.0
 10
2.1133
 20
-1.7712
 30
0.0
 10
1.8935
 20
-1.8284
 30
0.0
 10
1.6561
 20
-1.8389
 30
0.0
 10
1.6561
 20
-1.8389
 30
0.0
 10
1.1783
 20
-1.8184
 30
0.0
 10
0.7524
 20
-1.5484
 30
0.0
 10
0.5856
 20
-1.0882
 30
0.0
 10
0.5856
 20
-1.0882
 30
0.0
 10
0.5401
 20
-0.9628
 30
0.0
 10
0.5221
 20
-0.8333
 30
0.0
 10
0.515
 20
-0.7008
 30
0.0
  0
SPLINE
  5
70
330
1F
100
AcDbEntity
  8
Ilustrace
 62
   250
370
    30
100
AcDbSpline
210
0.0
220
0.0
230
1.0
 70
    11
 71
     3
 72
    40
 73
    36
 74
     0
 42
0.0000000001
 43
0.0000000001
 40
0.0
 40
0.0
 40
0.0
 40
0.0
 40
0.1
 40
0.1
 40
0.1
 40
0.1
 40
0.2
 40
0.2
 40
0.2
 40
0.2
 40
0.3
 40
0.3
 40
0.3
 40
0.3
 40
0.4
 40
0.4
 40
0.4
 40
0.4
 40
0.5
 40
0.5
 40
0.5
 40
0.5
 40
0.6
 40
0.6
 40
0.6
 40
0.6
 40
0.7
 40
0.7
 40
0.7
 40
0.7
 40
0.8
 40
0.8
 40
0.8
 40
0.8
 40
1.0
 40
1.0
 40
1.0
 40
1.0
 10
0.515
 20
-5.0284
 30
0.0
 10
0.5284
 20
-4.791
 30
0.0
 10
0.5856
 20
-4.5711
 30
0.0
 10
0.7227
 20
-4.3734
 30
0.0
 10
0.7227
 20
-4.3734
 30
0.0
 10
0.8189
 20
-4.238
 30
0.0
 10
0.9438
 20
-4.1243
 30
0.0
 10
1.0855
 20
-4.0403
 30
0.0
 10
1.0855
 20
-4.0403
 30
0.0
 10
1.2021
 20
-3.9755
 30
0.0
 10
1.3288
 20
-3.9296
 30
0.0
 10
1.4571
 20
-3.9045
 30
0.0
 10
1.4571
 20
-3.9045
 30
0.0
 10
2.2237
 20
-3.7703
 30
0.0
 10
2.9137
 20
-4.4591
 30
0.0
 10
2.7766
 20
-5.2244
 30
0.0
 10
2.7766
 20
-5.2244
 30
0.0
 10
2.7503
 20
-5.3895
 30
0.0
 10
2.6838
 20
-5.5458
 30
0.0
 10
2.5881
 20
-5.6813
 30
0.0
 10
2.5881
 20
-5.6813
 30
0.0
 10
2.4953
 20
-5.8184
 30
0.0
 10
2.3683
 20
-5.932
 30
0.0
 10
2.227
 20
-6.0148
 30
0.0
 10
2.227
 20
-6.0148
 30
0.0
 10
2.0485
 20
-6.1164
 30
0.0
 10
1.8583
 20
-6.159
 30
0.0
 10
1.6561
 20
-6.1665
 30
0.0
 10
1.6561
 20
-6.1665
 30
0.0
 10
1.1783
 20
-6.146
 30
0.0
 10
0.7524
 20
-5.876
 30
0.0
 10
0.5856
 20
-5.4188
 30
0.0
 10
0.5856
 20
-5.4188
 30
0.0
 10
0.5401
 20
-5.2905
 30
0.0
 10
0.5221
 20
-5.1609
 30
0.0
 10
0.515
 20
-5.0284
 30
0.0
  0
SPLINE
  5
71
330
1F
100
AcDbEntity
  8
Ilustrace
 62
   250
370
    30
100
AcDbSpline
210
0.0
220
0.0
230
1.0
 70
    11
 71
     3
 72
    36
 73
    32
 74
     0
 42
0.0000000001
 43
0.0000000001
 40
0.0
 40
0.0
 40
0.0
 40
0.0
 40
0.1111111111111111
 40
0.1111111111111111
 40
0.1111111111111111
 40
0.1111111111111111
 40
0.2222222222222222
 40
0.2222222222222222
 40
0.2222222222222222
 40
0.2222222222222222
 40
0.3333333333333333
 40
0.3333333333333333
 40
0.3333333333333333
 40
0.3333333333333333
 40
0.4444444444444444
 40
0.4444444444444444
 40
0.4444444444444444
 40
0.4444444444444444
 40
0.5555555555555556
 40
0.5555555555555556
 40
0.5555555555555556
 40
0.5555555555555556
 40
0.6666666666666666
 40
0.6666666666666666
 40
0.6666666666666666
 40
0.6666666666666666
 40
0.7777777777777778
 40
0.7777777777777778
 40
0.7777777777777778
 40
0.7777777777777778
 40
1.0
 40
1.0
 40
1.0
 40
1.0
 10
-3.5263
 20
25.2692
 30
0.0
 10
-3.5188
 20
25.1087
 30
0.0
 10
-3.4837
 20
24.9566
 30
0.0
 10
-3.398
 20
24.8182
 30
0.0
 10
-3.398
 20
24.8182
 30
0.0
 10
-3.3274
 20
24.7062
 30
0.0
 10
-3.2342
 20
24.613
 30
0.0
 10
-3.1222
 20
24.5424
 30
0.0
 10
-3.1222
 20
24.5424
 30
0.0
 10
-3.0323
 20
24.4864
 30
0.0
 10
-2.9307
 20
24.4496
 30
0.0
 10
-2.8275
 20
24.4287
 30
0.0
 10
-2.8275
 20
24.4287
 30
0.0
 10
-2.2494
 20
24.3196
 30
0.0
 10
-1.7245
 20
24.8462
 30
0.0
 10
-1.8319
 20
25.4255
 30
0.0
 10
-1.8319
 20
25.4255
 30
0.0
 10
-1.8499
 20
25.5305
 30
0.0
 10
-1.8879
 20
25.6308
 30
0.0
 10
-1.9443
 20
25.719
 30
0.0
 10
-1.9443
 20
25.719
 30
0.0
 10
-2.015
 20
25.8326
 30
0.0
 10
-2.1107
 20
25.9271
 30
0.0
 10
-2.2214
 20
25.9948
 30
0.0
 10
-2.2214
 20
25.9948
 30
0.0
 10
-2.3598
 20
26.0805
 30
0.0
 10
-2.5119
 20
26.1156
 30
0.0
 10
-2.6712
 20
26.1231
 30
0.0
 10
-2.6712
 20
26.1231
 30
0.0
 10
-3.1531
 20
26.101
 30
0.0
 10
-3.5042
 20
25.7516
 30
0.0
 10
-3.5263
 20
25.2692
 30
0.0
  0
SPLINE
  5
72
330
1F
100
AcDbEntity
  8
Ilustrace
 62
   250
370
    30
100
AcDbSpline
210
0.0
220
0.0
230
1.0
 70
    11
 71
     3
 72
    36
 73
    32
 74
     0
 42
0.0000000001
 43
0.0000000001
 40
0.0
 40
0.0
 40
0.0
 40
0.0
 40
0.1111111111111111
 40
0.1111111111111111
 40
0.1111111111111111
 40
0.1111111111111111
 40
0.2222222222222222
 40
0.2222222222222222
 40
0.2222222222222222
 40
0.2222222222222222
 40
0.3333333333333333
 40
0.3333333333333333
 40
0.3333333333333333
 40
0.3333333333333333
 40
0.4444444444444444
 40
0.4444444444444444
 40
0.4444444444444444
 40
0.4444444444444444
 40
0.5555555555555556
 40
0.5555555555555556
 40
0.5555555555555556
 40
0.5555555555555556
 40
0.6666666666666666
 40
0.6666666666666666
 40
0.6666666666666666
 40
0.6666666666666666
 40
0.7777777777777778
 40
0.7777777777777778
 40
0.7777777777777778
 40
0.7777777777777778
 40
1.0
 40
1.0
 40
1.0
 40
1.0
 10
-3.5263
 20
-13.6849
 30
0.0
 10
-3.5188
 20
-13.8442
 30
0.0
 10
-3.4837
 20
-13.9959
 30
0.0
 10
-3.398
 20
-14.1346
 30
0.0
 10
-3.398
 20
-14.1346
 30
0.0
 10
-3.3274
 20
-14.2454
 30
0.0
 10
-3.2342
 20
-14.3411
 30
0.0
 10
-3.1222
 20
-14.4105
 30
0.0
 10
-3.1222
 20
-14.4105
 30
0.0
 10
-3.0089
 20
-14.4811
 30
0.0
 10
-2.8806
 20
-14.5238
 30
0.0
 10
-2.7493
 20
-14.5359
 30
0.0
 10
-2.7493
 20
-14.5359
 30
0.0
 10
-2.6461
 20
-14.5459
 30
0.0
 10
-2.5399
 20
-14.5359
 30
0.0
 10
-2.4379
 20
-14.5062
 30
0.0
 10
-2.4379
 20
-14.5062
 30
0.0
 10
-2.3347
 20
-14.4782
 30
0.0
 10
-2.239
 20
-14.4297
 30
0.0
 10
-2.1566
 20
-14.3675
 30
0.0
 10
-2.1566
 20
-14.3675
 30
0.0
 10
-1.686
 20
-14.0109
 30
0.0
 10
-1.7186
 20
-13.269
 30
0.0
 10
-2.2214
 20
-12.9581
 30
0.0
 10
-2.2214
 20
-12.9581
 30
0.0
 10
-2.3598
 20
-12.8724
 30
0.0
 10
-2.5119
 20
-12.8373
 30
0.0
 10
-2.6712
 20
-12.8298
 30
0.0
 10
-2.6712
 20
-12.8298
 30
0.0
 10
-3.1531
 20
-12.8519
 30
0.0
 10
-3.5042
 20
-13.203
 30
0.0
 10
-3.5263
 20
-13.6849
 30
0.0
  0
SPLINE
  5
73
330
1F
100
AcDbEntity
  8
Ilustrace
 62
   250
370
    30
100
AcDbSpline
210
0.0
220
0.0
230
1.0
 70
    11
 71
     3
 72
    40
 73
    36
 74
     0
 42
0.0000000001
 43
0.0000000001
 40
0.0
 40
0.0
 40
0.0
 40
0.0
 40
0.1
 40
0.1
 40
0.1
 40
0.1
 40
0.2
 40
0.2
 40
0.2
 40
0.2
 40
0.3
 40
0.3
 40
0.3
 40
0.3
 40
0.4
 40
0.4
 40
0.4
 40
0.4
 40
0.5
 40
0.5
 40
0.5
 40
0.5
 40
0.6
 40
0.6
 40
0.6
 40
0.6
 40
0.7
 40
0.7
 40
0.7
 40
0.7
 40
0.8
 40
0.8
 40
0.8
 40
0.8
 40
1.0
 40
1.0
 40
1.0
 40
1.0
 10
-3.668
 20
20.9403
 30
0.0
 10
-3.6576
 20
20.728
 30
0.0
 10
-3.6045
 20
20.5303
 30
0.0
 10
-3.4791
 20
20.3564
 30
0.0
 10
-3.4791
 20
20.3564
 30
0.0
 10
-3.3905
 20
20.2352
 30
0.0
 10
-3.2743
 20
20.1337
 30
0.0
 10
-3.143
 20
20.063
 30
0.0
 10
-3.143
 20
20.063
 30
0.0
 10
-3.0398
 20
20.0053
 30
0.0
 10
-2.9232
 20
19.9698
 30
0.0
 10
-2.8066
 20
19.9523
 30
0.0
 10
-2.8066
 20
19.9523
 30
0.0
 10
-2.1077
 20
19.8595
 30
0.0
 10
-1.5226
 20
20.5286
 30
0.0
 10
-1.7111
 20
21.207
 30
0.0
 10
-1.7111
 20
21.207
 30
0.0
 10
-1.742
 20
21.3207
 30
0.0
 10
-1.7951
 20
21.4298
 30
0.0
 10
-1.8662
 20
21.5284
 30
0.0
 10
-1.8662
 20
21.5284
 30
0.0
 10
-1.9514
 20
21.6467
 30
0.0
 10
-2.068
 20
21.7483
 30
0.0
 10
-2.1993
 20
21.8206
 30
0.0
 10
-2.1993
 20
21.8206
 30
0.0
 10
-2.3598
 20
21.9058
 30
0.0
 10
-2.5324
 20
21.9368
 30
0.0
 10
-2.7167
 20
21.9368
 30
0.0
 10
-2.7167
 20
21.9368
 30
0.0
 10
-3.1121
 20
21.9017
 30
0.0
 10
-3.4615
 20
21.6747
 30
0.0
 10
-3.6045
 20
21.291
 30
0.0
 10
-3.6045
 20
21.291
 30
0.0
 10
-3.6471
 20
21.1777
 30
0.0
 10
-3.6634
 20
21.0611
 30
0.0
 10
-3.668
 20
20.9403
 30
0.0
  0
SPLINE
  5
74
330
1F
100
AcDbEntity
  8
Ilustrace
 62
   250
370
    30
100
AcDbSpline
210
0.0
220
0.0
230
1.0
 70
    11
 71
     3
 72
    40
 73
    36
 74
     0
 42
0.0000000001
 43
0.0000000001
 40
0.0
 40
0.0
 40
0.0
 40
0.0
 40
0.1
 40
0.1
 40
0.1
 40
0.1
 40
0.2
 40
0.2
 40
0.2
 40
0.2
 40
0.3
 40
0.3
 40
0.3
 40
0.3
 40
0.4
 40
0.4
 40
0.4
 40
0.4
 40
0.5
 40
0.5
 40
0.5
 40
0.5
 40
0.6
 40
0.6
 40
0.6
 40
0.6
 40
0.7
 40
0.7
 40
0.7
 40
0.7
 40
0.8
 40
0.8
 40
0.8
 40
0.8
 40
1.0
 40
1.0
 40
1.0
 40
1.0
 10
-3.668
 20
-9.3573
 30
0.0
 10
-3.6576
 20
-9.5696
 30
0.0
 10
-3.6045
 20
-9.7673
 30
0.0
 10
-3.4791
 20
-9.9412
 30
0.0
 10
-3.4791
 20
-9.9412
 30
0.0
 10
-3.3905
 20
-10.062
 30
0.0
 10
-3.2743
 20
-10.164
 30
0.0
 10
-3.143
 20
-10.2333
 30
0.0
 10
-3.143
 20
-10.2333
 30
0.0
 10
-3.0398
 20
-10.2893
 30
0.0
 10
-2.9232
 20
-10.3274
 30
0.0
 10
-2.8066
 20
-10.3454
 30
0.0
 10
-2.8066
 20
-10.3454
 30
0.0
 10
-2.1077
 20
-10.4381
 30
0.0
 10
-1.5226
 20
-9.7673
 30
0.0
 10
-1.7111
 20
-9.0906
 30
0.0
 10
-1.7111
 20
-9.0906
 30
0.0
 10
-1.742
 20
-8.9769
 30
0.0
 10
-1.7951
 20
-8.8678
 30
0.0
 10
-1.8662
 20
-8.7688
 30
0.0
 10
-1.8662
 20
-8.7688
 30
0.0
 10
-1.9514
 20
-8.648
 30
0.0
 10
-2.068
 20
-8.5493
 30
0.0
 10
-2.1993
 20
-8.477
 30
0.0
 10
-2.1993
 20
-8.477
 30
0.0
 10
-2.3598
 20
-8.3901
 30
0.0
 10
-2.5324
 20
-8.3604
 30
0.0
 10
-2.7167
 20
-8.3604
 30
0.0
 10
-2.7167
 20
-8.3604
 30
0.0
 10
-3.1121
 20
-8.396
 30
0.0
 10
-3.4615
 20
-8.6229
 30
0.0
 10
-3.6045
 20
-9.0062
 30
0.0
 10
-3.6045
 20
-9.0062
 30
0.0
 10
-3.6471
 20
-9.1199
 30
0.0
 10
-3.6634
 20
-9.2365
 30
0.0
 10
-3.668
 20
-9.3573
 30
0.0
  0
SPLINE
  5
75
330
1F
100
AcDbEntity
  8
Ilustrace
 62
   250
370
    30
100
AcDbSpline
210
0.0
220
0.0
230
1.0
 70
    11
 71
     3
 72
    40
 73
    36
 74
     0
 42
0.0000000001
 43
0.0000000001
 40
0.0
 40
0.0
 40
0.0
 40
0.0
 40
0.1
 40
0.1
 40
0.1
 40
0.1
 40
0.2
 40
0.2
 40
0.2
 40
0.2
 40
0.3
 40
0.3
 40
0.3
 40
0.3
 40
0.4
 40
0.4
 40
0.4
 40
0.4
 40
0.5
 40
0.5
 40
0.5
 40
0.5
 40
0.6
 40
0.6
 40
0.6
 40
0.6
 40
0.7
 40
0.7
 40
0.7
 40
0.7
 40
0.8
 40
0.8
 40
0.8
 40
0.8
 40
1.0
 40
1.0
 40
1.0
 40
1.0
 10
-3.668
 20
16.6127
 30
0.0
 10
-3.6576
 20
16.8263
 30
0.0
 10
-3.6045
 20
17.024
 30
0.0
 10
-3.4791
 20
17.1979
 30
0.0
 10
-3.4791
 20
17.1979
 30
0.0
 10
-3.3905
 20
17.3187
 30
0.0
 10
-3.2743
 20
17.4206
 30
0.0
 10
-3.143
 20
17.4913
 30
0.0
 10
-3.143
 20
17.4913
 30
0.0
 10
-3.0398
 20
17.549
 30
0.0
 10
-2.9232
 20
17.5841
 30
0.0
 10
-2.8066
 20
17.602
 30
0.0
 10
-2.8066
 20
17.602
 30
0.0
 10
-2.1462
 20
17.6902
 30
0.0
 10
-1.5727
 20
17.0917
 30
0.0
 10
-1.6889
 20
16.4355
 30
0.0
 10
-1.6889
 20
16.4355
 30
0.0
 10
-1.7111
 20
16.3164
 30
0.0
 10
-1.7537
 20
16.2027
 30
0.0
 10
-1.8143
 20
16.1024
 30
0.0
 10
-1.8143
 20
16.1024
 30
0.0
 10
-1.8912
 20
15.9741
 30
0.0
 10
-1.9987
 20
15.862
 30
0.0
 10
-2.1224
 20
15.7793
 30
0.0
 10
-2.1224
 20
15.7793
 30
0.0
 10
-2.2774
 20
15.6777
 30
0.0
 10
-2.4438
 20
15.6322
 30
0.0
 10
-2.6281
 20
15.6171
 30
0.0
 10
-2.6281
 20
15.6171
 30
0.0
 10
-2.7493
 20
15.6171
 30
0.0
 10
-2.8626
 20
15.6276
 30
0.0
 10
-2.9792
 20
15.666
 30
0.0
 10
-2.9792
 20
15.666
 30
0.0
 10
-3.398
 20
15.8014
 30
0.0
 10
-3.65
 20
16.1835
 30
0.0
 10
-3.668
 20
16.6127
 30
0.0
  0
SPLINE
  5
76
330
1F
100
AcDbEntity
  8
Ilustrace
 62
   250
370
    30
100
AcDbSpline
210
0.0
220
0.0
230
1.0
 70
    11
 71
     3
 72
    40
 73
    36
 74
     0
 42
0.0000000001
 43
0.0000000001
 40
0.0
 40
0.0
 40
0.0
 40
0.0
 40
0.1
 40
0.1
 40
0.1
 40
0.1
 40
0.2
 40
0.2
 40
0.2
 40
0.2
 40
0.3
 40
0.3
 40
0.3
 40
0.3
 40
0.4
 40
0.4
 40
0.4
 40
0.4
 40
0.5
 40
0.5
 40
0.5
 40
0.5
 40
0.6
 40
0.6
 40
0.6
 40
0.6
 40
0.7
 40
0.7
 40
0.7
 40
0.7
 40
0.8
 40
0.8
 40
0.8
 40
0.8
 40
1.0
 40
1.0
 40
1.0
 40
1.0
 10
-3.8122
 20
-5.0284
 30
0.0
 10
-3.8022
 20
-4.8261
 30
0.0
 10
-3.7591
 20
-4.6359
 30
0.0
 10
-3.6576
 20
-4.4574
 30
0.0
 10
-3.6576
 20
-4.4574
 30
0.0
 10
-3.5748
 20
-4.3133
 30
0.0
 10
-3.4615
 20
-4.1891
 30
0.0
 10
-3.3244
 20
-4.0934
 30
0.0
 10
-3.3244
 20
-4.0934
 30
0.0
 10
-3.2166
 20
-4.0182
 30
0.0
 10
-3.0941
 20
-3.9622
 30
0.0
 10
-2.9658
 20
-3.9266
 30
0.0
 10
-2.9658
 20
-3.9266
 30
0.0
 10
-2.2139
 20
-3.7248
 30
0.0
 10
-1.4695
 20
-4.3513
 30
0.0
 10
-1.5372
 20
-5.1283
 30
0.0
 10
-1.5372
 20
-5.1283
 30
0.0
 10
-1.5518
 20
-5.2921
 30
0.0
 10
-1.6007
 20
-5.4543
 30
0.0
 10
-1.686
 20
-5.5989
 30
0.0
 10
-1.686
 20
-5.5989
 30
0.0
 10
-1.7671
 20
-5.7419
 30
0.0
 10
-1.8808
 20
-5.8656
 30
0.0
 10
-2.0162
 20
-5.9617
 30
0.0
 10
-2.0162
 20
-5.9617
 30
0.0
 10
-2.2139
 20
-6.0988
 30
0.0
 10
-2.4338
 20
-6.1561
 30
0.0
 10
-2.6712
 20
-6.1665
 30
0.0
 10
-2.6712
 20
-6.1665
 30
0.0
 10
-2.8066
 20
-6.1607
 30
0.0
 10
-2.9336
 20
-6.146
 30
0.0
 10
-3.062
 20
-6.0988
 30
0.0
 10
-3.062
 20
-6.0988
 30
0.0
 10
-3.5217
 20
-5.932
 30
0.0
 10
-3.7888
 20
-5.5045
 30
0.0
 10
-3.8122
 20
-5.0284
 30
0.0
  0
SPLINE
  5
77
330
1F
100
AcDbEntity
  8
Ilustrace
 62
   250
370
    30
100
AcDbSpline
210
0.0
220
0.0
230
1.0
 70
    11
 71
     3
 72
    40
 73
    36
 74
     0
 42
0.0000000001
 43
0.0000000001
 40
0.0
 40
0.0
 40
0.0
 40
0.0
 40
0.1
 40
0.1
 40
0.1
 40
0.1
 40
0.2
 40
0.2
 40
0.2
 40
0.2
 40
0.3
 40
0.3
 40
0.3
 40
0.3
 40
0.4
 40
0.4
 40
0.4
 40
0.4
 40
0.5
 40
0.5
 40
0.5
 40
0.5
 40
0.6
 40
0.6
 40
0.6
 40
0.6
 40
0.7
 40
0.7
 40
0.7
 40
0.7
 40
0.8
 40
0.8
 40
0.8
 40
0.8
 40
1.0
 40
1.0
 40
1.0
 40
1.0
 10
-3.8122
 20
12.2855
 30
0.0
 10
-3.8022
 20
12.4874
 30
0.0
 10
-3.7591
 20
12.6759
 30
0.0
 10
-3.6576
 20
12.856
 30
0.0
 10
-3.6576
 20
12.856
 30
0.0
 10
-3.5748
 20
12.9977
 30
0.0
 10
-3.4615
 20
13.1227
 30
0.0
 10
-3.3244
 20
13.2188
 30
0.0
 10
-3.3244
 20
13.2188
 30
0.0
 10
-3.2166
 20
13.2953
 30
0.0
 10
-3.0941
 20
13.3501
 30
0.0
 10
-2.9658
 20
13.3852
 30
0.0
 10
-2.9658
 20
13.3852
 30
0.0
 10
-2.2139
 20
13.5875
 30
0.0
 10
-1.4695
 20
12.9622
 30
0.0
 10
-1.5372
 20
12.1864
 30
0.0
 10
-1.5372
 20
12.1864
 30
0.0
 10
-1.5518
 20
12.0201
 30
0.0
 10
-1.6007
 20
11.8579
 30
0.0
 10
-1.686
 20
11.7145
 30
0.0
 10
-1.686
 20
11.7145
 30
0.0
 10
-1.7671
 20
11.5733
 30
0.0
 10
-1.8808
 20
11.4462
 30
0.0
 10
-2.0162
 20
11.3505
 30
0.0
 10
-2.0162
 20
11.3505
 30
0.0
 10
-2.2139
 20
11.2147
 30
0.0
 10
-2.4338
 20
11.1557
 30
0.0
 10
-2.6712
 20
11.144
 30
0.0
 10
-2.6712
 20
11.144
 30
0.0
 10
-2.8066
 20
11.1515
 30
0.0
 10
-2.9336
 20
11.1691
 30
0.0
 10
-3.062
 20
11.2147
 30
0.0
 10
-3.062
 20
11.2147
 30
0.0
 10
-3.5217
 20
11.3814
 30
0.0
 10
-3.7888
 20
11.8078
 30
0.0
 10
-3.8122
 20
12.2855
 30
0.0
  0
SPLINE
  5
78
330
1F
100
AcDbEntity
  8
Ilustrace
 62
   250
370
    30
100
AcDbSpline
210
0.0
220
0.0
230
1.0
 70
    11
 71
     3
 72
    40
 73
    36
 74
     0
 42
0.0000000001
 43
0.0000000001
 40
0.0
 40
0.0
 40
0.0
 40
0.0
 40
0.1
 40
0.1
 40
0.1
 40
0.1
 40
0.2
 40
0.2
 40
0.2
 40
0.2
 40
0.3
 40
0.3
 40
0.3
 40
0.3
 40
0.4
 40
0.4
 40
0.4
 40
0.4
 40
0.5
 40
0.5
 40
0.5
 40
0.5
 40
0.6
 40
0.6
 40
0.6
 40
0.6
 40
0.7
 40
0.7
 40
0.7
 40
0.7
 40
0.8
 40
0.8
 40
0.8
 40
0.8
 40
1.0
 40
1.0
 40
1.0
 40
1.0
 10
-3.8122
 20
7.9579
 30
0.0
 10
-3.8022
 20
7.7556
 30
0.0
 10
-3.7591
 20
7.5641
 30
0.0
 10
-3.6576
 20
7.3869
 30
0.0
 10
-3.6576
 20
7.3869
 30
0.0
 10
-3.5748
 20
7.2427
 30
0.0
 10
-3.4615
 20
7.1173
 30
0.0
 10
-3.3244
 20
7.0229
 30
0.0
 10
-3.3244
 20
7.0229
 30
0.0
 10
-3.2166
 20
6.9476
 30
0.0
 10
-3.0941
 20
6.8916
 30
0.0
 10
-2.9658
 20
6.8561
 30
0.0
 10
-2.9658
 20
6.8561
 30
0.0
 10
-2.2139
 20
6.6542
 30
0.0
 10
-1.4695
 20
7.2807
 30
0.0
 10
-1.5372
 20
8.0565
 30
0.0
 10
-1.5372
 20
8.0565
 30
0.0
 10
-1.5518
 20
8.2203
 30
0.0
 10
-1.6007
 20
8.3838
 30
0.0
 10
-1.686
 20
8.5255
 30
0.0
 10
-1.686
 20
8.5255
 30
0.0
 10
-1.7671
 20
8.6701
 30
0.0
 10
-1.8808
 20
8.795
 30
0.0
 10
-2.0162
 20
8.8895
 30
0.0
 10
-2.0162
 20
8.8895
 30
0.0
 10
-2.2139
 20
9.0283
 30
0.0
 10
-2.4338
 20
9.0855
 30
0.0
 10
-2.6712
 20
9.096
 30
0.0
 10
-2.6712
 20
9.096
 30
0.0
 10
-2.8066
 20
9.0914
 30
0.0
 10
-2.9336
 20
9.0738
 30
0.0
 10
-3.062
 20
9.0283
 30
0.0
 10
-3.062
 20
9.0283
 30
0.0
 10
-3.5217
 20
8.8615
 30
0.0
 10
-3.7888
 20
8.4327
 30
0.0
 10
-3.8122
 20
7.9579
 30
0.0
  0
SPLINE
  5
79
330
1F
100
AcDbEntity
  8
Ilustrace
 62
   250
370
    30
100
AcDbSpline
210
0.0
220
0.0
230
1.0
 70
    11
 71
     3
 72
    40
 73
    36
 74
     0
 42
0.0000000001
 43
0.0000000001
 40
0.0
 40
0.0
 40
0.0
 40
0.0
 40
0.1
 40
0.1
 40
0.1
 40
0.1
 40
0.2
 40
0.2
 40
0.2
 40
0.2
 40
0.3
 40
0.3
 40
0.3
 40
0.3
 40
0.4
 40
0.4
 40
0.4
 40
0.4
 40
0.5
 40
0.5
 40
0.5
 40
0.5
 40
0.6
 40
0.6
 40
0.6
 40
0.6
 40
0.7
 40
0.7
 40
0.7
 40
0.7
 40
0.8
 40
0.8
 40
0.8
 40
0.8
 40
1.0
 40
1.0
 40
1.0
 40
1.0
 10
-3.8122
 20
3.6302
 30
0.0
 10
-3.8022
 20
3.425
 30
0.0
 10
-3.7591
 20
3.2365
 30
0.0
 10
-3.6576
 20
3.0593
 30
0.0
 10
-3.6576
 20
3.0593
 30
0.0
 10
-3.5748
 20
2.9151
 30
0.0
 10
-3.4615
 20
2.7897
 30
0.0
 10
-3.3244
 20
2.6936
 30
0.0
 10
-3.3244
 20
2.6936
 30
0.0
 10
-3.2166
 20
2.62
 30
0.0
 10
-3.0941
 20
2.5623
 30
0.0
 10
-2.9658
 20
2.5285
 30
0.0
 10
-2.9658
 20
2.5285
 30
0.0
 10
-2.2139
 20
2.3253
 30
0.0
 10
-1.4695
 20
2.9531
 30
0.0
 10
-1.5372
 20
3.7289
 30
0.0
 10
-1.5372
 20
3.7289
 30
0.0
 10
-1.5518
 20
3.8927
 30
0.0
 10
-1.6007
 20
4.0549
 30
0.0
 10
-1.686
 20
4.1978
 30
0.0
 10
-1.686
 20
4.1978
 30
0.0
 10
-1.7671
 20
4.3424
 30
0.0
 10
-1.8808
 20
4.4662
 30
0.0
 10
-2.0162
 20
4.5619
 30
0.0
 10
-2.0162
 20
4.5619
 30
0.0
 10
-2.2139
 20
4.7006
 30
0.0
 10
-2.4338
 20
4.7579
 30
0.0
 10
-2.6712
 20
4.7683
 30
0.0
 10
-2.6712
 20
4.7683
 30
0.0
 10
-2.8066
 20
4.7608
 30
0.0
 10
-2.9336
 20
4.7462
 30
0.0
 10
-3.062
 20
4.7006
 30
0.0
 10
-3.062
 20
4.7006
 30
0.0
 10
-3.5217
 20
4.5309
 30
0.0
 10
-3.7888
 20
4.105
 30
0.0
 10
-3.8122
 20
3.6302
 30
0.0
  0
SPLINE
  5
7A
330
1F
100
AcDbEntity
  8
Ilustrace
 62
   250
370
    30
100
AcDbSpline
210
0.0
220
0.0
230
1.0
 70
    11
 71
     3
 72
    40
 73
    36
 74
     0
 42
0.0000000001
 43
0.0000000001
 40
0.0
 40
0.0
 40
0.0
 40
0.0
 40
0.1
 40
0.1
 40
0.1
 40
0.1
 40
0.2
 40
0.2
 40
0.2
 40
0.2
 40
0.3
 40
0.3
 40
0.3
 40
0.3
 40
0.4
 40
0.4
 40
0.4
 40
0.4
 40
0.5
 40
0.5
 40
0.5
 40
0.5
 40
0.6
 40
0.6
 40
0.6
 40
0.6
 40
0.7
 40
0.7
 40
0.7
 40
0.7
 40
0.8
 40
0.8
 40
0.8
 40
0.8
 40
1.0
 40
1.0
 40
1.0
 40
1.0
 10
-3.8122
 20
-0.7008
 30
0.0
 10
-3.8022
 20
-0.4955
 30
0.0
 10
-3.7591
 20
-0.3083
 30
0.0
 10
-3.6576
 20
-0.1298
 30
0.0
 10
-3.6576
 20
-0.1298
 30
0.0
 10
-3.5748
 20
0.0144
 30
0.0
 10
-3.4615
 20
0.1385
 30
0.0
 10
-3.3244
 20
0.2342
 30
0.0
 10
-3.3244
 20
0.2342
 30
0.0
 10
-3.2166
 20
0.3095
 30
0.0
 10
-3.0941
 20
0.3655
 30
0.0
 10
-2.9658
 20
0.401
 30
0.0
 10
-2.9658
 20
0.401
 30
0.0
 10
-2.2139
 20
0.6029
 30
0.0
 10
-1.4695
 20
-0.0237
 30
0.0
 10
-1.5372
 20
-0.7977
 30
0.0
 10
-1.5372
 20
-0.7977
 30
0.0
 10
-1.5518
 20
-0.9628
 30
0.0
 10
-1.6007
 20
-1.1267
 30
0.0
 10
-1.686
 20
-1.2684
 30
0.0
 10
-1.686
 20
-1.2684
 30
0.0
 10
-1.7671
 20
-1.4142
 30
0.0
 10
-1.8808
 20
-1.5379
 30
0.0
 10
-2.0162
 20
-1.6341
 30
0.0
 10
-2.0162
 20
-1.6341
 30
0.0
 10
-2.2139
 20
-1.7712
 30
0.0
 10
-2.4338
 20
-1.8284
 30
0.0
 10
-2.6712
 20
-1.8389
 30
0.0
 10
-2.6712
 20
-1.8389
 30
0.0
 10
-2.8066
 20
-1.8343
 30
0.0
 10
-2.9336
 20
-1.8184
 30
0.0
 10
-3.062
 20
-1.7712
 30
0.0
 10
-3.062
 20
-1.7712
 30
0.0
 10
-3.5217
 20
-1.6044
 30
0.0
 10
-3.7888
 20
-1.1768
 30
0.0
 10
-3.8122
 20
-0.7008
 30
0.0
  0
SPLINE
  5
7B
330
1F
100
AcDbEntity
  8
Ilustrace
 62
   250
370
    30
100
AcDbSpline
210
0.0
220
0.0
230
1.0
 70
    11
 71
     3
 72
    36
 73
    32
 74
     0
 42
0.0000000001
 43
0.0000000001
 40
0.0
 40
0.0
 40
0.0
 40
0.0
 40
0.1111111111111111
 40
0.1111111111111111
 40
0.1111111111111111
 40
0.1111111111111111
 40
0.2222222222222222
 40
0.2222222222222222
 40
0.2222222222222222
 40
0.2222222222222222
 40
0.3333333333333333
 40
0.3333333333333333
 40
0.3333333333333333
 40
0.3333333333333333
 40
0.4444444444444444
 40
0.4444444444444444
 40
0.4444444444444444
 40
0.4444444444444444
 40
0.5555555555555556
 40
0.5555555555555556
 40
0.5555555555555556
 40
0.5555555555555556
 40
0.6666666666666666
 40
0.6666666666666666
 40
0.6666666666666666
 40
0.6666666666666666
 40
0.7777777777777778
 40
0.7777777777777778
 40
0.7777777777777778
 40
0.7777777777777778
 40
1.0
 40
1.0
 40
1.0
 40
1.0
 10
-7.854
 20
20.9403
 30
0.0
 10
-7.8464
 20
21.1008
 30
0.0
 10
-7.8113
 20
21.253
 30
0.0
 10
-7.7256
 20
21.3913
 30
0.0
 10
-7.7256
 20
21.3913
 30
0.0
 10
-7.655
 20
21.5033
 30
0.0
 10
-7.5618
 20
21.5995
 30
0.0
 10
-7.4498
 20
21.6672
 30
0.0
 10
-7.4498
 20
21.6672
 30
0.0
 10
-7.3599
 20
21.7244
 30
0.0
 10
-7.2613
 20
21.7629
 30
0.0
 10
-7.1551
 20
21.7809
 30
0.0
 10
-7.1551
 20
21.7809
 30
0.0
 10
-7.0519
 20
21.8014
 30
0.0
 10
-6.9457
 20
21.8014
 30
0.0
 10
-6.8425
 20
21.7809
 30
0.0
 10
-6.8425
 20
21.7809
 30
0.0
 10
-6.2615
 20
21.6714
 30
0.0
 10
-5.9606
 20
20.9947
 30
0.0
 10
-6.2732
 20
20.4906
 30
0.0
 10
-6.2732
 20
20.4906
 30
0.0
 10
-6.3426
 20
20.3798
 30
0.0
 10
-6.4383
 20
20.2825
 30
0.0
 10
-6.5491
 20
20.2147
 30
0.0
 10
-6.5491
 20
20.2147
 30
0.0
 10
-6.6874
 20
20.1291
 30
0.0
 10
-6.8396
 20
20.094
 30
0.0
 10
-6.9988
 20
20.0864
 30
0.0
 10
-6.9988
 20
20.0864
 30
0.0
 10
-7.4807
 20
20.1086
 30
0.0
 10
-7.8318
 20
20.4597
 30
0.0
 10
-7.854
 20
20.9403
 30
0.0
  0
SPLINE
  5
7C
330
1F
100
AcDbEntity
  8
Ilustrace
 62
   250
370
    30
100
AcDbSpline
210
0.0
220
0.0
230
1.0
 70
    11
 71
     3
 72
    36
 73
    32
 74
     0
 42
0.0000000001
 43
0.0000000001
 40
0.0
 40
0.0
 40
0.0
 40
0.0
 40
0.1111111111111111
 40
0.1111111111111111
 40
0.1111111111111111
 40
0.1111111111111111
 40
0.2222222222222222
 40
0.2222222222222222
 40
0.2222222222222222
 40
0.2222222222222222
 40
0.3333333333333333
 40
0.3333333333333333
 40
0.3333333333333333
 40
0.3333333333333333
 40
0.4444444444444444
 40
0.4444444444444444
 40
0.4444444444444444
 40
0.4444444444444444
 40
0.5555555555555556
 40
0.5555555555555556
 40
0.5555555555555556
 40
0.5555555555555556
 40
0.6666666666666666
 40
0.6666666666666666
 40
0.6666666666666666
 40
0.6666666666666666
 40
0.7777777777777778
 40
0.7777777777777778
 40
0.7777777777777778
 40
0.7777777777777778
 40
1.0
 40
1.0
 40
1.0
 40
1.0
 10
-7.854
 20
-13.6849
 30
0.0
 10
-7.8464
 20
-13.8442
 30
0.0
 10
-7.8113
 20
-13.9959
 30
0.0
 10
-7.7256
 20
-14.1346
 30
0.0
 10
-7.7256
 20
-14.1346
 30
0.0
 10
-7.655
 20
-14.2454
 30
0.0
 10
-7.5618
 20
-14.3411
 30
0.0
 10
-7.4498
 20
-14.4105
 30
0.0
 10
-7.4498
 20
-14.4105
 30
0.0
 10
-7.3365
 20
-14.4811
 30
0.0
 10
-7.2082
 20
-14.5238
 30
0.0
 10
-7.077
 20
-14.5359
 30
0.0
 10
-7.077
 20
-14.5359
 30
0.0
 10
-6.9737
 20
-14.5459
 30
0.0
 10
-6.8676
 20
-14.5359
 30
0.0
 10
-6.7656
 20
-14.5062
 30
0.0
 10
-6.7656
 20
-14.5062
 30
0.0
 10
-6.6623
 20
-14.4782
 30
0.0
 10
-6.5666
 20
-14.4297
 30
0.0
 10
-6.4826
 20
-14.3675
 30
0.0
 10
-6.4826
 20
-14.3675
 30
0.0
 10
-6.0136
 20
-14.0109
 30
0.0
 10
-6.0463
 20
-13.269
 30
0.0
 10
-6.5491
 20
-12.9581
 30
0.0
 10
-6.5491
 20
-12.9581
 30
0.0
 10
-6.6874
 20
-12.8724
 30
0.0
 10
-6.8396
 20
-12.8373
 30
0.0
 10
-6.9988
 20
-12.8298
 30
0.0
 10
-6.9988
 20
-12.8298
 30
0.0
 10
-7.4807
 20
-12.8519
 30
0.0
 10
-7.8318
 20
-13.203
 30
0.0
 10
-7.854
 20
-13.6849
 30
0.0
  0
SPLINE
  5
7D
330
1F
100
AcDbEntity
  8
Ilustrace
 62
   250
370
    30
100
AcDbSpline
210
0.0
220
0.0
230
1.0
 70
    11
 71
     3
 72
    40
 73
    36
 74
     0
 42
0.0000000001
 43
0.0000000001
 40
0.0
 40
0.0
 40
0.0
 40
0.0
 40
0.1
 40
0.1
 40
0.1
 40
0.1
 40
0.2
 40
0.2
 40
0.2
 40
0.2
 40
0.3
 40
0.3
 40
0.3
 40
0.3
 40
0.4
 40
0.4
 40
0.4
 40
0.4
 40
0.5
 40
0.5
 40
0.5
 40
0.5
 40
0.6
 40
0.6
 40
0.6
 40
0.6
 40
0.7
 40
0.7
 40
0.7
 40
0.7
 40
0.8
 40
0.8
 40
0.8
 40
0.8
 40
1.0
 40
1.0
 40
1.0
 40
1.0
 10
-7.9957
 20
16.6127
 30
0.0
 10
-7.9881
 20
16.7941
 30
0.0
 10
-7.9497
 20
16.9651
 30
0.0
 10
-7.854
 20
17.1243
 30
0.0
 10
-7.854
 20
17.1243
 30
0.0
 10
-7.7787
 20
17.2509
 30
0.0
 10
-7.6726
 20
17.3617
 30
0.0
 10
-7.5488
 20
17.4457
 30
0.0
 10
-7.5488
 20
17.4457
 30
0.0
 10
-7.4498
 20
17.5105
 30
0.0
 10
-7.3365
 20
17.5594
 30
0.0
 10
-7.2199
 20
17.5841
 30
0.0
 10
-7.2199
 20
17.5841
 30
0.0
 10
-6.5712
 20
17.7333
 30
0.0
 10
-5.9459
 20
17.1878
 30
0.0
 10
-6.0065
 20
16.5241
 30
0.0
 10
-6.0065
 20
16.5241
 30
0.0
 10
-6.0166
 20
16.4046
 30
0.0
 10
-6.0492
 20
16.2867
 30
0.0
 10
-6.1023
 20
16.1805
 30
0.0
 10
-6.1023
 20
16.1805
 30
0.0
 10
-6.1658
 20
16.0464
 30
0.0
 10
-6.2615
 20
15.9256
 30
0.0
 10
-6.3781
 20
15.834
 30
0.0
 10
-6.3781
 20
15.834
 30
0.0
 10
-6.5461
 20
15.6982
 30
0.0
 10
-6.7405
 20
15.6351
 30
0.0
 10
-6.9528
 20
15.6171
 30
0.0
 10
-6.9528
 20
15.6171
 30
0.0
 10
-7.077
 20
15.6171
 30
0.0
 10
-7.1902
 20
15.6276
 30
0.0
 10
-7.3068
 20
15.666
 30
0.0
 10
-7.3068
 20
15.666
 30
0.0
 10
-7.7256
 20
15.8014
 30
0.0
 10
-7.9777
 20
16.1835
 30
0.0
 10
-7.9957
 20
16.6127
 30
0.0
  0
SPLINE
  5
7E
330
1F
100
AcDbEntity
  8
Ilustrace
 62
   250
370
    30
100
AcDbSpline
210
0.0
220
0.0
230
1.0
 70
    11
 71
     3
 72
    40
 73
    36
 74
     0
 42
0.0000000001
 43
0.0000000001
 40
0.0
 40
0.0
 40
0.0
 40
0.0
 40
0.1
 40
0.1
 40
0.1
 40
0.1
 40
0.2
 40
0.2
 40
0.2
 40
0.2
 40
0.3
 40
0.3
 40
0.3
 40
0.3
 40
0.4
 40
0.4
 40
0.4
 40
0.4
 40
0.5
 40
0.5
 40
0.5
 40
0.5
 40
0.6
 40
0.6
 40
0.6
 40
0.6
 40
0.7
 40
0.7
 40
0.7
 40
0.7
 40
0.8
 40
0.8
 40
0.8
 40
0.8
 40
1.0
 40
1.0
 40
1.0
 40
1.0
 10
-7.9957
 20
12.2855
 30
0.0
 10
-7.9881
 20
12.1041
 30
0.0
 10
-7.9497
 20
11.9315
 30
0.0
 10
-7.854
 20
11.7752
 30
0.0
 10
-7.854
 20
11.7752
 30
0.0
 10
-7.7934
 20
11.6719
 30
0.0
 10
-7.7123
 20
11.5804
 30
0.0
 10
-7.6195
 20
11.5051
 30
0.0
 10
-7.6195
 20
11.5051
 30
0.0
 10
-7.0711
 20
11.0659
 30
0.0
 10
-6.226
 20
11.343
 30
0.0
 10
-6.0387
 20
12.0201
 30
0.0
 10
-6.0387
 20
12.0201
 30
0.0
 10
-6.0065
 20
12.1333
 30
0.0
 10
-5.9961
 20
12.2546
 30
0.0
 10
-6.0065
 20
12.3737
 30
0.0
 10
-6.0065
 20
12.3737
 30
0.0
 10
-6.0182
 20
12.5229
 30
0.0
 10
-6.0667
 20
12.6688
 30
0.0
 10
-6.142
 20
12.7954
 30
0.0
 10
-6.142
 20
12.7954
 30
0.0
 10
-6.2189
 20
12.9237
 30
0.0
 10
-6.3263
 20
13.0345
 30
0.0
 10
-6.45
 20
13.1185
 30
0.0
 10
-6.45
 20
13.1185
 30
0.0
 10
-6.6302
 20
13.2364
 30
0.0
 10
-6.8291
 20
13.2819
 30
0.0
 10
-7.0444
 20
13.2819
 30
0.0
 10
-7.0444
 20
13.2819
 30
0.0
 10
-7.1651
 20
13.2702
 30
0.0
 10
-7.2788
 20
13.2497
 30
0.0
 10
-7.3896
 20
13.2008
 30
0.0
 10
-7.3896
 20
13.2008
 30
0.0
 10
-7.7654
 20
13.0403
 30
0.0
 10
-7.9777
 20
12.6834
 30
0.0
 10
-7.9957
 20
12.2855
 30
0.0
  0
SPLINE
  5
7F
330
1F
100
AcDbEntity
  8
Ilustrace
 62
   250
370
    30
100
AcDbSpline
210
0.0
220
0.0
230
1.0
 70
    11
 71
     3
 72
    40
 73
    36
 74
     0
 42
0.0000000001
 43
0.0000000001
 40
0.0
 40
0.0
 40
0.0
 40
0.0
 40
0.1
 40
0.1
 40
0.1
 40
0.1
 40
0.2
 40
0.2
 40
0.2
 40
0.2
 40
0.3
 40
0.3
 40
0.3
 40
0.3
 40
0.4
 40
0.4
 40
0.4
 40
0.4
 40
0.5
 40
0.5
 40
0.5
 40
0.5
 40
0.6
 40
0.6
 40
0.6
 40
0.6
 40
0.7
 40
0.7
 40
0.7
 40
0.7
 40
0.8
 40
0.8
 40
0.8
 40
0.8
 40
1.0
 40
1.0
 40
1.0
 40
1.0
 10
-7.9957
 20
-9.3573
 30
0.0
 10
-7.9881
 20
-9.173
 30
0.0
 10
-7.9497
 20
-9.002
 30
0.0
 10
-7.854
 20
-8.8457
 30
0.0
 10
-7.854
 20
-8.8457
 30
0.0
 10
-7.7787
 20
-8.7157
 30
0.0
 10
-7.6726
 20
-8.6054
 30
0.0
 10
-7.5488
 20
-8.5243
 30
0.0
 10
-7.5488
 20
-8.5243
 30
0.0
 10
-7.4498
 20
-8.4595
 30
0.0
 10
-7.3365
 20
-8.4106
 30
0.0
 10
-7.2199
 20
-8.3826
 30
0.0
 10
-7.2199
 20
-8.3826
 30
0.0
 10
-6.5712
 20
-8.2367
 30
0.0
 10
-5.9459
 20
-8.7822
 30
0.0
 10
-6.0065
 20
-9.4459
 30
0.0
 10
-6.0065
 20
-9.4459
 30
0.0
 10
-6.0166
 20
-9.5654
 30
0.0
 10
-6.0492
 20
-9.6804
 30
0.0
 10
-6.1023
 20
-9.7895
 30
0.0
 10
-6.1023
 20
-9.7895
 30
0.0
 10
-6.1658
 20
-9.9236
 30
0.0
 10
-6.2615
 20
-10.0415
 30
0.0
 10
-6.3781
 20
-10.136
 30
0.0
 10
-6.3781
 20
-10.136
 30
0.0
 10
-6.5461
 20
-10.2714
 30
0.0
 10
-6.7405
 20
-10.332
 30
0.0
 10
-6.9528
 20
-10.3525
 30
0.0
 10
-6.9528
 20
-10.3525
 30
0.0
 10
-7.385
 20
-10.3525
 30
0.0
 10
-7.7787
 20
-10.1197
 30
0.0
 10
-7.9321
 20
-9.7067
 30
0.0
 10
-7.9321
 20
-9.7067
 30
0.0
 10
-7.9748
 20
-9.5934
 30
0.0
 10
-7.9911
 20
-9.4768
 30
0.0
 10
-7.9957
 20
-9.3573
 30
0.0
  0
SPLINE
  5
80
330
1F
100
AcDbEntity
  8
Ilustrace
 62
   250
370
    30
100
AcDbSpline
210
0.0
220
0.0
230
1.0
 70
    11
 71
     3
 72
    40
 73
    36
 74
     0
 42
0.0000000001
 43
0.0000000001
 40
0.0
 40
0.0
 40
0.0
 40
0.0
 40
0.1
 40
0.1
 40
0.1
 40
0.1
 40
0.2
 40
0.2
 40
0.2
 40
0.2
 40
0.3
 40
0.3
 40
0.3
 40
0.3
 40
0.4
 40
0.4
 40
0.4
 40
0.4
 40
0.5
 40
0.5
 40
0.5
 40
0.5
 40
0.6
 40
0.6
 40
0.6
 40
0.6
 40
0.7
 40
0.7
 40
0.7
 40
0.7
 40
0.8
 40
0.8
 40
0.8
 40
0.8
 40
1.0
 40
1.0
 40
1.0
 40
1.0
 10
-8.1369
 20
-5.0284
 30
0.0
 10
-8.1298
 20
-5.2315
 30
0.0
 10
-8.0868
 20
-5.4188
 30
0.0
 10
-7.9852
 20
-5.5989
 30
0.0
 10
-7.9852
 20
-5.5989
 30
0.0
 10
-7.9024
 20
-5.7419
 30
0.0
 10
-7.7892
 20
-5.8656
 30
0.0
 10
-7.6521
 20
-5.9617
 30
0.0
 10
-7.6521
 20
-5.9617
 30
0.0
 10
-7.5162
 20
-6.0574
 30
0.0
 10
-7.3616
 20
-6.121
 30
0.0
 10
-7.1978
 20
-6.149
 30
0.0
 10
-7.1978
 20
-6.149
 30
0.0
 10
-6.4295
 20
-6.2844
 30
0.0
 10
-5.7411
 20
-5.596
 30
0.0
 10
-5.8766
 20
-4.8307
 30
0.0
 10
-5.8766
 20
-4.8307
 30
0.0
 10
-5.9004
 20
-4.6995
 30
0.0
 10
-5.9459
 20
-4.5724
 30
0.0
 10
-6.0107
 20
-4.4574
 30
0.0
 10
-6.0107
 20
-4.4574
 30
0.0
 10
-6.0947
 20
-4.3133
 30
0.0
 10
-6.2084
 20
-4.1891
 30
0.0
 10
-6.3438
 20
-4.0934
 30
0.0
 10
-6.3438
 20
-4.0934
 30
0.0
 10
-6.5415
 20
-3.9576
 30
0.0
 10
-6.7614
 20
-3.8986
 30
0.0
 10
-6.9988
 20
-3.8886
 30
0.0
 10
-6.9988
 20
-3.8886
 30
0.0
 10
-7.1342
 20
-3.8944
 30
0.0
 10
-7.2613
 20
-3.912
 30
0.0
 10
-7.3896
 20
-3.9576
 30
0.0
 10
-7.3896
 20
-3.9576
 30
0.0
 10
-7.8494
 20
-4.126
 30
0.0
 10
-8.1164
 20
-4.5507
 30
0.0
 10
-8.1369
 20
-5.0284
 30
0.0
  0
SPLINE
  5
81
330
1F
100
AcDbEntity
  8
Ilustrace
 62
   250
370
    30
100
AcDbSpline
210
0.0
220
0.0
230
1.0
 70
    11
 71
     3
 72
    40
 73
    36
 74
     0
 42
0.0000000001
 43
0.0000000001
 40
0.0
 40
0.0
 40
0.0
 40
0.0
 40
0.1
 40
0.1
 40
0.1
 40
0.1
 40
0.2
 40
0.2
 40
0.2
 40
0.2
 40
0.3
 40
0.3
 40
0.3
 40
0.3
 40
0.4
 40
0.4
 40
0.4
 40
0.4
 40
0.5
 40
0.5
 40
0.5
 40
0.5
 40
0.6
 40
0.6
 40
0.6
 40
0.6
 40
0.7
 40
0.7
 40
0.7
 40
0.7
 40
0.8
 40
0.8
 40
0.8
 40
0.8
 40
1.0
 40
1.0
 40
1.0
 40
1.0
 10
-8.1398
 20
3.6302
 30
0.0
 10
-8.1298
 20
3.8647
 30
0.0
 10
-8.0692
 20
4.0871
 30
0.0
 10
-7.9321
 20
4.2818
 30
0.0
 10
-7.9321
 20
4.2818
 30
0.0
 10
-7.8364
 20
4.4173
 30
0.0
 10
-7.7123
 20
4.5339
 30
0.0
 10
-7.5693
 20
4.615
 30
0.0
 10
-7.5693
 20
4.615
 30
0.0
 10
-7.4527
 20
4.6827
 30
0.0
 10
-7.3261
 20
4.7286
 30
0.0
 10
-7.1978
 20
4.7508
 30
0.0
 10
-7.1978
 20
4.7508
 30
0.0
 10
-6.4295
 20
4.885
 30
0.0
 10
-5.7411
 20
4.1978
 30
0.0
 10
-5.8766
 20
3.4309
 30
0.0
 10
-5.8766
 20
3.4309
 30
0.0
 10
-5.9046
 20
3.2687
 30
0.0
 10
-5.971
 20
3.1094
 30
0.0
 10
-6.0667
 20
2.974
 30
0.0
 10
-6.0667
 20
2.974
 30
0.0
 10
-6.1595
 20
2.8398
 30
0.0
 10
-6.2866
 20
2.7262
 30
0.0
 10
-6.4283
 20
2.6405
 30
0.0
 10
-6.4283
 20
2.6405
 30
0.0
 10
-6.6063
 20
2.5389
 30
0.0
 10
-6.7965
 20
2.4992
 30
0.0
 10
-6.9988
 20
2.4888
 30
0.0
 10
-6.9988
 20
2.4888
 30
0.0
 10
-7.4749
 20
2.5092
 30
0.0
 10
-7.9024
 20
2.7792
 30
0.0
 10
-8.0692
 20
3.2394
 30
0.0
 10
-8.0692
 20
3.2394
 30
0.0
 10
-8.1164
 20
3.3677
 30
0.0
 10
-8.1327
 20
3.4927
 30
0.0
 10
-8.1398
 20
3.6302
 30
0.0
  0
SPLINE
  5
82
330
1F
100
AcDbEntity
  8
Ilustrace
 62
   250
370
    30
100
AcDbSpline
210
0.0
220
0.0
230
1.0
 70
    11
 71
     3
 72
    40
 73
    36
 74
     0
 42
0.0000000001
 43
0.0000000001
 40
0.0
 40
0.0
 40
0.0
 40
0.0
 40
0.1
 40
0.1
 40
0.1
 40
0.1
 40
0.2
 40
0.2
 40
0.2
 40
0.2
 40
0.3
 40
0.3
 40
0.3
 40
0.3
 40
0.4
 40
0.4
 40
0.4
 40
0.4
 40
0.5
 40
0.5
 40
0.5
 40
0.5
 40
0.6
 40
0.6
 40
0.6
 40
0.6
 40
0.7
 40
0.7
 40
0.7
 40
0.7
 40
0.8
 40
0.8
 40
0.8
 40
0.8
 40
1.0
 40
1.0
 40
1.0
 40
1.0
 10
-8.1398
 20
-0.7008
 30
0.0
 10
-8.1298
 20
-0.9348
 30
0.0
 10
-8.0692
 20
-1.1576
 30
0.0
 10
-7.9321
 20
-1.3536
 30
0.0
 10
-7.9321
 20
-1.3536
 30
0.0
 10
-7.8364
 20
-1.4878
 30
0.0
 10
-7.7123
 20
-1.6044
 30
0.0
 10
-7.5693
 20
-1.6872
 30
0.0
 10
-7.5693
 20
-1.6872
 30
0.0
 10
-7.4247
 20
-1.7682
 30
0.0
 10
-7.2642
 20
-1.8213
 30
0.0
 10
-7.0991
 20
-1.836
 30
0.0
 10
-7.0991
 20
-1.836
 30
0.0
 10
-6.9649
 20
-1.8464
 30
0.0
 10
-6.832
 20
-1.836
 30
0.0
 10
-6.7054
 20
-1.8004
 30
0.0
 10
-6.7054
 20
-1.8004
 30
0.0
 10
-5.9535
 20
-1.5986
 30
0.0
 10
-5.6199
 20
-0.6828
 30
0.0
 10
-6.0667
 20
-0.0458
 30
0.0
 10
-6.0667
 20
-0.0458
 30
0.0
 10
-6.1595
 20
0.0896
 30
0.0
 10
-6.2866
 20
0.2033
 30
0.0
 10
-6.4283
 20
0.2873
 30
0.0
 10
-6.4283
 20
0.2873
 30
0.0
 10
-6.6063
 20
0.3906
 30
0.0
 10
-6.7965
 20
0.4303
 30
0.0
 10
-6.9988
 20
0.4407
 30
0.0
 10
-6.9988
 20
0.4407
 30
0.0
 10
-7.4749
 20
0.4186
 30
0.0
 10
-7.9024
 20
0.1502
 30
0.0
 10
-8.0692
 20
-0.3112
 30
0.0
 10
-8.0692
 20
-0.3112
 30
0.0
 10
-8.1164
 20
-0.4383
 30
0.0
 10
-8.1327
 20
-0.5662
 30
0.0
 10
-8.1398
 20
-0.7008
 30
0.0
  0
SPLINE
  5
83
330
1F
100
AcDbEntity
  8
Ilustrace
 62
   250
370
    30
100
AcDbSpline
210
0.0
220
0.0
230
1.0
 70
    11
 71
     3
 72
    40
 73
    36
 74
     0
 42
0.0000000001
 43
0.0000000001
 40
0.0
 40
0.0
 40
0.0
 40
0.0
 40
0.1
 40
0.1
 40
0.1
 40
0.1
 40
0.2
 40
0.2
 40
0.2
 40
0.2
 40
0.3
 40
0.3
 40
0.3
 40
0.3
 40
0.4
 40
0.4
 40
0.4
 40
0.4
 40
0.5
 40
0.5
 40
0.5
 40
0.5
 40
0.6
 40
0.6
 40
0.6
 40
0.6
 40
0.7
 40
0.7
 40
0.7
 40
0.7
 40
0.8
 40
0.8
 40
0.8
 40
0.8
 40
1.0
 40
1.0
 40
1.0
 40
1.0
 10
-8.1398
 20
7.9579
 30
0.0
 10
-8.1298
 20
7.7204
 30
0.0
 10
-8.0692
 20
7.5006
 30
0.0
 10
-7.9321
 20
7.3029
 30
0.0
 10
-7.9321
 20
7.3029
 30
0.0
 10
-7.8364
 20
7.1675
 30
0.0
 10
-7.7123
 20
7.0538
 30
0.0
 10
-7.5693
 20
6.9698
 30
0.0
 10
-7.5693
 20
6.9698
 30
0.0
 10
-7.4527
 20
6.905
 30
0.0
 10
-7.3261
 20
6.8561
 30
0.0
 10
-7.1978
 20
6.8339
 30
0.0
 10
-7.1978
 20
6.8339
 30
0.0
 10
-6.4295
 20
6.6998
 30
0.0
 10
-5.7411
 20
7.3898
 30
0.0
 10
-5.8766
 20
8.1539
 30
0.0
 10
-5.8766
 20
8.1539
 30
0.0
 10
-5.9046
 20
8.319
 30
0.0
 10
-5.971
 20
8.4753
 30
0.0
 10
-6.0667
 20
8.6107
 30
0.0
 10
-6.0667
 20
8.6107
 30
0.0
 10
-6.1595
 20
8.7449
 30
0.0
 10
-6.2866
 20
8.8615
 30
0.0
 10
-6.4283
 20
8.9426
 30
0.0
 10
-6.4283
 20
8.9426
 30
0.0
 10
-6.6063
 20
9.0458
 30
0.0
 10
-6.7965
 20
9.0885
 30
0.0
 10
-6.9988
 20
9.096
 30
0.0
 10
-6.9988
 20
9.096
 30
0.0
 10
-7.1342
 20
9.0914
 30
0.0
 10
-7.2613
 20
9.0738
 30
0.0
 10
-7.3896
 20
9.0283
 30
0.0
 10
-7.3896
 20
9.0283
 30
0.0
 10
-7.8494
 20
8.8615
 30
0.0
 10
-8.1164
 20
8.4327
 30
0.0
 10
-8.1398
 20
7.9579
 30
0.0
  0
SPLINE
  5
84
330
1F
100
AcDbEntity
  8
Ilustrace
 62
   250
370
    30
100
AcDbSpline
210
0.0
220
0.0
230
1.0
 70
    11
 71
     3
 72
    36
 73
    32
 74
     0
 42
0.0000000001
 43
0.0000000001
 40
0.0
 40
0.0
 40
0.0
 40
0.0
 40
0.1111111111111111
 40
0.1111111111111111
 40
0.1111111111111111
 40
0.1111111111111111
 40
0.2222222222222222
 40
0.2222222222222222
 40
0.2222222222222222
 40
0.2222222222222222
 40
0.3333333333333333
 40
0.3333333333333333
 40
0.3333333333333333
 40
0.3333333333333333
 40
0.4444444444444444
 40
0.4444444444444444
 40
0.4444444444444444
 40
0.4444444444444444
 40
0.5555555555555556
 40
0.5555555555555556
 40
0.5555555555555556
 40
0.5555555555555556
 40
0.6666666666666666
 40
0.6666666666666666
 40
0.6666666666666666
 40
0.6666666666666666
 40
0.7777777777777778
 40
0.7777777777777778
 40
0.7777777777777778
 40
0.7777777777777778
 40
1.0
 40
1.0
 40
1.0
 40
1.0
 10
-12.1816
 20
-13.6849
 30
0.0
 10
-12.1741
 20
-13.8442
 30
0.0
 10
-12.139
 20
-13.9959
 30
0.0
 10
-12.0533
 20
-14.1346
 30
0.0
 10
-12.0533
 20
-14.1346
 30
0.0
 10
-11.9973
 20
-14.2233
 30
0.0
 10
-11.9266
 20
-14.3043
 30
0.0
 10
-11.841
 20
-14.3675
 30
0.0
 10
-11.841
 20
-14.3675
 30
0.0
 10
-11.7569
 20
-14.4297
 30
0.0
 10
-11.6612
 20
-14.4782
 30
0.0
 10
-11.5609
 20
-14.5062
 30
0.0
 10
-11.5609
 20
-14.5062
 30
0.0
 10
-10.9933
 20
-14.6671
 30
0.0
 10
-10.4224
 20
-14.1923
 30
0.0
 10
-10.4771
 20
-13.6068
 30
0.0
 10
-10.4771
 20
-13.6068
 30
0.0
 10
-10.4872
 20
-13.4755
 30
0.0
 10
-10.5302
 20
-13.3472
 30
0.0
 10
-10.6008
 20
-13.2339
 30
0.0
 10
-10.6008
 20
-13.2339
 30
0.0
 10
-10.6686
 20
-13.1215
 30
0.0
 10
-10.7659
 20
-13.0258
 30
0.0
 10
-10.8767
 20
-12.9581
 30
0.0
 10
-10.8767
 20
-12.9581
 30
0.0
 10
-11.015
 20
-12.8724
 30
0.0
 10
-11.1643
 20
-12.8373
 30
0.0
 10
-11.3264
 20
-12.8298
 30
0.0
 10
-11.3264
 20
-12.8298
 30
0.0
 10
-11.8083
 20
-12.8519
 30
0.0
 10
-12.1594
 20
-13.203
 30
0.0
 10
-12.1816
 20
-13.6849
 30
0.0
  0
SPLINE
  5
85
330
1F
100
AcDbEntity
  8
Ilustrace
 62
   250
370
    30
100
AcDbSpline
210
0.0
220
0.0
230
1.0
 70
    11
 71
     3
 72
    36
 73
    32
 74
     0
 42
0.0000000001
 43
0.0000000001
 40
0.0
 40
0.0
 40
0.0
 40
0.0
 40
0.1111111111111111
 40
0.1111111111111111
 40
0.1111111111111111
 40
0.1111111111111111
 40
0.2222222222222222
 40
0.2222222222222222
 40
0.2222222222222222
 40
0.2222222222222222
 40
0.3333333333333333
 40
0.3333333333333333
 40
0.3333333333333333
 40
0.3333333333333333
 40
0.4444444444444444
 40
0.4444444444444444
 40
0.4444444444444444
 40
0.4444444444444444
 40
0.5555555555555556
 40
0.5555555555555556
 40
0.5555555555555556
 40
0.5555555555555556
 40
0.6666666666666666
 40
0.6666666666666666
 40
0.6666666666666666
 40
0.6666666666666666
 40
0.7777777777777778
 40
0.7777777777777778
 40
0.7777777777777778
 40
0.7777777777777778
 40
1.0
 40
1.0
 40
1.0
 40
1.0
 10
-12.1816
 20
16.6127
 30
0.0
 10
-12.1741
 20
16.4505
 30
0.0
 10
-12.139
 20
16.3013
 30
0.0
 10
-12.0533
 20
16.163
 30
0.0
 10
-12.0533
 20
16.163
 30
0.0
 10
-11.9973
 20
16.0744
 30
0.0
 10
-11.9266
 20
15.9933
 30
0.0
 10
-11.841
 20
15.9297
 30
0.0
 10
-11.841
 20
15.9297
 30
0.0
 10
-11.7569
 20
15.8679
 30
0.0
 10
-11.6612
 20
15.8194
 30
0.0
 10
-11.5609
 20
15.7914
 30
0.0
 10
-11.5609
 20
15.7914
 30
0.0
 10
-10.9933
 20
15.6305
 30
0.0
 10
-10.4224
 20
16.1024
 30
0.0
 10
-10.4771
 20
16.6909
 30
0.0
 10
-10.4771
 20
16.6909
 30
0.0
 10
-10.4872
 20
16.8221
 30
0.0
 10
-10.5302
 20
16.9504
 30
0.0
 10
-10.6008
 20
17.0637
 30
0.0
 10
-10.6008
 20
17.0637
 30
0.0
 10
-10.6686
 20
17.1757
 30
0.0
 10
-10.7659
 20
17.2689
 30
0.0
 10
-10.8767
 20
17.3396
 30
0.0
 10
-10.8767
 20
17.3396
 30
0.0
 10
-11.015
 20
17.4248
 30
0.0
 10
-11.1643
 20
17.4603
 30
0.0
 10
-11.3264
 20
17.4679
 30
0.0
 10
-11.3264
 20
17.4679
 30
0.0
 10
-11.8083
 20
17.4457
 30
0.0
 10
-12.1594
 20
17.0946
 30
0.0
 10
-12.1816
 20
16.6127
 30
0.0
  0
SPLINE
  5
86
330
1F
100
AcDbEntity
  8
Ilustrace
 62
   250
370
    30
100
AcDbSpline
210
0.0
220
0.0
230
1.0
 70
    11
 71
     3
 72
    40
 73
    36
 74
     0
 42
0.0000000001
 43
0.0000000001
 40
0.0
 40
0.0
 40
0.0
 40
0.0
 40
0.1
 40
0.1
 40
0.1
 40
0.1
 40
0.2
 40
0.2
 40
0.2
 40
0.2
 40
0.3
 40
0.3
 40
0.3
 40
0.3
 40
0.4
 40
0.4
 40
0.4
 40
0.4
 40
0.5
 40
0.5
 40
0.5
 40
0.5
 40
0.6
 40
0.6
 40
0.6
 40
0.6
 40
0.7
 40
0.7
 40
0.7
 40
0.7
 40
0.8
 40
0.8
 40
0.8
 40
0.8
 40
1.0
 40
1.0
 40
1.0
 40
1.0
 10
-12.3233
 20
-9.3573
 30
0.0
 10
-12.3128
 20
-9.1437
 30
0.0
 10
-12.2598
 20
-8.946
 30
0.0
 10
-12.1344
 20
-8.7688
 30
0.0
 10
-12.1344
 20
-8.7688
 30
0.0
 10
-12.0458
 20
-8.648
 30
0.0
 10
-11.9296
 20
-8.5493
 30
0.0
 10
-11.7983
 20
-8.477
 30
0.0
 10
-11.7983
 20
-8.477
 30
0.0
 10
-11.6671
 20
-8.4064
 30
0.0
 10
-11.5208
 20
-8.368
 30
0.0
 10
-11.372
 20
-8.3604
 30
0.0
 10
-11.372
 20
-8.3604
 30
0.0
 10
-10.707
 20
-8.3295
 30
0.0
 10
-10.1896
 20
-8.9782
 30
0.0
 10
-10.3664
 20
-9.6227
 30
0.0
 10
-10.3664
 20
-9.6227
 30
0.0
 10
-10.3973
 20
-9.7364
 30
0.0
 10
-10.4504
 20
-9.8455
 30
0.0
 10
-10.5198
 20
-9.9412
 30
0.0
 10
-10.5198
 20
-9.9412
 30
0.0
 10
-10.5891
 20
-10.0398
 30
0.0
 10
-10.679
 20
-10.1226
 30
0.0
 10
-10.7776
 20
-10.189
 30
0.0
 10
-10.7776
 20
-10.189
 30
0.0
 10
-10.9298
 20
-10.2893
 30
0.0
 10
-11.1007
 20
-10.3349
 30
0.0
 10
-11.2805
 20
-10.3525
 30
0.0
 10
-11.2805
 20
-10.3525
 30
0.0
 10
-11.4046
 20
-10.3525
 30
0.0
 10
-11.5179
 20
-10.3424
 30
0.0
 10
-11.6361
 20
-10.304
 30
0.0
 10
-11.6361
 20
-10.304
 30
0.0
 10
-12.0533
 20
-10.1681
 30
0.0
 10
-12.3053
 20
-9.7849
 30
0.0
 10
-12.3233
 20
-9.3573
 30
0.0
  0
SPLINE
  5
87
330
1F
100
AcDbEntity
  8
Ilustrace
 62
   250
370
    30
100
AcDbSpline
210
0.0
220
0.0
230
1.0
 70
    11
 71
     3
 72
    40
 73
    36
 74
     0
 42
0.0000000001
 43
0.0000000001
 40
0.0
 40
0.0
 40
0.0
 40
0.0
 40
0.1
 40
0.1
 40
0.1
 40
0.1
 40
0.2
 40
0.2
 40
0.2
 40
0.2
 40
0.3
 40
0.3
 40
0.3
 40
0.3
 40
0.4
 40
0.4
 40
0.4
 40
0.4
 40
0.5
 40
0.5
 40
0.5
 40
0.5
 40
0.6
 40
0.6
 40
0.6
 40
0.6
 40
0.7
 40
0.7
 40
0.7
 40
0.7
 40
0.8
 40
0.8
 40
0.8
 40
0.8
 40
1.0
 40
1.0
 40
1.0
 40
1.0
 10
-12.3233
 20
7.9579
 30
0.0
 10
-12.3128
 20
7.7426
 30
0.0
 10
-12.2598
 20
7.5462
 30
0.0
 10
-12.1344
 20
7.3694
 30
0.0
 10
-12.1344
 20
7.3694
 30
0.0
 10
-12.0458
 20
7.2498
 30
0.0
 10
-11.9296
 20
7.1495
 30
0.0
 10
-11.7983
 20
7.0789
 30
0.0
 10
-11.7983
 20
7.0789
 30
0.0
 10
-11.6671
 20
7.0082
 30
0.0
 10
-11.5208
 20
6.9681
 30
0.0
 10
-11.372
 20
6.9593
 30
0.0
 10
-11.372
 20
6.9593
 30
0.0
 10
-11.2525
 20
6.9552
 30
0.0
 10
-11.1317
 20
6.9727
 30
0.0
 10
-11.0184
 20
7.0082
 30
0.0
 10
-11.0184
 20
7.0082
 30
0.0
 10
-10.3488
 20
7.2247
 30
0.0
 10
-10.1143
 20
8.0828
 30
0.0
 10
-10.5758
 20
8.6136
 30
0.0
 10
-10.5758
 20
8.6136
 30
0.0
 10
-10.6539
 20
8.7023
 30
0.0
 10
-10.7496
 20
8.7775
 30
0.0
 10
-10.8529
 20
8.8335
 30
0.0
 10
-10.8529
 20
8.8335
 30
0.0
 10
-11.015
 20
8.9221
 30
0.0
 10
-11.1893
 20
8.953
 30
0.0
 10
-11.372
 20
8.953
 30
0.0
 10
-11.372
 20
8.953
 30
0.0
 10
-11.7674
 20
8.9175
 30
0.0
 10
-12.1168
 20
8.6889
 30
0.0
 10
-12.2598
 20
8.3085
 30
0.0
 10
-12.2598
 20
8.3085
 30
0.0
 10
-12.3024
 20
8.1923
 30
0.0
 10
-12.3187
 20
8.0786
 30
0.0
 10
-12.3233
 20
7.9579
 30
0.0
  0
SPLINE
  5
88
330
1F
100
AcDbEntity
  8
Ilustrace
 62
   250
370
    30
100
AcDbSpline
210
0.0
220
0.0
230
1.0
 70
    11
 71
     3
 72
    40
 73
    36
 74
     0
 42
0.0000000001
 43
0.0000000001
 40
0.0
 40
0.0
 40
0.0
 40
0.0
 40
0.1
 40
0.1
 40
0.1
 40
0.1
 40
0.2
 40
0.2
 40
0.2
 40
0.2
 40
0.3
 40
0.3
 40
0.3
 40
0.3
 40
0.4
 40
0.4
 40
0.4
 40
0.4
 40
0.5
 40
0.5
 40
0.5
 40
0.5
 40
0.6
 40
0.6
 40
0.6
 40
0.6
 40
0.7
 40
0.7
 40
0.7
 40
0.7
 40
0.8
 40
0.8
 40
0.8
 40
0.8
 40
1.0
 40
1.0
 40
1.0
 40
1.0
 10
-12.3233
 20
12.2855
 30
0.0
 10
-12.3128
 20
12.4991
 30
0.0
 10
-12.2598
 20
12.6968
 30
0.0
 10
-12.1344
 20
12.8706
 30
0.0
 10
-12.1344
 20
12.8706
 30
0.0
 10
-12.0458
 20
12.9914
 30
0.0
 10
-11.9296
 20
13.0934
 30
0.0
 10
-11.7983
 20
13.1641
 30
0.0
 10
-11.7983
 20
13.1641
 30
0.0
 10
-11.6951
 20
13.2188
 30
0.0
 10
-11.5785
 20
13.2568
 30
0.0
 10
-11.4589
 20
13.2719
 30
0.0
 10
-11.4589
 20
13.2719
 30
0.0
 10
-10.8015
 20
13.363
 30
0.0
 10
-10.228
 20
12.7616
 30
0.0
 10
-10.3459
 20
12.1083
 30
0.0
 10
-10.3459
 20
12.1083
 30
0.0
 10
-10.3664
 20
11.9892
 30
0.0
 10
-10.4094
 20
11.8755
 30
0.0
 10
-10.4696
 20
11.7752
 30
0.0
 10
-10.4696
 20
11.7752
 30
0.0
 10
-10.5478
 20
11.6468
 30
0.0
 10
-10.6539
 20
11.5348
 30
0.0
 10
-10.7776
 20
11.4521
 30
0.0
 10
-10.7776
 20
11.4521
 30
0.0
 10
-10.9298
 20
11.3505
 30
0.0
 10
-11.1007
 20
11.3049
 30
0.0
 10
-11.2805
 20
11.2899
 30
0.0
 10
-11.2805
 20
11.2899
 30
0.0
 10
-11.7126
 20
11.2899
 30
0.0
 10
-12.1064
 20
11.5202
 30
0.0
 10
-12.2598
 20
11.9344
 30
0.0
 10
-12.2598
 20
11.9344
 30
0.0
 10
-12.3024
 20
12.0481
 30
0.0
 10
-12.3187
 20
12.1643
 30
0.0
 10
-12.3233
 20
12.2855
 30
0.0
  0
SPLINE
  5
89
330
1F
100
AcDbEntity
  8
Ilustrace
 62
   250
370
    30
100
AcDbSpline
210
0.0
220
0.0
230
1.0
 70
    11
 71
     3
 72
    40
 73
    36
 74
     0
 42
0.0000000001
 43
0.0000000001
 40
0.0
 40
0.0
 40
0.0
 40
0.0
 40
0.1
 40
0.1
 40
0.1
 40
0.1
 40
0.2
 40
0.2
 40
0.2
 40
0.2
 40
0.3
 40
0.3
 40
0.3
 40
0.3
 40
0.4
 40
0.4
 40
0.4
 40
0.4
 40
0.5
 40
0.5
 40
0.5
 40
0.5
 40
0.6
 40
0.6
 40
0.6
 40
0.6
 40
0.7
 40
0.7
 40
0.7
 40
0.7
 40
0.8
 40
0.8
 40
0.8
 40
0.8
 40
1.0
 40
1.0
 40
1.0
 40
1.0
 10
-12.4646
 20
3.6302
 30
0.0
 10
-12.4545
 20
3.3928
 30
0.0
 10
-12.3968
 20
3.17
 30
0.0
 10
-12.2598
 20
2.974
 30
0.0
 10
-12.2598
 20
2.974
 30
0.0
 10
-12.164
 20
2.8398
 30
0.0
 10
-12.0399
 20
2.7262
 30
0.0
 10
-11.897
 20
2.6405
 30
0.0
 10
-11.897
 20
2.6405
 30
0.0
 10
-11.7523
 20
2.5594
 30
0.0
 10
-11.5902
 20
2.5063
 30
0.0
 10
-11.4267
 20
2.4933
 30
0.0
 10
-11.4267
 20
2.4933
 30
0.0
 10
-10.651
 20
2.4252
 30
0.0
 10
-10.0257
 20
3.173
 30
0.0
 10
-10.2251
 20
3.9249
 30
0.0
 10
-10.2251
 20
3.9249
 30
0.0
 10
-10.2602
 20
4.0519
 30
0.0
 10
-10.3162
 20
4.1727
 30
0.0
 10
-10.3944
 20
4.2818
 30
0.0
 10
-10.3944
 20
4.2818
 30
0.0
 10
-10.4872
 20
4.4173
 30
0.0
 10
-10.6142
 20
4.5339
 30
0.0
 10
-10.7559
 20
4.615
 30
0.0
 10
-10.7559
 20
4.615
 30
0.0
 10
-10.934
 20
4.7182
 30
0.0
 10
-11.1246
 20
4.7579
 30
0.0
 10
-11.3264
 20
4.7683
 30
0.0
 10
-11.3264
 20
4.7683
 30
0.0
 10
-11.8025
 20
4.7462
 30
0.0
 10
-12.2301
 20
4.4779
 30
0.0
 10
-12.3968
 20
4.0193
 30
0.0
 10
-12.3968
 20
4.0193
 30
0.0
 10
-12.4441
 20
3.8927
 30
0.0
 10
-12.4616
 20
3.7644
 30
0.0
 10
-12.4646
 20
3.6302
 30
0.0
  0
SPLINE
  5
8A
330
1F
100
AcDbEntity
  8
Ilustrace
 62
   250
370
    30
100
AcDbSpline
210
0.0
220
0.0
230
1.0
 70
    11
 71
     3
 72
    40
 73
    36
 74
     0
 42
0.0000000001
 43
0.0000000001
 40
0.0
 40
0.0
 40
0.0
 40
0.0
 40
0.1
 40
0.1
 40
0.1
 40
0.1
 40
0.2
 40
0.2
 40
0.2
 40
0.2
 40
0.3
 40
0.3
 40
0.3
 40
0.3
 40
0.4
 40
0.4
 40
0.4
 40
0.4
 40
0.5
 40
0.5
 40
0.5
 40
0.5
 40
0.6
 40
0.6
 40
0.6
 40
0.6
 40
0.7
 40
0.7
 40
0.7
 40
0.7
 40
0.8
 40
0.8
 40
0.8
 40
0.8
 40
1.0
 40
1.0
 40
1.0
 40
1.0
 10
-12.4646
 20
-5.0284
 30
0.0
 10
-12.4545
 20
-5.2658
 30
0.0
 10
-12.3968
 20
-5.4852
 30
0.0
 10
-12.2598
 20
-5.6813
 30
0.0
 10
-12.2598
 20
-5.6813
 30
0.0
 10
-12.164
 20
-5.8184
 30
0.0
 10
-12.0399
 20
-5.932
 30
0.0
 10
-11.897
 20
-6.0148
 30
0.0
 10
-11.897
 20
-6.0148
 30
0.0
 10
-11.7523
 20
-6.0988
 30
0.0
 10
-11.5902
 20
-6.149
 30
0.0
 10
-11.4267
 20
-6.1636
 30
0.0
 10
-11.4267
 20
-6.1636
 30
0.0
 10
-10.651
 20
-6.23
 30
0.0
 10
-10.0257
 20
-5.4852
 30
0.0
 10
-10.2251
 20
-4.7316
 30
0.0
 10
-10.2251
 20
-4.7316
 30
0.0
 10
-10.2602
 20
-4.6037
 30
0.0
 10
-10.3162
 20
-4.4825
 30
0.0
 10
-10.3944
 20
-4.3734
 30
0.0
 10
-10.3944
 20
-4.3734
 30
0.0
 10
-10.4872
 20
-4.238
 30
0.0
 10
-10.6142
 20
-4.1243
 30
0.0
 10
-10.7559
 20
-4.0403
 30
0.0
 10
-10.7559
 20
-4.0403
 30
0.0
 10
-10.934
 20
-3.94
 30
0.0
 10
-11.1246
 20
-3.8974
 30
0.0
 10
-11.3264
 20
-3.8886
 30
0.0
 10
-11.3264
 20
-3.8886
 30
0.0
 10
-11.8025
 20
-3.9091
 30
0.0
 10
-12.2301
 20
-4.1791
 30
0.0
 10
-12.3968
 20
-4.6388
 30
0.0
 10
-12.3968
 20
-4.6388
 30
0.0
 10
-12.4441
 20
-4.7659
 30
0.0
 10
-12.4616
 20
-4.8938
 30
0.0
 10
-12.4646
 20
-5.0284
 30
0.0
  0
SPLINE
  5
8B
330
1F
100
AcDbEntity
  8
Ilustrace
 62
   250
370
    30
100
AcDbSpline
210
0.0
220
0.0
230
1.0
 70
    11
 71
     3
 72
    40
 73
    36
 74
     0
 42
0.0000000001
 43
0.0000000001
 40
0.0
 40
0.0
 40
0.0
 40
0.0
 40
0.1
 40
0.1
 40
0.1
 40
0.1
 40
0.2
 40
0.2
 40
0.2
 40
0.2
 40
0.3
 40
0.3
 40
0.3
 40
0.3
 40
0.4
 40
0.4
 40
0.4
 40
0.4
 40
0.5
 40
0.5
 40
0.5
 40
0.5
 40
0.6
 40
0.6
 40
0.6
 40
0.6
 40
0.7
 40
0.7
 40
0.7
 40
0.7
 40
0.8
 40
0.8
 40
0.8
 40
0.8
 40
1.0
 40
1.0
 40
1.0
 40
1.0
 10
-12.4646
 20
-0.7008
 30
0.0
 10
-12.4545
 20
-0.4634
 30
0.0
 10
-12.3968
 20
-0.2435
 30
0.0
 10
-12.2598
 20
-0.0458
 30
0.0
 10
-12.2598
 20
-0.0458
 30
0.0
 10
-12.164
 20
0.0896
 30
0.0
 10
-12.0399
 20
0.2033
 30
0.0
 10
-11.897
 20
0.2873
 30
0.0
 10
-11.897
 20
0.2873
 30
0.0
 10
-11.7523
 20
0.3701
 30
0.0
 10
-11.5902
 20
0.4215
 30
0.0
 10
-11.4267
 20
0.4361
 30
0.0
 10
-11.4267
 20
0.4361
 30
0.0
 10
-10.651
 20
0.5042
 30
0.0
 10
-10.0257
 20
-0.2435
 30
0.0
 10
-10.2251
 20
-0.9954
 30
0.0
 10
-10.2251
 20
-0.9954
 30
0.0
 10
-10.2602
 20
-1.1221
 30
0.0
 10
-10.3162
 20
-1.2433
 30
0.0
 10
-10.3944
 20
-1.3536
 30
0.0
 10
-10.3944
 20
-1.3536
 30
0.0
 10
-10.4872
 20
-1.4878
 30
0.0
 10
-10.6142
 20
-1.6044
 30
0.0
 10
-10.7559
 20
-1.6872
 30
0.0
 10
-10.7559
 20
-1.6872
 30
0.0
 10
-10.934
 20
-1.7887
 30
0.0
 10
-11.1246
 20
-1.8314
 30
0.0
 10
-11.3264
 20
-1.8389
 30
0.0
 10
-11.3264
 20
-1.8389
 30
0.0
 10
-11.8025
 20
-1.8184
 30
0.0
 10
-12.2301
 20
-1.5484
 30
0.0
 10
-12.3968
 20
-1.0882
 30
0.0
 10
-12.3968
 20
-1.0882
 30
0.0
 10
-12.4441
 20
-0.9628
 30
0.0
 10
-12.4616
 20
-0.8333
 30
0.0
 10
-12.4646
 20
-0.7008
 30
0.0
  0
SPLINE
  5
8C
330
1F
100
AcDbEntity
  8
Ilustrace
 62
   250
370
    30
100
AcDbSpline
210
0.0
220
0.0
230
1.0
 70
    11
 71
     3
 72
    36
 73
    32
 74
     0
 42
0.0000000001
 43
0.0000000001
 40
0.0
 40
0.0
 40
0.0
 40
0.0
 40
0.1111111111111111
 40
0.1111111111111111
 40
0.1111111111111111
 40
0.1111111111111111
 40
0.2222222222222222
 40
0.2222222222222222
 40
0.2222222222222222
 40
0.2222222222222222
 40
0.3333333333333333
 40
0.3333333333333333
 40
0.3333333333333333
 40
0.3333333333333333
 40
0.4444444444444444
 40
0.4444444444444444
 40
0.4444444444444444
 40
0.4444444444444444
 40
0.5555555555555556
 40
0.5555555555555556
 40
0.5555555555555556
 40
0.5555555555555556
 40
0.6666666666666666
 40
0.6666666666666666
 40
0.6666666666666666
 40
0.6666666666666666
 40
0.7777777777777778
 40
0.7777777777777778
 40
0.7777777777777778
 40
0.7777777777777778
 40
1.0
 40
1.0
 40
1.0
 40
1.0
 10
-16.5092
 20
12.2855
 30
0.0
 10
-16.5017
 20
12.1233
 30
0.0
 10
-16.4666
 20
11.9741
 30
0.0
 10
-16.3809
 20
11.8358
 30
0.0
 10
-16.3809
 20
11.8358
 30
0.0
 10
-16.3103
 20
11.7221
 30
0.0
 10
-16.2158
 20
11.6293
 30
0.0
 10
-16.1051
 20
11.5599
 30
0.0
 10
-16.1051
 20
11.5599
 30
0.0
 10
-15.9918
 20
11.4876
 30
0.0
 10
-15.8635
 20
11.4462
 30
0.0
 10
-15.7322
 20
11.4345
 30
0.0
 10
-15.7322
 20
11.4345
 30
0.0
 10
-15.6273
 20
11.4241
 30
0.0
 10
-15.5228
 20
11.4345
 30
0.0
 10
-15.4208
 20
11.4642
 30
0.0
 10
-15.4208
 20
11.4642
 30
0.0
 10
-14.8532
 20
11.6234
 30
0.0
 10
-14.6158
 20
12.3281
 30
0.0
 10
-14.9711
 20
12.8
 30
0.0
 10
-14.9711
 20
12.8
 30
0.0
 10
-15.0346
 20
12.8853
 30
0.0
 10
-15.1157
 20
12.9563
 30
0.0
 10
-15.2043
 20
13.0123
 30
0.0
 10
-15.2043
 20
13.0123
 30
0.0
 10
-15.3427
 20
13.0976
 30
0.0
 10
-15.4948
 20
13.1331
 30
0.0
 10
-15.6553
 20
13.1407
 30
0.0
 10
-15.6553
 20
13.1407
 30
0.0
 10
-16.136
 20
13.1185
 30
0.0
 10
-16.4871
 20
12.7674
 30
0.0
 10
-16.5092
 20
12.2855
 30
0.0
  0
SPLINE
  5
8D
330
1F
100
AcDbEntity
  8
Ilustrace
 62
   250
370
    30
100
AcDbSpline
210
0.0
220
0.0
230
1.0
 70
    11
 71
     3
 72
    36
 73
    32
 74
     0
 42
0.0000000001
 43
0.0000000001
 40
0.0
 40
0.0
 40
0.0
 40
0.0
 40
0.1111111111111111
 40
0.1111111111111111
 40
0.1111111111111111
 40
0.1111111111111111
 40
0.2222222222222222
 40
0.2222222222222222
 40
0.2222222222222222
 40
0.2222222222222222
 40
0.3333333333333333
 40
0.3333333333333333
 40
0.3333333333333333
 40
0.3333333333333333
 40
0.4444444444444444
 40
0.4444444444444444
 40
0.4444444444444444
 40
0.4444444444444444
 40
0.5555555555555556
 40
0.5555555555555556
 40
0.5555555555555556
 40
0.5555555555555556
 40
0.6666666666666666
 40
0.6666666666666666
 40
0.6666666666666666
 40
0.6666666666666666
 40
0.7777777777777778
 40
0.7777777777777778
 40
0.7777777777777778
 40
0.7777777777777778
 40
1.0
 40
1.0
 40
1.0
 40
1.0
 10
-16.5092
 20
-13.6849
 30
0.0
 10
-16.5017
 20
-13.5244
 30
0.0
 10
-16.4666
 20
-13.3723
 30
0.0
 10
-16.3809
 20
-13.2339
 30
0.0
 10
-16.3809
 20
-13.2339
 30
0.0
 10
-16.3249
 20
-13.1453
 30
0.0
 10
-16.2543
 20
-13.0672
 30
0.0
 10
-16.1686
 20
-13.0036
 30
0.0
 10
-16.1686
 20
-13.0036
 30
0.0
 10
-15.6967
 20
-12.6454
 30
0.0
 10
-14.9949
 20
-12.8828
 30
0.0
 10
-14.8328
 20
-13.4504
 30
0.0
 10
-14.8328
 20
-13.4504
 30
0.0
 10
-14.8048
 20
-13.5507
 30
0.0
 10
-14.7931
 20
-13.6569
 30
0.0
 10
-14.8048
 20
-13.7631
 30
0.0
 10
-14.8048
 20
-13.7631
 30
0.0
 10
-14.8152
 20
-13.8943
 30
0.0
 10
-14.8578
 20
-14.021
 30
0.0
 10
-14.9285
 20
-14.1346
 30
0.0
 10
-14.9285
 20
-14.1346
 30
0.0
 10
-14.9962
 20
-14.2454
 30
0.0
 10
-15.0906
 20
-14.3411
 30
0.0
 10
-15.2043
 20
-14.4105
 30
0.0
 10
-15.2043
 20
-14.4105
 30
0.0
 10
-15.3427
 20
-14.4958
 30
0.0
 10
-15.4948
 20
-14.5313
 30
0.0
 10
-15.6553
 20
-14.5388
 30
0.0
 10
-15.6553
 20
-14.5388
 30
0.0
 10
-16.136
 20
-14.5167
 30
0.0
 10
-16.4871
 20
-14.1672
 30
0.0
 10
-16.5092
 20
-13.6849
 30
0.0
  0
SPLINE
  5
8E
330
1F
100
AcDbEntity
  8
Ilustrace
 62
   250
370
    30
100
AcDbSpline
210
0.0
220
0.0
230
1.0
 70
    11
 71
     3
 72
    40
 73
    36
 74
     0
 42
0.0000000001
 43
0.0000000001
 40
0.0
 40
0.0
 40
0.0
 40
0.0
 40
0.1
 40
0.1
 40
0.1
 40
0.1
 40
0.2
 40
0.2
 40
0.2
 40
0.2
 40
0.3
 40
0.3
 40
0.3
 40
0.3
 40
0.4
 40
0.4
 40
0.4
 40
0.4
 40
0.5
 40
0.5
 40
0.5
 40
0.5
 40
0.6
 40
0.6
 40
0.6
 40
0.6
 40
0.7
 40
0.7
 40
0.7
 40
0.7
 40
0.8
 40
0.8
 40
0.8
 40
0.8
 40
1.0
 40
1.0
 40
1.0
 40
1.0
 10
-16.6509
 20
-9.3573
 30
0.0
 10
-16.6434
 20
-9.537
 30
0.0
 10
-16.6049
 20
-9.7084
 30
0.0
 10
-16.5092
 20
-9.8676
 30
0.0
 10
-16.5092
 20
-9.8676
 30
0.0
 10
-16.4486
 20
-9.9692
 30
0.0
 10
-16.3705
 20
-10.062
 30
0.0
 10
-16.2747
 20
-10.136
 30
0.0
 10
-16.2747
 20
-10.136
 30
0.0
 10
-15.7264
 20
-10.5752
 30
0.0
 10
-14.8812
 20
-10.2994
 30
0.0
 10
-14.694
 20
-9.6227
 30
0.0
 10
-14.694
 20
-9.6227
 30
0.0
 10
-14.6618
 20
-9.5061
 30
0.0
 10
-14.6514
 20
-9.3853
 30
0.0
 10
-14.6618
 20
-9.2674
 30
0.0
 10
-14.6618
 20
-9.2674
 30
0.0
 10
-14.6735
 20
-9.1186
 30
0.0
 10
-14.722
 20
-8.974
 30
0.0
 10
-14.7972
 20
-8.8457
 30
0.0
 10
-14.7972
 20
-8.8457
 30
0.0
 10
-14.8754
 20
-8.7157
 30
0.0
 10
-14.9816
 20
-8.6054
 30
0.0
 10
-15.1053
 20
-8.5243
 30
0.0
 10
-15.1053
 20
-8.5243
 30
0.0
 10
-15.2854
 20
-8.4064
 30
0.0
 10
-15.4844
 20
-8.3604
 30
0.0
 10
-15.6984
 20
-8.3604
 30
0.0
 10
-15.6984
 20
-8.3604
 30
0.0
 10
-16.095
 20
-8.396
 30
0.0
 10
-16.4444
 20
-8.6229
 30
0.0
 10
-16.5874
 20
-9.0062
 30
0.0
 10
-16.5874
 20
-9.0062
 30
0.0
 10
-16.63
 20
-9.1199
 30
0.0
 10
-16.6463
 20
-9.2365
 30
0.0
 10
-16.6509
 20
-9.3573
 30
0.0
  0
SPLINE
  5
8F
330
1F
100
AcDbEntity
  8
Ilustrace
 62
   250
370
    30
100
AcDbSpline
210
0.0
220
0.0
230
1.0
 70
    11
 71
     3
 72
    40
 73
    36
 74
     0
 42
0.0000000001
 43
0.0000000001
 40
0.0
 40
0.0
 40
0.0
 40
0.0
 40
0.1
 40
0.1
 40
0.1
 40
0.1
 40
0.2
 40
0.2
 40
0.2
 40
0.2
 40
0.3
 40
0.3
 40
0.3
 40
0.3
 40
0.4
 40
0.4
 40
0.4
 40
0.4
 40
0.5
 40
0.5
 40
0.5
 40
0.5
 40
0.6
 40
0.6
 40
0.6
 40
0.6
 40
0.7
 40
0.7
 40
0.7
 40
0.7
 40
0.8
 40
0.8
 40
0.8
 40
0.8
 40
1.0
 40
1.0
 40
1.0
 40
1.0
 10
-16.6509
 20
3.6302
 30
0.0
 10
-16.6434
 20
3.4459
 30
0.0
 10
-16.6049
 20
3.2762
 30
0.0
 10
-16.5092
 20
3.117
 30
0.0
 10
-16.5092
 20
3.117
 30
0.0
 10
-16.4486
 20
3.0137
 30
0.0
 10
-16.3705
 20
2.9222
 30
0.0
 10
-16.2747
 20
2.8499
 30
0.0
 10
-16.2747
 20
2.8499
 30
0.0
 10
-15.7264
 20
2.4106
 30
0.0
 10
-14.8812
 20
2.6865
 30
0.0
 10
-14.694
 20
3.3648
 30
0.0
 10
-14.694
 20
3.3648
 30
0.0
 10
-14.6618
 20
3.4781
 30
0.0
 10
-14.6514
 20
3.5989
 30
0.0
 10
-14.6618
 20
3.7184
 30
0.0
 10
-14.6618
 20
3.7184
 30
0.0
 10
-14.6735
 20
3.8676
 30
0.0
 10
-14.722
 20
4.0135
 30
0.0
 10
-14.7972
 20
4.1401
 30
0.0
 10
-14.7972
 20
4.1401
 30
0.0
 10
-14.8754
 20
4.2685
 30
0.0
 10
-14.9816
 20
4.3775
 30
0.0
 10
-15.1053
 20
4.4603
 30
0.0
 10
-15.1053
 20
4.4603
 30
0.0
 10
-15.2854
 20
4.5794
 30
0.0
 10
-15.4844
 20
4.6254
 30
0.0
 10
-15.6984
 20
4.6254
 30
0.0
 10
-15.6984
 20
4.6254
 30
0.0
 10
-15.8204
 20
4.615
 30
0.0
 10
-15.9341
 20
4.5945
 30
0.0
 10
-16.0449
 20
4.5443
 30
0.0
 10
-16.0449
 20
4.5443
 30
0.0
 10
-16.4206
 20
4.3851
 30
0.0
 10
-16.6329
 20
4.0269
 30
0.0
 10
-16.6509
 20
3.6302
 30
0.0
  0
SPLINE
  5
90
330
1F
100
AcDbEntity
  8
Ilustrace
 62
   250
370
    30
100
AcDbSpline
210
0.0
220
0.0
230
1.0
 70
    11
 71
     3
 72
    40
 73
    36
 74
     0
 42
0.0000000001
 43
0.0000000001
 40
0.0
 40
0.0
 40
0.0
 40
0.0
 40
0.1
 40
0.1
 40
0.1
 40
0.1
 40
0.2
 40
0.2
 40
0.2
 40
0.2
 40
0.3
 40
0.3
 40
0.3
 40
0.3
 40
0.4
 40
0.4
 40
0.4
 40
0.4
 40
0.5
 40
0.5
 40
0.5
 40
0.5
 40
0.6
 40
0.6
 40
0.6
 40
0.6
 40
0.7
 40
0.7
 40
0.7
 40
0.7
 40
0.8
 40
0.8
 40
0.8
 40
0.8
 40
1.0
 40
1.0
 40
1.0
 40
1.0
 10
-16.6509
 20
7.9579
 30
0.0
 10
-16.6434
 20
7.7735
 30
0.0
 10
-16.6049
 20
7.6038
 30
0.0
 10
-16.5092
 20
7.4446
 30
0.0
 10
-16.5092
 20
7.4446
 30
0.0
 10
-16.4486
 20
7.3443
 30
0.0
 10
-16.3705
 20
7.2527
 30
0.0
 10
-16.2747
 20
7.1775
 30
0.0
 10
-16.2747
 20
7.1775
 30
0.0
 10
-16.1832
 20
7.1039
 30
0.0
 10
-16.0771
 20
7.0463
 30
0.0
 10
-15.9621
 20
7.0082
 30
0.0
 10
-15.9621
 20
7.0082
 30
0.0
 10
-15.2929
 20
6.7913
 30
0.0
 10
-14.5983
 20
7.346
 30
0.0
 10
-14.6618
 20
8.046
 30
0.0
 10
-14.6618
 20
8.046
 30
0.0
 10
-14.6735
 20
8.1953
 30
0.0
 10
-14.722
 20
8.3411
 30
0.0
 10
-14.7972
 20
8.4678
 30
0.0
 10
-14.7972
 20
8.4678
 30
0.0
 10
-14.8754
 20
8.5961
 30
0.0
 10
-14.9816
 20
8.7052
 30
0.0
 10
-15.1053
 20
8.7879
 30
0.0
 10
-15.1053
 20
8.7879
 30
0.0
 10
-15.2854
 20
8.9075
 30
0.0
 10
-15.4844
 20
8.953
 30
0.0
 10
-15.6984
 20
8.953
 30
0.0
 10
-15.6984
 20
8.953
 30
0.0
 10
-16.095
 20
8.9175
 30
0.0
 10
-16.4444
 20
8.6889
 30
0.0
 10
-16.5874
 20
8.3085
 30
0.0
 10
-16.5874
 20
8.3085
 30
0.0
 10
-16.63
 20
8.1923
 30
0.0
 10
-16.6463
 20
8.0786
 30
0.0
 10
-16.6509
 20
7.9579
 30
0.0
  0
SPLINE
  5
91
330
1F
100
AcDbEntity
  8
Ilustrace
 62
   250
370
    30
100
AcDbSpline
210
0.0
220
0.0
230
1.0
 70
    11
 71
     3
 72
    40
 73
    36
 74
     0
 42
0.0000000001
 43
0.0000000001
 40
0.0
 40
0.0
 40
0.0
 40
0.0
 40
0.1
 40
0.1
 40
0.1
 40
0.1
 40
0.2
 40
0.2
 40
0.2
 40
0.2
 40
0.3
 40
0.3
 40
0.3
 40
0.3
 40
0.4
 40
0.4
 40
0.4
 40
0.4
 40
0.5
 40
0.5
 40
0.5
 40
0.5
 40
0.6
 40
0.6
 40
0.6
 40
0.6
 40
0.7
 40
0.7
 40
0.7
 40
0.7
 40
0.8
 40
0.8
 40
0.8
 40
0.8
 40
1.0
 40
1.0
 40
1.0
 40
1.0
 10
-16.7922
 20
-5.0284
 30
0.0
 10
-16.7851
 20
-4.8261
 30
0.0
 10
-16.7437
 20
-4.6359
 30
0.0
 10
-16.6405
 20
-4.4574
 30
0.0
 10
-16.6405
 20
-4.4574
 30
0.0
 10
-16.5594
 20
-4.3133
 30
0.0
 10
-16.4444
 20
-4.1891
 30
0.0
 10
-16.3074
 20
-4.0934
 30
0.0
 10
-16.3074
 20
-4.0934
 30
0.0
 10
-15.6716
 20
-3.6495
 30
0.0
 10
-14.7546
 20
-3.9826
 30
0.0
 10
-14.5527
 20
-4.7316
 30
0.0
 10
-14.5527
 20
-4.7316
 30
0.0
 10
-14.5201
 20
-4.8616
 30
0.0
 10
-14.5067
 20
-4.9941
 30
0.0
 10
-14.5201
 20
-5.1283
 30
0.0
 10
-14.5201
 20
-5.1283
 30
0.0
 10
-14.5348
 20
-5.2921
 30
0.0
 10
-14.5849
 20
-5.4543
 30
0.0
 10
-14.666
 20
-5.5989
 30
0.0
 10
-14.666
 20
-5.5989
 30
0.0
 10
-14.7517
 20
-5.7419
 30
0.0
 10
-14.8637
 20
-5.8656
 30
0.0
 10
-15.0025
 20
-5.9617
 30
0.0
 10
-15.0025
 20
-5.9617
 30
0.0
 10
-15.1968
 20
-6.0988
 30
0.0
 10
-15.4167
 20
-6.1561
 30
0.0
 10
-15.6553
 20
-6.1665
 30
0.0
 10
-15.6553
 20
-6.1665
 30
0.0
 10
-16.1301
 20
-6.146
 30
0.0
 10
-16.5577
 20
-5.876
 30
0.0
 10
-16.7245
 20
-5.4188
 30
0.0
 10
-16.7245
 20
-5.4188
 30
0.0
 10
-16.7717
 20
-5.2905
 30
0.0
 10
-16.7863
 20
-5.1609
 30
0.0
 10
-16.7922
 20
-5.0284
 30
0.0
  0
SPLINE
  5
92
330
1F
100
AcDbEntity
  8
Ilustrace
 62
   250
370
    30
100
AcDbSpline
210
0.0
220
0.0
230
1.0
 70
    11
 71
     3
 72
    40
 73
    36
 74
     0
 42
0.0000000001
 43
0.0000000001
 40
0.0
 40
0.0
 40
0.0
 40
0.0
 40
0.1
 40
0.1
 40
0.1
 40
0.1
 40
0.2
 40
0.2
 40
0.2
 40
0.2
 40
0.3
 40
0.3
 40
0.3
 40
0.3
 40
0.4
 40
0.4
 40
0.4
 40
0.4
 40
0.5
 40
0.5
 40
0.5
 40
0.5
 40
0.6
 40
0.6
 40
0.6
 40
0.6
 40
0.7
 40
0.7
 40
0.7
 40
0.7
 40
0.8
 40
0.8
 40
0.8
 40
0.8
 40
1.0
 40
1.0
 40
1.0
 40
1.0
 10
-16.7922
 20
-0.7008
 30
0.0
 10
-16.7851
 20
-0.4955
 30
0.0
 10
-16.7437
 20
-0.3083
 30
0.0
 10
-16.6405
 20
-0.1298
 30
0.0
 10
-16.6405
 20
-0.1298
 30
0.0
 10
-16.5594
 20
0.0144
 30
0.0
 10
-16.4444
 20
0.1385
 30
0.0
 10
-16.3074
 20
0.2342
 30
0.0
 10
-16.3074
 20
0.2342
 30
0.0
 10
-16.1715
 20
0.3299
 30
0.0
 10
-16.0169
 20
0.3935
 30
0.0
 10
-15.853
 20
0.4232
 30
0.0
 10
-15.853
 20
0.4232
 30
0.0
 10
-15.7218
 20
0.4466
 30
0.0
 10
-15.5876
 20
0.4466
 30
0.0
 10
-15.4564
 20
0.4232
 30
0.0
 10
-15.4564
 20
0.4232
 30
0.0
 10
-14.6911
 20
0.2873
 30
0.0
 10
-14.2798
 20
-0.5975
 30
0.0
 10
-14.666
 20
-1.2684
 30
0.0
 10
-14.666
 20
-1.2684
 30
0.0
 10
-14.7517
 20
-1.4142
 30
0.0
 10
-14.8637
 20
-1.5379
 30
0.0
 10
-15.0025
 20
-1.6341
 30
0.0
 10
-15.0025
 20
-1.6341
 30
0.0
 10
-15.1968
 20
-1.7712
 30
0.0
 10
-15.4167
 20
-1.8284
 30
0.0
 10
-15.6553
 20
-1.8389
 30
0.0
 10
-15.6553
 20
-1.8389
 30
0.0
 10
-16.1301
 20
-1.8184
 30
0.0
 10
-16.5577
 20
-1.5484
 30
0.0
 10
-16.7245
 20
-1.0882
 30
0.0
 10
-16.7245
 20
-1.0882
 30
0.0
 10
-16.7717
 20
-0.9628
 30
0.0
 10
-16.7863
 20
-0.8333
 30
0.0
 10
-16.7922
 20
-0.7008
 30
0.0
  0
SPLINE
  5
93
330
1F
100
AcDbEntity
  8
Ilustrace
 62
   250
370
    30
100
AcDbSpline
210
0.0
220
0.0
230
1.0
 70
    11
 71
     3
 72
    36
 73
    32
 74
     0
 42
0.0000000001
 43
0.0000000001
 40
0.0
 40
0.0
 40
0.0
 40
0.0
 40
0.1111111111111111
 40
0.1111111111111111
 40
0.1111111111111111
 40
0.1111111111111111
 40
0.2222222222222222
 40
0.2222222222222222
 40
0.2222222222222222
 40
0.2222222222222222
 40
0.3333333333333333
 40
0.3333333333333333
 40
0.3333333333333333
 40
0.3333333333333333
 40
0.4444444444444444
 40
0.4444444444444444
 40
0.4444444444444444
 40
0.4444444444444444
 40
0.5555555555555556
 40
0.5555555555555556
 40
0.5555555555555556
 40
0.5555555555555556
 40
0.6666666666666666
 40
0.6666666666666666
 40
0.6666666666666666
 40
0.6666666666666666
 40
0.7777777777777778
 40
0.7777777777777778
 40
0.7777777777777778
 40
0.7777777777777778
 40
1.0
 40
1.0
 40
1.0
 40
1.0
 10
-20.8369
 20
7.9579
 30
0.0
 10
-20.8293
 20
8.1171
 30
0.0
 10
-20.7942
 20
8.2672
 30
0.0
 10
-20.7085
 20
8.4076
 30
0.0
 10
-20.7085
 20
8.4076
 30
0.0
 10
-20.3976
 20
8.9087
 30
0.0
 10
-19.6557
 20
8.9426
 30
0.0
 10
-19.2987
 20
8.4724
 30
0.0
 10
-19.2987
 20
8.4724
 30
0.0
 10
-19.2356
 20
8.3867
 30
0.0
 10
-19.1884
 20
8.291
 30
0.0
 10
-19.1604
 20
8.1923
 30
0.0
 10
-19.1604
 20
8.1923
 30
0.0
 10
-19.1324
 20
8.0891
 30
0.0
 10
-19.1207
 20
7.9829
 30
0.0
 10
-19.1295
 20
7.8797
 30
0.0
 10
-19.1295
 20
7.8797
 30
0.0
 10
-19.1428
 20
7.7455
 30
0.0
 10
-19.1855
 20
7.6185
 30
0.0
 10
-19.2561
 20
7.5081
 30
0.0
 10
-19.2561
 20
7.5081
 30
0.0
 10
-19.3238
 20
7.3944
 30
0.0
 10
-19.42
 20
7.2987
 30
0.0
 10
-19.532
 20
7.2306
 30
0.0
 10
-19.532
 20
7.2306
 30
0.0
 10
-19.6703
 20
7.1437
 30
0.0
 10
-19.8225
 20
7.1098
 30
0.0
 10
-19.983
 20
7.101
 30
0.0
 10
-19.983
 20
7.101
 30
0.0
 10
-20.4636
 20
7.1244
 30
0.0
 10
-20.8147
 20
7.4755
 30
0.0
 10
-20.8369
 20
7.9579
 30
0.0
  0
SPLINE
  5
94
330
1F
100
AcDbEntity
  8
Ilustrace
 62
   250
370
    30
100
AcDbSpline
210
0.0
220
0.0
230
1.0
 70
    11
 71
     3
 72
    40
 73
    36
 74
     0
 42
0.0000000001
 43
0.0000000001
 40
0.0
 40
0.0
 40
0.0
 40
0.0
 40
0.1
 40
0.1
 40
0.1
 40
0.1
 40
0.2
 40
0.2
 40
0.2
 40
0.2
 40
0.3
 40
0.3
 40
0.3
 40
0.3
 40
0.4
 40
0.4
 40
0.4
 40
0.4
 40
0.5
 40
0.5
 40
0.5
 40
0.5
 40
0.6
 40
0.6
 40
0.6
 40
0.6
 40
0.7
 40
0.7
 40
0.7
 40
0.7
 40
0.8
 40
0.8
 40
0.8
 40
0.8
 40
1.0
 40
1.0
 40
1.0
 40
1.0
 10
-20.9786
 20
-0.7008
 30
0.0
 10
-20.9681
 20
-0.9131
 30
0.0
 10
-20.915
 20
-1.112
 30
0.0
 10
-20.7884
 20
-1.2859
 30
0.0
 10
-20.7884
 20
-1.2859
 30
0.0
 10
-20.719
 20
-1.3816
 30
0.0
 10
-20.6321
 20
-1.4673
 30
0.0
 10
-20.5317
 20
-1.5308
 30
0.0
 10
-20.5317
 20
-1.5308
 30
0.0
 10
-19.9432
 20
-1.92
 30
0.0
 10
-19.1249
 20
-1.5689
 30
0.0
 10
-19.0012
 20
-0.8788
 30
0.0
 10
-19.0012
 20
-0.8788
 30
0.0
 10
-18.979
 20
-0.7609
 30
0.0
 10
-18.979
 20
-0.6402
 30
0.0
 10
-19.0012
 20
-0.5206
 30
0.0
 10
-19.0012
 20
-0.5206
 30
0.0
 10
-19.0262
 20
-0.3747
 30
0.0
 10
-19.0864
 20
-0.2331
 30
0.0
 10
-19.175
 20
-0.1123
 30
0.0
 10
-19.175
 20
-0.1123
 30
0.0
 10
-19.2636
 20
0.0073
 30
0.0
 10
-19.3769
 20
0.1076
 30
0.0
 10
-19.5081
 20
0.1782
 30
0.0
 10
-19.5081
 20
0.1782
 30
0.0
 10
-19.6703
 20
0.2668
 30
0.0
 10
-19.8446
 20
0.2978
 30
0.0
 10
-20.026
 20
0.2978
 30
0.0
 10
-20.026
 20
0.2978
 30
0.0
 10
-20.4227
 20
0.2593
 30
0.0
 10
-20.7721
 20
0.0324
 30
0.0
 10
-20.915
 20
-0.3497
 30
0.0
 10
-20.915
 20
-0.3497
 30
0.0
 10
-20.9577
 20
-0.4634
 30
0.0
 10
-20.9727
 20
-0.5795
 30
0.0
 10
-20.9786
 20
-0.7008
 30
0.0
  0
SPLINE
  5
95
330
1F
100
AcDbEntity
  8
Ilustrace
 62
   250
370
    30
100
AcDbSpline
210
0.0
220
0.0
230
1.0
 70
    11
 71
     3
 72
    40
 73
    36
 74
     0
 42
0.0000000001
 43
0.0000000001
 40
0.0
 40
0.0
 40
0.0
 40
0.0
 40
0.1
 40
0.1
 40
0.1
 40
0.1
 40
0.2
 40
0.2
 40
0.2
 40
0.2
 40
0.3
 40
0.3
 40
0.3
 40
0.3
 40
0.4
 40
0.4
 40
0.4
 40
0.4
 40
0.5
 40
0.5
 40
0.5
 40
0.5
 40
0.6
 40
0.6
 40
0.6
 40
0.6
 40
0.7
 40
0.7
 40
0.7
 40
0.7
 40
0.8
 40
0.8
 40
0.8
 40
0.8
 40
1.0
 40
1.0
 40
1.0
 40
1.0
 10
-20.9786
 20
3.6302
 30
0.0
 10
-20.9681
 20
3.8425
 30
0.0
 10
-20.915
 20
4.0415
 30
0.0
 10
-20.7884
 20
4.2154
 30
0.0
 10
-20.7884
 20
4.2154
 30
0.0
 10
-20.701
 20
4.3349
 30
0.0
 10
-20.5848
 20
4.4352
 30
0.0
 10
-20.4536
 20
4.5059
 30
0.0
 10
-20.4536
 20
4.5059
 30
0.0
 10
-19.8668
 20
4.8214
 30
0.0
 10
-19.1207
 20
4.4632
 30
0.0
 10
-19.0012
 20
3.807
 30
0.0
 10
-19.0012
 20
3.807
 30
0.0
 10
-18.979
 20
3.6904
 30
0.0
 10
-18.979
 20
3.5667
 30
0.0
 10
-19.0012
 20
3.4501
 30
0.0
 10
-19.0012
 20
3.4501
 30
0.0
 10
-19.0216
 20
3.3322
 30
0.0
 10
-19.0647
 20
3.2185
 30
0.0
 10
-19.1249
 20
3.117
 30
0.0
 10
-19.1249
 20
3.117
 30
0.0
 10
-19.203
 20
2.9886
 30
0.0
 10
-19.3092
 20
2.8779
 30
0.0
 10
-19.4333
 20
2.7968
 30
0.0
 10
-19.4333
 20
2.7968
 30
0.0
 10
-19.5863
 20
2.6936
 30
0.0
 10
-19.756
 20
2.648
 30
0.0
 10
-19.9361
 20
2.6334
 30
0.0
 10
-19.9361
 20
2.6334
 30
0.0
 10
-20.3679
 20
2.6334
 30
0.0
 10
-20.7587
 20
2.8649
 30
0.0
 10
-20.915
 20
3.2791
 30
0.0
 10
-20.915
 20
3.2791
 30
0.0
 10
-20.9577
 20
3.3928
 30
0.0
 10
-20.9727
 20
3.5061
 30
0.0
 10
-20.9786
 20
3.6302
 30
0.0
  0
SPLINE
  5
96
330
1F
100
AcDbEntity
  8
Ilustrace
 62
   250
370
    30
100
AcDbSpline
210
0.0
220
0.0
230
1.0
 70
    11
 71
     3
 72
    40
 73
    36
 74
     0
 42
0.0000000001
 43
0.0000000001
 40
0.0
 40
0.0
 40
0.0
 40
0.0
 40
0.1
 40
0.1
 40
0.1
 40
0.1
 40
0.2
 40
0.2
 40
0.2
 40
0.2
 40
0.3
 40
0.3
 40
0.3
 40
0.3
 40
0.4
 40
0.4
 40
0.4
 40
0.4
 40
0.5
 40
0.5
 40
0.5
 40
0.5
 40
0.6
 40
0.6
 40
0.6
 40
0.6
 40
0.7
 40
0.7
 40
0.7
 40
0.7
 40
0.8
 40
0.8
 40
0.8
 40
0.8
 40
1.0
 40
1.0
 40
1.0
 40
1.0
 10
-20.6701
 20
-10.077
 30
0.0
 10
-20.5347
 20
-10.1961
 30
0.0
 10
-20.3825
 20
-10.2864
 30
0.0
 10
-20.2028
 20
-10.3274
 30
0.0
 10
-20.2028
 20
-10.3274
 30
0.0
 10
-20.0862
 20
-10.3554
 30
0.0
 10
-19.9654
 20
-10.36
 30
0.0
 10
-19.8475
 20
-10.3454
 30
0.0
 10
-19.8475
 20
-10.3454
 30
0.0
 10
-19.7309
 20
-10.3274
 30
0.0
 10
-19.6143
 20
-10.2893
 30
0.0
 10
-19.5081
 20
-10.2333
 30
0.0
 10
-19.5081
 20
-10.2333
 30
0.0
 10
-19.4049
 20
-10.1786
 30
0.0
 10
-19.3092
 20
-10.1004
 30
0.0
 10
-19.231
 20
-10.0118
 30
0.0
 10
-19.231
 20
-10.0118
 30
0.0
 10
-18.8168
 20
-9.537
 30
0.0
 10
-18.9556
 20
-8.7763
 30
0.0
 10
-19.5081
 20
-8.477
 30
0.0
 10
-19.5081
 20
-8.477
 30
0.0
 10
-19.6703
 20
-8.3901
 30
0.0
 10
-19.8446
 20
-8.3604
 30
0.0
 10
-20.026
 20
-8.3604
 30
0.0
 10
-20.026
 20
-8.3604
 30
0.0
 10
-20.1777
 20
-8.3725
 30
0.0
 10
-20.3194
 20
-8.4064
 30
0.0
 10
-20.4536
 20
-8.477
 30
0.0
 10
-20.4536
 20
-8.477
 30
0.0
 10
-20.8573
 20
-8.6969
 30
0.0
 10
-21.0638
 20
-9.1788
 30
0.0
 10
-20.943
 20
-9.6227
 30
0.0
 10
-20.943
 20
-9.6227
 30
0.0
 10
-20.8929
 20
-9.7995
 30
0.0
 10
-20.7984
 20
-9.9458
 30
0.0
 10
-20.6701
 20
-10.077
 30
0.0
  0
SPLINE
  5
97
330
1F
100
AcDbEntity
  8
Ilustrace
 62
   250
370
    30
100
AcDbSpline
210
0.0
220
0.0
230
1.0
 70
    11
 71
     3
 72
    36
 73
    32
 74
     0
 42
0.0000000001
 43
0.0000000001
 40
0.0
 40
0.0
 40
0.0
 40
0.0
 40
0.1111111111111111
 40
0.1111111111111111
 40
0.1111111111111111
 40
0.1111111111111111
 40
0.2222222222222222
 40
0.2222222222222222
 40
0.2222222222222222
 40
0.2222222222222222
 40
0.3333333333333333
 40
0.3333333333333333
 40
0.3333333333333333
 40
0.3333333333333333
 40
0.4444444444444444
 40
0.4444444444444444
 40
0.4444444444444444
 40
0.4444444444444444
 40
0.5555555555555556
 40
0.5555555555555556
 40
0.5555555555555556
 40
0.5555555555555556
 40
0.6666666666666666
 40
0.6666666666666666
 40
0.6666666666666666
 40
0.6666666666666666
 40
0.7777777777777778
 40
0.7777777777777778
 40
0.7777777777777778
 40
0.7777777777777778
 40
1.0
 40
1.0
 40
1.0
 40
1.0
 10
-25.1645
 20
-13.6849
 30
0.0
 10
-25.157
 20
-13.8442
 30
0.0
 10
-25.1219
 20
-13.9959
 30
0.0
 10
-25.0362
 20
-14.1346
 30
0.0
 10
-25.0362
 20
-14.1346
 30
0.0
 10
-24.9655
 20
-14.2454
 30
0.0
 10
-24.8711
 20
-14.3411
 30
0.0
 10
-24.7603
 20
-14.4105
 30
0.0
 10
-24.7603
 20
-14.4105
 30
0.0
 10
-24.6471
 20
-14.4811
 30
0.0
 10
-24.52
 20
-14.5238
 30
0.0
 10
-24.3888
 20
-14.5359
 30
0.0
 10
-24.3888
 20
-14.5359
 30
0.0
 10
-23.8007
 20
-14.589
 30
0.0
 10
-23.3259
 20
-14.018
 30
0.0
 10
-23.488
 20
-13.4504
 30
0.0
 10
-23.488
 20
-13.4504
 30
0.0
 10
-23.516
 20
-13.3489
 30
0.0
 10
-23.5633
 20
-13.2527
 30
0.0
 10
-23.6268
 20
-13.1704
 30
0.0
 10
-23.6268
 20
-13.1704
 30
0.0
 10
-23.6899
 20
-13.0847
 30
0.0
 10
-23.771
 20
-13.0141
 30
0.0
 10
-23.8596
 20
-12.9581
 30
0.0
 10
-23.8596
 20
-12.9581
 30
0.0
 10
-23.9984
 20
-12.8724
 30
0.0
 10
-24.1501
 20
-12.8373
 30
0.0
 10
-24.3106
 20
-12.8298
 30
0.0
 10
-24.3106
 20
-12.8298
 30
0.0
 10
-24.7913
 20
-12.8519
 30
0.0
 10
-25.1423
 20
-13.203
 30
0.0
 10
-25.1645
 20
-13.6849
 30
0.0
  0
SPLINE
  5
98
330
1F
100
AcDbEntity
  8
Ilustrace
 62
   250
370
    30
100
AcDbSpline
210
0.0
220
0.0
230
1.0
 70
    11
 71
     3
 72
    36
 73
    32
 74
     0
 42
0.0000000001
 43
0.0000000001
 40
0.0
 40
0.0
 40
0.0
 40
0.0
 40
0.1111111111111111
 40
0.1111111111111111
 40
0.1111111111111111
 40
0.1111111111111111
 40
0.2222222222222222
 40
0.2222222222222222
 40
0.2222222222222222
 40
0.2222222222222222
 40
0.3333333333333333
 40
0.3333333333333333
 40
0.3333333333333333
 40
0.3333333333333333
 40
0.4444444444444444
 40
0.4444444444444444
 40
0.4444444444444444
 40
0.4444444444444444
 40
0.5555555555555556
 40
0.5555555555555556
 40
0.5555555555555556
 40
0.5555555555555556
 40
0.6666666666666666
 40
0.6666666666666666
 40
0.6666666666666666
 40
0.6666666666666666
 40
0.7777777777777778
 40
0.7777777777777778
 40
0.7777777777777778
 40
0.7777777777777778
 40
1.0
 40
1.0
 40
1.0
 40
1.0
 10
-25.1645
 20
3.6302
 30
0.0
 10
-25.157
 20
3.7895
 30
0.0
 10
-25.1219
 20
3.9412
 30
0.0
 10
-25.0362
 20
4.08
 30
0.0
 10
-25.0362
 20
4.08
 30
0.0
 10
-24.9655
 20
4.1903
 30
0.0
 10
-24.8711
 20
4.286
 30
0.0
 10
-24.7603
 20
4.3541
 30
0.0
 10
-24.7603
 20
4.3541
 30
0.0
 10
-24.6471
 20
4.4248
 30
0.0
 10
-24.52
 20
4.4662
 30
0.0
 10
-24.3888
 20
4.4808
 30
0.0
 10
-24.3888
 20
4.4808
 30
0.0
 10
-24.2826
 20
4.4883
 30
0.0
 10
-24.1764
 20
4.4808
 30
0.0
 10
-24.0761
 20
4.4499
 30
0.0
 10
-24.0761
 20
4.4499
 30
0.0
 10
-23.5085
 20
4.2894
 30
0.0
 10
-23.2711
 20
3.5842
 30
0.0
 10
-23.6268
 20
3.1124
 30
0.0
 10
-23.6268
 20
3.1124
 30
0.0
 10
-23.6899
 20
3.0283
 30
0.0
 10
-23.771
 20
2.956
 30
0.0
 10
-23.8596
 20
2.903
 30
0.0
 10
-23.8596
 20
2.903
 30
0.0
 10
-23.9984
 20
2.8177
 30
0.0
 10
-24.1501
 20
2.7822
 30
0.0
 10
-24.3106
 20
2.7734
 30
0.0
 10
-24.3106
 20
2.7734
 30
0.0
 10
-24.7913
 20
2.7968
 30
0.0
 10
-25.1423
 20
3.1479
 30
0.0
 10
-25.1645
 20
3.6302
 30
0.0
  0
SPLINE
  5
99
330
1F
100
AcDbEntity
  8
Ilustrace
 62
   250
370
    30
100
AcDbSpline
210
0.0
220
0.0
230
1.0
 70
    11
 71
     3
 72
    40
 73
    36
 74
     0
 42
0.0000000001
 43
0.0000000001
 40
0.0
 40
0.0
 40
0.0
 40
0.0
 40
0.1
 40
0.1
 40
0.1
 40
0.1
 40
0.2
 40
0.2
 40
0.2
 40
0.2
 40
0.3
 40
0.3
 40
0.3
 40
0.3
 40
0.4
 40
0.4
 40
0.4
 40
0.4
 40
0.5
 40
0.5
 40
0.5
 40
0.5
 40
0.6
 40
0.6
 40
0.6
 40
0.6
 40
0.7
 40
0.7
 40
0.7
 40
0.7
 40
0.8
 40
0.8
 40
0.8
 40
0.8
 40
1.0
 40
1.0
 40
1.0
 40
1.0
 10
-25.3062
 20
-5.0284
 30
0.0
 10
-25.2957
 20
-5.242
 30
0.0
 10
-25.2427
 20
-5.4397
 30
0.0
 10
-25.116
 20
-5.6135
 30
0.0
 10
-25.116
 20
-5.6135
 30
0.0
 10
-25.0274
 20
-5.7343
 30
0.0
 10
-24.9125
 20
-5.8363
 30
0.0
 10
-24.7812
 20
-5.907
 30
0.0
 10
-24.7812
 20
-5.907
 30
0.0
 10
-24.65
 20
-5.9763
 30
0.0
 10
-24.5024
 20
-6.0177
 30
0.0
 10
-24.3536
 20
-6.0248
 30
0.0
 10
-24.3536
 20
-6.0248
 30
0.0
 10
-24.2358
 20
-6.0278
 30
0.0
 10
-24.1162
 20
-6.0119
 30
0.0
 10
-24.0025
 20
-5.9747
 30
0.0
 10
-24.0025
 20
-5.9747
 30
0.0
 10
-23.3317
 20
-5.7594
 30
0.0
 10
-23.0972
 20
-4.9013
 30
0.0
 10
-23.5587
 20
-4.3705
 30
0.0
 10
-23.5587
 20
-4.3705
 30
0.0
 10
-23.6368
 20
-4.2806
 30
0.0
 10
-23.733
 20
-4.2071
 30
0.0
 10
-23.8358
 20
-4.1494
 30
0.0
 10
-23.8358
 20
-4.1494
 30
0.0
 10
-23.9984
 20
-4.0637
 30
0.0
 10
-24.1722
 20
-4.0328
 30
0.0
 10
-24.3536
 20
-4.0328
 30
0.0
 10
-24.3536
 20
-4.0328
 30
0.0
 10
-24.4744
 20
-4.0432
 30
0.0
 10
-24.5894
 20
-4.0637
 30
0.0
 10
-24.7001
 20
-4.111
 30
0.0
 10
-24.7001
 20
-4.111
 30
0.0
 10
-25.0759
 20
-4.2702
 30
0.0
 10
-25.2882
 20
-4.6284
 30
0.0
 10
-25.3062
 20
-5.0284
 30
0.0
  0
SPLINE
  5
9A
330
1F
100
AcDbEntity
  8
Ilustrace
 62
   250
370
    30
100
AcDbSpline
210
0.0
220
0.0
230
1.0
 70
    11
 71
     3
 72
    40
 73
    36
 74
     0
 42
0.0000000001
 43
0.0000000001
 40
0.0
 40
0.0
 40
0.0
 40
0.0
 40
0.1
 40
0.1
 40
0.1
 40
0.1
 40
0.2
 40
0.2
 40
0.2
 40
0.2
 40
0.3
 40
0.3
 40
0.3
 40
0.3
 40
0.4
 40
0.4
 40
0.4
 40
0.4
 40
0.5
 40
0.5
 40
0.5
 40
0.5
 40
0.6
 40
0.6
 40
0.6
 40
0.6
 40
0.7
 40
0.7
 40
0.7
 40
0.7
 40
0.8
 40
0.8
 40
0.8
 40
0.8
 40
1.0
 40
1.0
 40
1.0
 40
1.0
 10
-25.3062
 20
-0.7008
 30
0.0
 10
-25.2957
 20
-0.4851
 30
0.0
 10
-25.2427
 20
-0.2891
 30
0.0
 10
-25.116
 20
-0.1123
 30
0.0
 10
-25.116
 20
-0.1123
 30
0.0
 10
-25.0274
 20
0.0073
 30
0.0
 10
-24.9125
 20
0.1076
 30
0.0
 10
-24.7812
 20
0.1782
 30
0.0
 10
-24.7812
 20
0.1782
 30
0.0
 10
-24.65
 20
0.2489
 30
0.0
 10
-24.5024
 20
0.2902
 30
0.0
 10
-24.3536
 20
0.2978
 30
0.0
 10
-24.3536
 20
0.2978
 30
0.0
 10
-23.6899
 20
0.327
 30
0.0
 10
-23.1725
 20
-0.3217
 30
0.0
 10
-23.3493
 20
-0.9662
 30
0.0
 10
-23.3493
 20
-0.9662
 30
0.0
 10
-23.3789
 20
-1.0811
 30
0.0
 10
-23.432
 20
-1.1902
 30
0.0
 10
-23.5027
 20
-1.2859
 30
0.0
 10
-23.5027
 20
-1.2859
 30
0.0
 10
-23.5737
 20
-1.3816
 30
0.0
 10
-23.6619
 20
-1.4673
 30
0.0
 10
-23.761
 20
-1.5308
 30
0.0
 10
-23.761
 20
-1.5308
 30
0.0
 10
-23.9127
 20
-1.6341
 30
0.0
 10
-24.0836
 20
-1.6796
 30
0.0
 10
-24.2638
 20
-1.6943
 30
0.0
 10
-24.2638
 20
-1.6943
 30
0.0
 10
-24.3875
 20
-1.6943
 30
0.0
 10
-24.5024
 20
-1.6872
 30
0.0
 10
-24.6191
 20
-1.647
 30
0.0
 10
-24.6191
 20
-1.647
 30
0.0
 10
-25.0379
 20
-1.5099
 30
0.0
 10
-25.2882
 20
-1.1296
 30
0.0
 10
-25.3062
 20
-0.7008
 30
0.0
  0
SPLINE
  5
9B
330
1F
100
AcDbEntity
  8
Ilustrace
 62
   250
370
    30
100
AcDbSpline
210
0.0
220
0.0
230
1.0
 70
    11
 71
     3
 72
    40
 73
    36
 74
     0
 42
0.0000000001
 43
0.0000000001
 40
0.0
 40
0.0
 40
0.0
 40
0.0
 40
0.1
 40
0.1
 40
0.1
 40
0.1
 40
0.2
 40
0.2
 40
0.2
 40
0.2
 40
0.3
 40
0.3
 40
0.3
 40
0.3
 40
0.4
 40
0.4
 40
0.4
 40
0.4
 40
0.5
 40
0.5
 40
0.5
 40
0.5
 40
0.6
 40
0.6
 40
0.6
 40
0.6
 40
0.7
 40
0.7
 40
0.7
 40
0.7
 40
0.8
 40
0.8
 40
0.8
 40
0.8
 40
1.0
 40
1.0
 40
1.0
 40
1.0
 10
-25.3062
 20
-9.3573
 30
0.0
 10
-25.2957
 20
-9.1437
 30
0.0
 10
-25.2427
 20
-8.946
 30
0.0
 10
-25.116
 20
-8.7688
 30
0.0
 10
-25.116
 20
-8.7688
 30
0.0
 10
-25.0274
 20
-8.648
 30
0.0
 10
-24.9125
 20
-8.5493
 30
0.0
 10
-24.7812
 20
-8.477
 30
0.0
 10
-24.7812
 20
-8.477
 30
0.0
 10
-24.65
 20
-8.4064
 30
0.0
 10
-24.5024
 20
-8.368
 30
0.0
 10
-24.3536
 20
-8.3604
 30
0.0
 10
-24.3536
 20
-8.3604
 30
0.0
 10
-24.2358
 20
-8.3533
 30
0.0
 10
-24.1162
 20
-8.3709
 30
0.0
 10
-24.0025
 20
-8.4064
 30
0.0
 10
-24.0025
 20
-8.4064
 30
0.0
 10
-23.8889
 20
-8.4461
 30
0.0
 10
-23.7814
 20
-8.5021
 30
0.0
 10
-23.687
 20
-8.5774
 30
0.0
 10
-23.687
 20
-8.5774
 30
0.0
 10
-23.1679
 20
-8.9916
 30
0.0
 10
-23.2051
 20
-9.8204
 30
0.0
 10
-23.761
 20
-10.189
 30
0.0
 10
-23.761
 20
-10.189
 30
0.0
 10
-23.9127
 20
-10.2893
 30
0.0
 10
-24.0836
 20
-10.3349
 30
0.0
 10
-24.2638
 20
-10.3525
 30
0.0
 10
-24.2638
 20
-10.3525
 30
0.0
 10
-24.6943
 20
-10.3525
 30
0.0
 10
-25.0863
 20
-10.1197
 30
0.0
 10
-25.2427
 20
-9.7067
 30
0.0
 10
-25.2427
 20
-9.7067
 30
0.0
 10
-25.2853
 20
-9.5934
 30
0.0
 10
-25.3003
 20
-9.4768
 30
0.0
 10
-25.3062
 20
-9.3573
 30
0.0
  0
SPLINE
  5
9C
330
1F
100
AcDbEntity
  8
Ilustrace
 62
   250
370
    30
100
AcDbSpline
210
0.0
220
0.0
230
1.0
 70
    11
 71
     3
 72
    36
 73
    32
 74
     0
 42
0.0000000001
 43
0.0000000001
 40
0.0
 40
0.0
 40
0.0
 40
0.0
 40
0.1111111111111111
 40
0.1111111111111111
 40
0.1111111111111111
 40
0.1111111111111111
 40
0.2222222222222222
 40
0.2222222222222222
 40
0.2222222222222222
 40
0.2222222222222222
 40
0.3333333333333333
 40
0.3333333333333333
 40
0.3333333333333333
 40
0.3333333333333333
 40
0.4444444444444444
 40
0.4444444444444444
 40
0.4444444444444444
 40
0.4444444444444444
 40
0.5555555555555556
 40
0.5555555555555556
 40
0.5555555555555556
 40
0.5555555555555556
 40
0.6666666666666666
 40
0.6666666666666666
 40
0.6666666666666666
 40
0.6666666666666666
 40
0.7777777777777778
 40
0.7777777777777778
 40
0.7777777777777778
 40
0.7777777777777778
 40
1.0
 40
1.0
 40
1.0
 40
1.0
 10
-29.4921
 20
-0.7008
 30
0.0
 10
-29.4846
 20
-0.5382
 30
0.0
 10
-29.4495
 20
-0.3894
 30
0.0
 10
-29.3638
 20
-0.251
 30
0.0
 10
-29.3638
 20
-0.251
 30
0.0
 10
-29.3078
 20
-0.1595
 30
0.0
 10
-29.2372
 20
-0.0813
 30
0.0
 10
-29.1515
 20
-0.0165
 30
0.0
 10
-29.1515
 20
-0.0165
 30
0.0
 10
-29.0675
 20
0.047
 30
0.0
 10
-28.9718
 20
0.0925
 30
0.0
 10
-28.8715
 20
0.1239
 30
0.0
 10
-28.8715
 20
0.1239
 30
0.0
 10
-28.3022
 20
0.2844
 30
0.0
 10
-27.73
 20
-0.1904
 30
0.0
 10
-27.7847
 20
-0.7785
 30
0.0
 10
-27.7847
 20
-0.7785
 30
0.0
 10
-27.7981
 20
-0.9097
 30
0.0
 10
-27.8407
 20
-1.0381
 30
0.0
 10
-27.9114
 20
-1.1501
 30
0.0
 10
-27.9114
 20
-1.1501
 30
0.0
 10
-27.9795
 20
-1.2608
 30
0.0
 10
-28.0752
 20
-1.3565
 30
0.0
 10
-28.1872
 20
-1.4276
 30
0.0
 10
-28.1872
 20
-1.4276
 30
0.0
 10
-28.326
 20
-1.5129
 30
0.0
 10
-28.4748
 20
-1.5455
 30
0.0
 10
-28.6382
 20
-1.553
 30
0.0
 10
-28.6382
 20
-1.553
 30
0.0
 10
-29.1176
 20
-1.5308
 30
0.0
 10
-29.4687
 20
-1.1797
 30
0.0
 10
-29.4921
 20
-0.7008
 30
0.0
  0
SPLINE
  5
9D
330
1F
100
AcDbEntity
  8
Ilustrace
 62
   250
370
    30
100
AcDbSpline
210
0.0
220
0.0
230
1.0
 70
    11
 71
     3
 72
    36
 73
    32
 74
     0
 42
0.0000000001
 43
0.0000000001
 40
0.0
 40
0.0
 40
0.0
 40
0.0
 40
0.1111111111111111
 40
0.1111111111111111
 40
0.1111111111111111
 40
0.1111111111111111
 40
0.2222222222222222
 40
0.2222222222222222
 40
0.2222222222222222
 40
0.2222222222222222
 40
0.3333333333333333
 40
0.3333333333333333
 40
0.3333333333333333
 40
0.3333333333333333
 40
0.4444444444444444
 40
0.4444444444444444
 40
0.4444444444444444
 40
0.4444444444444444
 40
0.5555555555555556
 40
0.5555555555555556
 40
0.5555555555555556
 40
0.5555555555555556
 40
0.6666666666666666
 40
0.6666666666666666
 40
0.6666666666666666
 40
0.6666666666666666
 40
0.7777777777777778
 40
0.7777777777777778
 40
0.7777777777777778
 40
0.7777777777777778
 40
1.0
 40
1.0
 40
1.0
 40
1.0
 10
-29.4921
 20
-13.6849
 30
0.0
 10
-29.4846
 20
-13.8442
 30
0.0
 10
-29.4495
 20
-13.9959
 30
0.0
 10
-29.3638
 20
-14.1346
 30
0.0
 10
-29.3638
 20
-14.1346
 30
0.0
 10
-29.3078
 20
-14.2233
 30
0.0
 10
-29.2372
 20
-14.3043
 30
0.0
 10
-29.1515
 20
-14.3675
 30
0.0
 10
-29.1515
 20
-14.3675
 30
0.0
 10
-28.6813
 20
-14.7231
 30
0.0
 10
-27.9762
 20
-14.4857
 30
0.0
 10
-27.8157
 20
-13.9181
 30
0.0
 10
-27.8157
 20
-13.9181
 30
0.0
 10
-27.7877
 20
-13.8162
 30
0.0
 10
-27.7772
 20
-13.71
 30
0.0
 10
-27.7847
 20
-13.6068
 30
0.0
 10
-27.7847
 20
-13.6068
 30
0.0
 10
-27.7981
 20
-13.4755
 30
0.0
 10
-27.8407
 20
-13.3472
 30
0.0
 10
-27.9114
 20
-13.2339
 30
0.0
 10
-27.9114
 20
-13.2339
 30
0.0
 10
-27.9795
 20
-13.1215
 30
0.0
 10
-28.0752
 20
-13.0258
 30
0.0
 10
-28.1872
 20
-12.9581
 30
0.0
 10
-28.1872
 20
-12.9581
 30
0.0
 10
-28.326
 20
-12.8724
 30
0.0
 10
-28.4748
 20
-12.8373
 30
0.0
 10
-28.6382
 20
-12.8298
 30
0.0
 10
-28.6382
 20
-12.8298
 30
0.0
 10
-29.1176
 20
-12.8519
 30
0.0
 10
-29.4687
 20
-13.203
 30
0.0
 10
-29.4921
 20
-13.6849
 30
0.0
  0
SPLINE
  5
9E
330
1F
100
AcDbEntity
  8
Ilustrace
 62
   250
370
    30
100
AcDbSpline
210
0.0
220
0.0
230
1.0
 70
    11
 71
     3
 72
    40
 73
    36
 74
     0
 42
0.0000000001
 43
0.0000000001
 40
0.0
 40
0.0
 40
0.0
 40
0.0
 40
0.1
 40
0.1
 40
0.1
 40
0.1
 40
0.2
 40
0.2
 40
0.2
 40
0.2
 40
0.3
 40
0.3
 40
0.3
 40
0.3
 40
0.4
 40
0.4
 40
0.4
 40
0.4
 40
0.5
 40
0.5
 40
0.5
 40
0.5
 40
0.6
 40
0.6
 40
0.6
 40
0.6
 40
0.7
 40
0.7
 40
0.7
 40
0.7
 40
0.8
 40
0.8
 40
0.8
 40
0.8
 40
1.0
 40
1.0
 40
1.0
 40
1.0
 10
-29.6338
 20
-5.0284
 30
0.0
 10
-29.6263
 20
-4.8453
 30
0.0
 10
-29.5878
 20
-4.6744
 30
0.0
 10
-29.4921
 20
-4.5151
 30
0.0
 10
-29.4921
 20
-4.5151
 30
0.0
 10
-29.4169
 20
-4.3881
 30
0.0
 10
-29.3107
 20
-4.2777
 30
0.0
 10
-29.187
 20
-4.1966
 30
0.0
 10
-29.187
 20
-4.1966
 30
0.0
 10
-29.085
 20
-4.1289
 30
0.0
 10
-28.9747
 20
-4.083
 30
0.0
 10
-28.8581
 20
-4.0549
 30
0.0
 10
-28.8581
 20
-4.0549
 30
0.0
 10
-28.7415
 20
-4.0299
 30
0.0
 10
-28.6207
 20
-4.0228
 30
0.0
 10
-28.5028
 20
-4.0403
 30
0.0
 10
-28.5028
 20
-4.0403
 30
0.0
 10
-27.8437
 20
-4.1289
 30
0.0
 10
-27.4499
 20
-4.8616
 30
0.0
 10
-27.7375
 20
-5.4618
 30
0.0
 10
-27.7375
 20
-5.4618
 30
0.0
 10
-27.8023
 20
-5.596
 30
0.0
 10
-27.898
 20
-5.7139
 30
0.0
 10
-28.0146
 20
-5.8083
 30
0.0
 10
-28.0146
 20
-5.8083
 30
0.0
 10
-28.1843
 20
-5.9425
 30
0.0
 10
-28.3791
 20
-6.0043
 30
0.0
 10
-28.5927
 20
-6.0248
 30
0.0
 10
-28.5927
 20
-6.0248
 30
0.0
 10
-28.7122
 20
-6.0248
 30
0.0
 10
-28.8301
 20
-6.0148
 30
0.0
 10
-28.9467
 20
-5.9747
 30
0.0
 10
-28.9467
 20
-5.9747
 30
0.0
 10
-29.3655
 20
-5.8405
 30
0.0
 10
-29.6159
 20
-5.4572
 30
0.0
 10
-29.6338
 20
-5.0284
 30
0.0
  0
SPLINE
  5
9F
330
1F
100
AcDbEntity
  8
Ilustrace
 62
   250
370
    30
100
AcDbSpline
210
0.0
220
0.0
230
1.0
 70
    11
 71
     3
 72
    40
 73
    36
 74
     0
 42
0.0000000001
 43
0.0000000001
 40
0.0
 40
0.0
 40
0.0
 40
0.0
 40
0.1
 40
0.1
 40
0.1
 40
0.1
 40
0.2
 40
0.2
 40
0.2
 40
0.2
 40
0.3
 40
0.3
 40
0.3
 40
0.3
 40
0.4
 40
0.4
 40
0.4
 40
0.4
 40
0.5
 40
0.5
 40
0.5
 40
0.5
 40
0.6
 40
0.6
 40
0.6
 40
0.6
 40
0.7
 40
0.7
 40
0.7
 40
0.7
 40
0.8
 40
0.8
 40
0.8
 40
0.8
 40
1.0
 40
1.0
 40
1.0
 40
1.0
 10
-29.6338
 20
-9.3573
 30
0.0
 10
-29.6263
 20
-9.537
 30
0.0
 10
-29.5878
 20
-9.7084
 30
0.0
 10
-29.4921
 20
-9.8676
 30
0.0
 10
-29.4921
 20
-9.8676
 30
0.0
 10
-29.4169
 20
-9.9943
 30
0.0
 10
-29.3107
 20
-10.105
 30
0.0
 10
-29.187
 20
-10.189
 30
0.0
 10
-29.187
 20
-10.189
 30
0.0
 10
-29.085
 20
-10.2538
 30
0.0
 10
-28.9747
 20
-10.3023
 30
0.0
 10
-28.8581
 20
-10.3274
 30
0.0
 10
-28.8581
 20
-10.3274
 30
0.0
 10
-28.7415
 20
-10.3554
 30
0.0
 10
-28.6207
 20
-10.36
 30
0.0
 10
-28.5028
 20
-10.3454
 30
0.0
 10
-28.5028
 20
-10.3454
 30
0.0
 10
-27.8052
 20
-10.2492
 30
0.0
 10
-27.419
 20
-9.4488
 30
0.0
 10
-27.7801
 20
-8.8457
 30
0.0
 10
-27.7801
 20
-8.8457
 30
0.0
 10
-27.8583
 20
-8.7157
 30
0.0
 10
-27.9645
 20
-8.6054
 30
0.0
 10
-28.0886
 20
-8.5243
 30
0.0
 10
-28.0886
 20
-8.5243
 30
0.0
 10
-28.2667
 20
-8.4064
 30
0.0
 10
-28.4673
 20
-8.3604
 30
0.0
 10
-28.6813
 20
-8.3604
 30
0.0
 10
-28.6813
 20
-8.3604
 30
0.0
 10
-28.8021
 20
-8.3709
 30
0.0
 10
-28.9158
 20
-8.3901
 30
0.0
 10
-29.0278
 20
-8.4386
 30
0.0
 10
-29.0278
 20
-8.4386
 30
0.0
 10
-29.4035
 20
-8.6008
 30
0.0
 10
-29.6159
 20
-8.9565
 30
0.0
 10
-29.6338
 20
-9.3573
 30
0.0
  0
SPLINE
  5
A0
330
1F
100
AcDbEntity
  8
Ilustrace
 62
   250
370
    30
100
AcDbSpline
210
0.0
220
0.0
230
1.0
 70
    11
 71
     3
 72
    36
 73
    32
 74
     0
 42
0.0000000001
 43
0.0000000001
 40
0.0
 40
0.0
 40
0.0
 40
0.0
 40
0.1111111111111111
 40
0.1111111111111111
 40
0.1111111111111111
 40
0.1111111111111111
 40
0.2222222222222222
 40
0.2222222222222222
 40
0.2222222222222222
 40
0.2222222222222222
 40
0.3333333333333333
 40
0.3333333333333333
 40
0.3333333333333333
 40
0.3333333333333333
 40
0.4444444444444444
 40
0.4444444444444444
 40
0.4444444444444444
 40
0.4444444444444444
 40
0.5555555555555556
 40
0.5555555555555556
 40
0.5555555555555556
 40
0.5555555555555556
 40
0.6666666666666666
 40
0.6666666666666666
 40
0.6666666666666666
 40
0.6666666666666666
 40
0.7777777777777778
 40
0.7777777777777778
 40
0.7777777777777778
 40
0.7777777777777778
 40
1.0
 40
1.0
 40
1.0
 40
1.0
 10
-33.8198
 20
-5.0284
 30
0.0
 10
-33.8122
 20
-4.8658
 30
0.0
 10
-33.7771
 20
-4.717
 30
0.0
 10
-33.6902
 20
-4.5787
 30
0.0
 10
-33.6902
 20
-4.5787
 30
0.0
 10
-33.6221
 20
-4.465
 30
0.0
 10
-33.5264
 20
-4.3693
 30
0.0
 10
-33.4156
 20
-4.3028
 30
0.0
 10
-33.4156
 20
-4.3028
 30
0.0
 10
-33.3023
 20
-4.2322
 30
0.0
 10
-33.1753
 20
-4.1891
 30
0.0
 10
-33.044
 20
-4.1774
 30
0.0
 10
-33.044
 20
-4.1774
 30
0.0
 10
-32.4559
 20
-4.1214
 30
0.0
 10
-31.9811
 20
-4.6949
 30
0.0
 10
-32.1433
 20
-5.2625
 30
0.0
 10
-32.1433
 20
-5.2625
 30
0.0
 10
-32.1713
 20
-5.3628
 30
0.0
 10
-32.2185
 20
-5.4589
 30
0.0
 10
-32.2821
 20
-5.5429
 30
0.0
 10
-32.2821
 20
-5.5429
 30
0.0
 10
-32.3452
 20
-5.6282
 30
0.0
 10
-32.4263
 20
-5.6992
 30
0.0
 10
-32.5149
 20
-5.7552
 30
0.0
 10
-32.5149
 20
-5.7552
 30
0.0
 10
-32.6536
 20
-5.8405
 30
0.0
 10
-32.8024
 20
-5.876
 30
0.0
 10
-32.9629
 20
-5.8836
 30
0.0
 10
-32.9629
 20
-5.8836
 30
0.0
 10
-33.4453
 20
-5.8614
 30
0.0
 10
-33.7964
 20
-5.5103
 30
0.0
 10
-33.8198
 20
-5.0284
 30
0.0
  0
SPLINE
  5
A1
330
1F
100
AcDbEntity
  8
Ilustrace
 62
   250
370
    30
100
AcDbSpline
210
0.0
220
0.0
230
1.0
 70
    11
 71
     3
 72
    36
 73
    32
 74
     0
 42
0.0000000001
 43
0.0000000001
 40
0.0
 40
0.0
 40
0.0
 40
0.0
 40
0.1111111111111111
 40
0.1111111111111111
 40
0.1111111111111111
 40
0.1111111111111111
 40
0.2222222222222222
 40
0.2222222222222222
 40
0.2222222222222222
 40
0.2222222222222222
 40
0.3333333333333333
 40
0.3333333333333333
 40
0.3333333333333333
 40
0.3333333333333333
 40
0.4444444444444444
 40
0.4444444444444444
 40
0.4444444444444444
 40
0.4444444444444444
 40
0.5555555555555556
 40
0.5555555555555556
 40
0.5555555555555556
 40
0.5555555555555556
 40
0.6666666666666666
 40
0.6666666666666666
 40
0.6666666666666666
 40
0.6666666666666666
 40
0.7777777777777778
 40
0.7777777777777778
 40
0.7777777777777778
 40
0.7777777777777778
 40
1.0
 40
1.0
 40
1.0
 40
1.0
 10
-33.8198
 20
-13.6849
 30
0.0
 10
-33.8122
 20
-13.5244
 30
0.0
 10
-33.7771
 20
-13.3723
 30
0.0
 10
-33.6902
 20
-13.2339
 30
0.0
 10
-33.6902
 20
-13.2339
 30
0.0
 10
-33.6221
 20
-13.1215
 30
0.0
 10
-33.5264
 20
-13.0258
 30
0.0
 10
-33.4156
 20
-12.9581
 30
0.0
 10
-33.4156
 20
-12.9581
 30
0.0
 10
-33.3245
 20
-12.9021
 30
0.0
 10
-33.2242
 20
-12.8624
 30
0.0
 10
-33.1222
 20
-12.8444
 30
0.0
 10
-33.1222
 20
-12.8444
 30
0.0
 10
-32.54
 20
-12.7353
 30
0.0
 10
-32.0167
 20
-13.2619
 30
0.0
 10
-32.1257
 20
-13.8412
 30
0.0
 10
-32.1257
 20
-13.8412
 30
0.0
 10
-32.1433
 20
-13.9461
 30
0.0
 10
-32.183
 20
-14.0431
 30
0.0
 10
-32.239
 20
-14.1346
 30
0.0
 10
-32.239
 20
-14.1346
 30
0.0
 10
-32.3071
 20
-14.2454
 30
0.0
 10
-32.4029
 20
-14.3411
 30
0.0
 10
-32.5149
 20
-14.4105
 30
0.0
 10
-32.5149
 20
-14.4105
 30
0.0
 10
-32.6536
 20
-14.4958
 30
0.0
 10
-32.8024
 20
-14.5313
 30
0.0
 10
-32.9629
 20
-14.5388
 30
0.0
 10
-32.9629
 20
-14.5388
 30
0.0
 10
-33.4453
 20
-14.5167
 30
0.0
 10
-33.7964
 20
-14.1672
 30
0.0
 10
-33.8198
 20
-13.6849
 30
0.0
  0
SPLINE
  5
A2
330
1F
100
AcDbEntity
  8
Ilustrace
 62
   250
370
    30
100
AcDbSpline
210
0.0
220
0.0
230
1.0
 70
    11
 71
     3
 72
    40
 73
    36
 74
     0
 42
0.0000000001
 43
0.0000000001
 40
0.0
 40
0.0
 40
0.0
 40
0.0
 40
0.1
 40
0.1
 40
0.1
 40
0.1
 40
0.2
 40
0.2
 40
0.2
 40
0.2
 40
0.3
 40
0.3
 40
0.3
 40
0.3
 40
0.4
 40
0.4
 40
0.4
 40
0.4
 40
0.5
 40
0.5
 40
0.5
 40
0.5
 40
0.6
 40
0.6
 40
0.6
 40
0.6
 40
0.7
 40
0.7
 40
0.7
 40
0.7
 40
0.8
 40
0.8
 40
0.8
 40
0.8
 40
1.0
 40
1.0
 40
1.0
 40
1.0
 10
-33.9615
 20
-9.3573
 30
0.0
 10
-33.951
 20
-9.5696
 30
0.0
 10
-33.8979
 20
-9.7673
 30
0.0
 10
-33.7713
 20
-9.9412
 30
0.0
 10
-33.7713
 20
-9.9412
 30
0.0
 10
-33.6827
 20
-10.062
 30
0.0
 10
-33.569
 20
-10.164
 30
0.0
 10
-33.4377
 20
-10.2333
 30
0.0
 10
-33.4377
 20
-10.2333
 30
0.0
 10
-33.3316
 20
-10.2893
 30
0.0
 10
-33.2183
 20
-10.3274
 30
0.0
 10
-33.0971
 20
-10.3454
 30
0.0
 10
-33.0971
 20
-10.3454
 30
0.0
 10
-32.4029
 20
-10.4381
 30
0.0
 10
-31.8173
 20
-9.7673
 30
0.0
 10
-32.0045
 20
-9.0906
 30
0.0
 10
-32.0045
 20
-9.0906
 30
0.0
 10
-32.0342
 20
-8.9769
 30
0.0
 10
-32.0873
 20
-8.8678
 30
0.0
 10
-32.1579
 20
-8.7688
 30
0.0
 10
-32.1579
 20
-8.7688
 30
0.0
 10
-32.2465
 20
-8.648
 30
0.0
 10
-32.3602
 20
-8.5493
 30
0.0
 10
-32.4915
 20
-8.477
 30
0.0
 10
-32.4915
 20
-8.477
 30
0.0
 10
-32.6536
 20
-8.3901
 30
0.0
 10
-32.8275
 20
-8.3604
 30
0.0
 10
-33.0089
 20
-8.3604
 30
0.0
 10
-33.0089
 20
-8.3604
 30
0.0
 10
-33.4056
 20
-8.396
 30
0.0
 10
-33.7533
 20
-8.6229
 30
0.0
 10
-33.8979
 20
-9.0062
 30
0.0
 10
-33.8979
 20
-9.0062
 30
0.0
 10
-33.9406
 20
-9.1199
 30
0.0
 10
-33.9556
 20
-9.2365
 30
0.0
 10
-33.9615
 20
-9.3573
 30
0.0
  0
SPLINE
  5
A3
330
1F
100
AcDbEntity
  8
Ilustrace
 62
   250
370
    30
100
AcDbSpline
210
0.0
220
0.0
230
1.0
 70
    11
 71
     3
 72
    36
 73
    32
 74
     0
 42
0.0000000001
 43
0.0000000001
 40
0.0
 40
0.0
 40
0.0
 40
0.0
 40
0.1111111111111111
 40
0.1111111111111111
 40
0.1111111111111111
 40
0.1111111111111111
 40
0.2222222222222222
 40
0.2222222222222222
 40
0.2222222222222222
 40
0.2222222222222222
 40
0.3333333333333333
 40
0.3333333333333333
 40
0.3333333333333333
 40
0.3333333333333333
 40
0.4444444444444444
 40
0.4444444444444444
 40
0.4444444444444444
 40
0.4444444444444444
 40
0.5555555555555556
 40
0.5555555555555556
 40
0.5555555555555556
 40
0.5555555555555556
 40
0.6666666666666666
 40
0.6666666666666666
 40
0.6666666666666666
 40
0.6666666666666666
 40
0.7777777777777778
 40
0.7777777777777778
 40
0.7777777777777778
 40
0.7777777777777778
 40
1.0
 40
1.0
 40
1.0
 40
1.0
 10
-38.1474
 20
-13.6849
 30
0.0
 10
-38.1399
 20
-13.5244
 30
0.0
 10
-38.1048
 20
-13.3723
 30
0.0
 10
-38.0178
 20
-13.2339
 30
0.0
 10
-38.0178
 20
-13.2339
 30
0.0
 10
-37.9631
 20
-13.1453
 30
0.0
 10
-37.8924
 20
-13.0672
 30
0.0
 10
-37.8084
 20
-13.0036
 30
0.0
 10
-37.8084
 20
-13.0036
 30
0.0
 10
-37.3365
 20
-12.6454
 30
0.0
 10
-36.6319
 20
-12.8828
 30
0.0
 10
-36.4709
 20
-13.4504
 30
0.0
 10
-36.4709
 20
-13.4504
 30
0.0
 10
-36.44
 20
-13.5507
 30
0.0
 10
-36.4325
 20
-13.6569
 30
0.0
 10
-36.44
 20
-13.7631
 30
0.0
 10
-36.44
 20
-13.7631
 30
0.0
 10
-36.4534
 20
-13.8943
 30
0.0
 10
-36.496
 20
-14.021
 30
0.0
 10
-36.5666
 20
-14.1346
 30
0.0
 10
-36.5666
 20
-14.1346
 30
0.0
 10
-36.6348
 20
-14.2454
 30
0.0
 10
-36.7305
 20
-14.3411
 30
0.0
 10
-36.8408
 20
-14.4105
 30
0.0
 10
-36.8408
 20
-14.4105
 30
0.0
 10
-36.9813
 20
-14.4958
 30
0.0
 10
-37.1301
 20
-14.5313
 30
0.0
 10
-37.2906
 20
-14.5388
 30
0.0
 10
-37.2906
 20
-14.5388
 30
0.0
 10
-37.7729
 20
-14.5167
 30
0.0
 10
-38.124
 20
-14.1672
 30
0.0
 10
-38.1474
 20
-13.6849
 30
0.0
  0
SPLINE
  5
A4
330
1F
100
AcDbEntity
  8
Ilustrace
 62
   250
370
    30
100
AcDbSpline
210
0.0
220
0.0
230
1.0
 70
    11
 71
     3
 72
    36
 73
    32
 74
     0
 42
0.0000000001
 43
0.0000000001
 40
0.0
 40
0.0
 40
0.0
 40
0.0
 40
0.1111111111111111
 40
0.1111111111111111
 40
0.1111111111111111
 40
0.1111111111111111
 40
0.2222222222222222
 40
0.2222222222222222
 40
0.2222222222222222
 40
0.2222222222222222
 40
0.3333333333333333
 40
0.3333333333333333
 40
0.3333333333333333
 40
0.3333333333333333
 40
0.4444444444444444
 40
0.4444444444444444
 40
0.4444444444444444
 40
0.4444444444444444
 40
0.5555555555555556
 40
0.5555555555555556
 40
0.5555555555555556
 40
0.5555555555555556
 40
0.6666666666666666
 40
0.6666666666666666
 40
0.6666666666666666
 40
0.6666666666666666
 40
0.7777777777777778
 40
0.7777777777777778
 40
0.7777777777777778
 40
0.7777777777777778
 40
1.0
 40
1.0
 40
1.0
 40
1.0
 10
-38.1474
 20
-9.3573
 30
0.0
 10
-38.1399
 20
-9.1934
 30
0.0
 10
-38.1048
 20
-9.0446
 30
0.0
 10
-38.0178
 20
-8.9063
 30
0.0
 10
-38.0178
 20
-8.9063
 30
0.0
 10
-37.9497
 20
-8.7939
 30
0.0
 10
-37.854
 20
-8.6981
 30
0.0
 10
-37.7432
 20
-8.6304
 30
0.0
 10
-37.7432
 20
-8.6304
 30
0.0
 10
-37.6521
 20
-8.5728
 30
0.0
 10
-37.5518
 20
-8.5347
 30
0.0
 10
-37.4498
 20
-8.5167
 30
0.0
 10
-37.4498
 20
-8.5167
 30
0.0
 10
-37.3466
 20
-8.4963
 30
0.0
 10
-37.2375
 20
-8.4963
 30
0.0
 10
-37.1342
 20
-8.5167
 30
0.0
 10
-37.1342
 20
-8.5167
 30
0.0
 10
-36.5537
 20
-8.6258
 30
0.0
 10
-36.2557
 20
-9.3042
 30
0.0
 10
-36.5666
 20
-9.807
 30
0.0
 10
-36.5666
 20
-9.807
 30
0.0
 10
-36.6348
 20
-9.9178
 30
0.0
 10
-36.7305
 20
-10.0118
 30
0.0
 10
-36.8408
 20
-10.0829
 30
0.0
 10
-36.8408
 20
-10.0829
 30
0.0
 10
-36.9813
 20
-10.1681
 30
0.0
 10
-37.1301
 20
-10.2037
 30
0.0
 10
-37.2906
 20
-10.2112
 30
0.0
 10
-37.2906
 20
-10.2112
 30
0.0
 10
-37.7729
 20
-10.189
 30
0.0
 10
-38.124
 20
-9.8379
 30
0.0
 10
-38.1474
 20
-9.3573
 30
0.0
  0
SPLINE
  5
A5
330
1F
100
AcDbEntity
  8
Ilustrace
 62
   250
370
    30
100
AcDbSpline
210
0.0
220
0.0
230
1.0
 70
    11
 71
     3
 72
    36
 73
    32
 74
     0
 42
0.0000000001
 43
0.0000000001
 40
0.0
 40
0.0
 40
0.0
 40
0.0
 40
0.1111111111111111
 40
0.1111111111111111
 40
0.1111111111111111
 40
0.1111111111111111
 40
0.2222222222222222
 40
0.2222222222222222
 40
0.2222222222222222
 40
0.2222222222222222
 40
0.3333333333333333
 40
0.3333333333333333
 40
0.3333333333333333
 40
0.3333333333333333
 40
0.4444444444444444
 40
0.4444444444444444
 40
0.4444444444444444
 40
0.4444444444444444
 40
0.5555555555555556
 40
0.5555555555555556
 40
0.5555555555555556
 40
0.5555555555555556
 40
0.6666666666666666
 40
0.6666666666666666
 40
0.6666666666666666
 40
0.6666666666666666
 40
0.7777777777777778
 40
0.7777777777777778
 40
0.7777777777777778
 40
0.7777777777777778
 40
1.0
 40
1.0
 40
1.0
 40
1.0
 10
-42.475
 20
-13.6849
 30
0.0
 10
-42.4675
 20
-13.8442
 30
0.0
 10
-42.4337
 20
-13.9959
 30
0.0
 10
-42.3455
 20
-14.1346
 30
0.0
 10
-42.3455
 20
-14.1346
 30
0.0
 10
-42.2773
 20
-14.2454
 30
0.0
 10
-42.1816
 20
-14.3411
 30
0.0
 10
-42.0709
 20
-14.4105
 30
0.0
 10
-42.0709
 20
-14.4105
 30
0.0
 10
-41.9576
 20
-14.4811
 30
0.0
 10
-41.8305
 20
-14.5238
 30
0.0
 10
-41.6993
 20
-14.5359
 30
0.0
 10
-41.6993
 20
-14.5359
 30
0.0
 10
-41.1112
 20
-14.589
 30
0.0
 10
-40.6364
 20
-14.018
 30
0.0
 10
-40.7986
 20
-13.4504
 30
0.0
 10
-40.7986
 20
-13.4504
 30
0.0
 10
-40.8266
 20
-13.3489
 30
0.0
 10
-40.8738
 20
-13.2527
 30
0.0
 10
-40.9373
 20
-13.1704
 30
0.0
 10
-40.9373
 20
-13.1704
 30
0.0
 10
-41.0004
 20
-13.0847
 30
0.0
 10
-41.0803
 20
-13.0141
 30
0.0
 10
-41.1685
 20
-12.9581
 30
0.0
 10
-41.1685
 20
-12.9581
 30
0.0
 10
-41.3089
 20
-12.8724
 30
0.0
 10
-41.459
 20
-12.8373
 30
0.0
 10
-41.6182
 20
-12.8298
 30
0.0
 10
-41.6182
 20
-12.8298
 30
0.0
 10
-42.1005
 20
-12.8519
 30
0.0
 10
-42.4516
 20
-13.203
 30
0.0
 10
-42.475
 20
-13.6849
 30
0.0
  0
SPLINE
  5
A6
330
1F
100
AcDbEntity
  8
Ilustrace
 62
   250
370
    15
100
AcDbSpline
210
0.0
220
0.0
230
1.0
 70
    24
 71
     3
 72
     8
 73
     4
 74
     0
 42
0.0000000001
 43
0.0000000001
 40
0.0
 40
0.0
 40
0.0
 40
0.0
 40
1.0
 40
1.0
 40
1.0
 40
1.0
 10
51.6717
 20
-26.9053
 30
0.0
 10
51.6717
 20
-26.9053
 30
0.0
 10
51.6717
 20
-20.8818
 30
0.0
 10
51.6717
 20
-20.8818
 30
0.0
  0
SPLINE
  5
A7
330
1F
100
AcDbEntity
  8
Ilustrace
 62
   250
370
    15
100
AcDbSpline
210
0.0
220
0.0
230
1.0
 70
    24
 71
     3
 72
     8
 73
     4
 74
     0
 42
0.0000000001
 43
0.0000000001
 40
0.0
 40
0.0
 40
0.0
 40
0.0
 40
1.0
 40
1.0
 40
1.0
 40
1.0
 10
52.1228
 20
-19.8454
 30
0.0
 10
52.1228
 20
-19.8454
 30
0.0
 10
54.2815
 20
-17.6867
 30
0.0
 10
54.2815
 20
-17.6867
 30
0.0
  0
SPLINE
  5
A8
330
1F
100
AcDbEntity
  8
Ilustrace
 62
   250
370
    15
100
AcDbSpline
210
0.0
220
0.0
230
1.0
 70
    24
 71
     3
 72
     8
 73
     4
 74
     0
 42
0.0000000001
 43
0.0000000001
 40
0.0
 40
0.0
 40
0.0
 40
0.0
 40
1.0
 40
1.0
 40
1.0
 40
1.0
 10
-56.2561
 20
-26.3443
 30
0.0
 10
-56.2561
 20
-26.3443
 30
0.0
 10
50.9301
 20
-26.3443
 30
0.0
 10
50.9301
 20
-26.3443
 30
0.0
  0
SPLINE
  5
A9
330
1F
100
AcDbEntity
  8
Ilustrace
 62
   250
370
    15
100
AcDbSpline
210
0.0
220
0.0
230
1.0
 70
    24
 71
     3
 72
     8
 73
     4
 74
     0
 42
0.0000000001
 43
0.0000000001
 40
0.0
 40
0.0
 40
0.0
 40
0.0
 40
1.0
 40
1.0
 40
1.0
 40
1.0
 10
-0.0159
 20
35.8763
 30
0.0
 10
-0.0159
 20
35.8763
 30
0.0
 10
53.3902
 20
-17.5298
 30
0.0
 10
53.3902
 20
-17.5298
 30
0.0
  0
SPLINE
  5
AA
330
1F
100
AcDbEntity
  8
Ilustrace
 62
   250
100
AcDbSpline
210
0.0
220
0.0
230
1.0
 70
    11
 71
     3
 72
   196
 73
   192
 74
     0
 42
0.0000000001
 43
0.0000000001
 40
0.0
 40
0.0
 40
0.0
 40
0.0
 40
0.0204081632653061
 40
0.0204081632653061
 40
0.0204081632653061
 40
0.0204081632653061
 40
0.0408163265306122
 40
0.0408163265306122
 40
0.0408163265306122
 40
0.0408163265306122
 40
0.0612244897959184
 40
0.0612244897959184
 40
0.0612244897959184
 40
0.0612244897959184
 40
0.0816326530612245
 40
0.0816326530612245
 40
0.0816326530612245
 40
0.0816326530612245
 40
0.1020408163265306
 40
0.1020408163265306
 40
0.1020408163265306
 40
0.1020408163265306
 40
0.1224489795918367
 40
0.1224489795918367
 40
0.1224489795918367
 40
0.1224489795918367
 40
0.1428571428571428
 40
0.1428571428571428
 40
0.1428571428571428
 40
0.1428571428571428
 40
0.163265306122449
 40
0.163265306122449
 40
0.163265306122449
 40
0.163265306122449
 40
0.1836734693877551
 40
0.1836734693877551
 40
0.1836734693877551
 40
0.1836734693877551
 40
0.2040816326530612
 40
0.2040816326530612
 40
0.2040816326530612
 40
0.2040816326530612
 40
0.2244897959183673
 40
0.2244897959183673
 40
0.2244897959183673
 40
0.2244897959183673
 40
0.2448979591836735
 40
0.2448979591836735
 40
0.2448979591836735
 40
0.2448979591836735
 40
0.2653061224489796
 40
0.2653061224489796
 40
0.2653061224489796
 40
0.2653061224489796
 40
0.2857142857142857
 40
0.2857142857142857
 40
0.2857142857142857
 40
0.2857142857142857
 40
0.3061224489795918
 40
0.3061224489795918
 40
0.3061224489795918
 40
0.3061224489795918
 40
0.3265306122448979
 40
0.3265306122448979
 40
0.3265306122448979
 40
0.3265306122448979
 40
0.3469387755102041
 40
0.3469387755102041
 40
0.3469387755102041
 40
0.3469387755102041
 40
0.3673469387755102
 40
0.3673469387755102
 40
0.3673469387755102
 40
0.3673469387755102
 40
0.3877551020408163
 40
0.3877551020408163
 40
0.3877551020408163
 40
0.3877551020408163
 40
0.4081632653061225
 40
0.4081632653061225
 40
0.4081632653061225
 40
0.4081632653061225
 40
0.4285714285714285
 40
0.4285714285714285
 40
0.4285714285714285
 40
0.4285714285714285
 40
0.4489795918367347
 40
0.4489795918367347
 40
0.4489795918367347
 40
0.4489795918367347
 40
0.4693877551020408
 40
0.4693877551020408
 40
0.4693877551020408
 40
0.4693877551020408
 40
0.4897959183673469
 40
0.4897959183673469
 40
0.4897959183673469
 40
0.4897959183673469
 40
0.5102040816326531
 40
0.5102040816326531
 40
0.5102040816326531
 40
0.5102040816326531
 40
0.5306122448979592
 40
0.5306122448979592
 40
0.5306122448979592
 40
0.5306122448979592
 40
0.5510204081632653
 40
0.5510204081632653
 40
0.5510204081632653
 40
0.5510204081632653
 40
0.5714285714285714
 40
0.5714285714285714
 40
0.5714285714285714
 40
0.5714285714285714
 40
0.5918367346938775
 40
0.5918367346938775
 40
0.5918367346938775
 40
0.5918367346938775
 40
0.6122448979591837
 40
0.6122448979591837
 40
0.6122448979591837
 40
0.6122448979591837
 40
0.6326530612244898
 40
0.6326530612244898
 40
0.6326530612244898
 40
0.6326530612244898
 40
0.6530612244897959
 40
0.6530612244897959
 40
0.6530612244897959
 40
0.6530612244897959
 40
0.673469387755102
 40
0.673469387755102
 40
0.673469387755102
 40
0.673469387755102
 40
0.6938775510204082
 40
0.6938775510204082
 40
0.6938775510204082
 40
0.6938775510204082
 40
0.7142857142857143
 40
0.7142857142857143
 40
0.7142857142857143
 40
0.7142857142857143
 40
0.7346938775510204
 40
0.7346938775510204
 40
0.7346938775510204
 40
0.7346938775510204
 40
0.7551020408163265
 40
0.7551020408163265
 40
0.7551020408163265
 40
0.7551020408163265
 40
0.7755102040816326
 40
0.7755102040816326
 40
0.7755102040816326
 40
0.7755102040816326
 40
0.7959183673469388
 40
0.7959183673469388
 40
0.7959183673469388
 40
0.7959183673469388
 40
0.8163265306122449
 40
0.8163265306122449
 40
0.8163265306122449
 40
0.8163265306122449
 40
0.8367346938775511
 40
0.8367346938775511
 40
0.8367346938775511
 40
0.8367346938775511
 40
0.8571428571428571
 40
0.8571428571428571
 40
0.8571428571428571
 40
0.8571428571428571
 40
0.8775510204081632
 40
0.8775510204081632
 40
0.8775510204081632
 40
0.8775510204081632
 40
0.8979591836734694
 40
0.8979591836734694
 40
0.8979591836734694
 40
0.8979591836734694
 40
0.9183673469387755
 40
0.9183673469387755
 40
0.9183673469387755
 40
0.9183673469387755
 40
0.9387755102040817
 40
0.9387755102040817
 40
0.9387755102040817
 40
0.9387755102040817
 40
0.9591836734693877
 40
0.9591836734693877
 40
0.9591836734693877
 40
0.9591836734693877
 40
1.0
 40
1.0
 40
1.0
 40
1.0
 10
-7.5683
 20
-25.4413
 30
0.0
 10
-7.5072
 20
-25.4818
 30
0.0
 10
-7.4282
 20
-25.5204
 30
0.0
 10
-7.3322
 20
-25.558
 30
0.0
 10
-7.3322
 20
-25.558
 30
0.0
 10
-7.2363
 20
-25.5956
 30
0.0
 10
-7.1271
 20
-25.6267
 30
0.0
 10
-7.0048
 20
-25.6521
 30
0.0
 10
-7.0048
 20
-25.6521
 30
0.0
 10
-6.8825
 20
-25.6765
 30
0.0
 10
-6.7527
 20
-25.6887
 30
0.0
 10
-6.6144
 20
-25.6897
 30
0.0
 10
-6.6144
 20
-25.6897
 30
0.0
 10
-6.3952
 20
-25.6887
 30
0.0
 10
-6.2024
 20
-25.6586
 30
0.0
 10
-6.0359
 20
-25.6003
 30
0.0
 10
-6.0359
 20
-25.6003
 30
0.0
 10
-5.8694
 20
-25.542
 30
0.0
 10
-5.7301
 20
-25.4611
 30
0.0
 10
-5.6173
 20
-25.3595
 30
0.0
 10
-5.6173
 20
-25.3595
 30
0.0
 10
-5.5044
 20
-25.2579
 30
0.0
 10
-5.4197
 20
-25.1403
 30
0.0
 10
-5.3623
 20
-25.0086
 30
0.0
 10
-5.3623
 20
-25.0086
 30
0.0
 10
-5.3059
 20
-24.8769
 30
0.0
 10
-5.2767
 20
-24.7367
 30
0.0
 10
-5.2767
 20
-24.589
 30
0.0
 10
-5.2767
 20
-24.589
 30
0.0
 10
-5.2786
 20
-24.4601
 30
0.0
 10
-5.3012
 20
-24.3435
 30
0.0
 10
-5.3435
 20
-24.2381
 30
0.0
 10
-5.3435
 20
-24.2381
 30
0.0
 10
-5.3858
 20
-24.1318
 30
0.0
 10
-5.4442
 20
-24.0396
 30
0.0
 10
-5.5185
 20
-23.9597
 30
0.0
 10
-5.5185
 20
-23.9597
 30
0.0
 10
-5.5928
 20
-23.8797
 30
0.0
 10
-5.6793
 20
-23.8139
 30
0.0
 10
-5.7772
 20
-23.7621
 30
0.0
 10
-5.7772
 20
-23.7621
 30
0.0
 10
-5.876
 20
-23.7104
 30
0.0
 10
-5.9813
 20
-23.6737
 30
0.0
 10
-6.0951
 20
-23.6521
 30
0.0
 10
-6.0951
 20
-23.6521
 30
0.0
 10
-6.0951
 20
-23.6521
 30
0.0
 10
-6.0951
 20
-23.6408
 30
0.0
 10
-6.0951
 20
-23.6408
 30
0.0
 10
-6.0951
 20
-23.6408
 30
0.0
 10
-5.9465
 20
-23.5853
 30
0.0
 10
-5.8214
 20
-23.5147
 30
0.0
 10
-5.7217
 20
-23.4282
 30
0.0
 10
-5.7217
 20
-23.4282
 30
0.0
 10
-5.621
 20
-23.3416
 30
0.0
 10
-5.5448
 20
-23.2419
 30
0.0
 10
-5.494
 20
-23.1309
 30
0.0
 10
-5.494
 20
-23.1309
 30
0.0
 10
-5.4432
 20
-23.0199
 30
0.0
 10
-5.4178
 20
-22.9004
 30
0.0
 10
-5.4178
 20
-22.7715
 30
0.0
 10
-5.4178
 20
-22.7715
 30
0.0
 10
-5.4178
 20
-22.6586
 30
0.0
 10
-5.4385
 20
-22.5505
 30
0.0
 10
-5.4799
 20
-22.447
 30
0.0
 10
-5.4799
 20
-22.447
 30
0.0
 10
-5.5222
 20
-22.3426
 30
0.0
 10
-5.5862
 20
-22.2494
 30
0.0
 10
-5.6718
 20
-22.1666
 30
0.0
 10
-5.6718
 20
-22.1666
 30
0.0
 10
-5.7574
 20
-22.0839
 30
0.0
 10
-5.8665
 20
-22.0189
 30
0.0
 10
-5.9992
 20
-21.971
 30
0.0
 10
-5.9992
 20
-21.971
 30
0.0
 10
-6.1309
 20
-21.9221
 30
0.0
 10
-6.2871
 20
-21.8976
 30
0.0
 10
-6.4677
 20
-21.8967
 30
0.0
 10
-6.4677
 20
-21.8967
 30
0.0
 10
-6.6003
 20
-21.8976
 30
0.0
 10
-6.7273
 20
-21.9117
 30
0.0
 10
-6.8496
 20
-21.938
 30
0.0
 10
-6.8496
 20
-21.938
 30
0.0
 10
-6.9719
 20
-21.9653
 30
0.0
 10
-7.0829
 20
-22.0001
 30
0.0
 10
-7.1826
 20
-22.0425
 30
0.0
 10
-7.1826
 20
-22.0425
 30
0.0
 10
-7.2824
 20
-22.0857
 30
0.0
 10
-7.3661
 20
-22.1309
 30
0.0
 10
-7.4329
 20
-22.1789
 30
0.0
 10
-7.4329
 20
-22.1789
 30
0.0
 10
-7.4329
 20
-22.1789
 30
0.0
 10
-7.2974
 20
-22.5401
 30
0.0
 10
-7.2974
 20
-22.5401
 30
0.0
 10
-7.2974
 20
-22.5401
 30
0.0
 10
-7.2438
 20
-22.5015
 30
0.0
 10
-7.1789
 20
-22.4639
 30
0.0
 10
-7.1017
 20
-22.4272
 30
0.0
 10
-7.1017
 20
-22.4272
 30
0.0
 10
-7.0255
 20
-22.3896
 30
0.0
 10
-6.9409
 20
-22.3595
 30
0.0
 10
-6.8487
 20
-22.335
 30
0.0
 10
-6.8487
 20
-22.335
 30
0.0
 10
-6.7574
 20
-22.3106
 30
0.0
 10
-6.6624
 20
-22.2983
 30
0.0
 10
-6.5636
 20
-22.2974
 30
0.0
 10
-6.5636
 20
-22.2974
 30
0.0
 10
-6.4112
 20
-22.2983
 30
0.0
 10
-6.288
 20
-22.3247
 30
0.0
 10
-6.1939
 20
-22.3755
 30
0.0
 10
-6.1939
 20
-22.3755
 30
0.0
 10
-6.0989
 20
-22.4263
 30
0.0
 10
-6.0293
 20
-22.4931
 30
0.0
 10
-5.9851
 20
-22.5768
 30
0.0
 10
-5.9851
 20
-22.5768
 30
0.0
 10
-5.9409
 20
-22.6596
 30
0.0
 10
-5.9192
 20
-22.7508
 30
0.0
 10
-5.9202
 20
-22.8506
 30
0.0
 10
-5.9202
 20
-22.8506
 30
0.0
 10
-5.9211
 20
-22.9587
 30
0.0
 10
-5.9475
 20
-23.0528
 30
0.0
 10
-5.9973
 20
-23.1309
 30
0.0
 10
-5.9973
 20
-23.1309
 30
0.0
 10
-6.0472
 20
-23.209
 30
0.0
 10
-6.113
 20
-23.2739
 30
0.0
 10
-6.1939
 20
-23.3237
 30
0.0
 10
-6.1939
 20
-23.3237
 30
0.0
 10
-6.2748
 20
-23.3745
 30
0.0
 10
-6.3633
 20
-23.4112
 30
0.0
 10
-6.4583
 20
-23.4357
 30
0.0
 10
-6.4583
 20
-23.4357
 30
0.0
 10
-6.5533
 20
-23.4592
 30
0.0
 10
-6.6464
 20
-23.4714
 30
0.0
 10
-6.7386
 20
-23.4714
 30
0.0
 10
-6.7386
 20
-23.4714
 30
0.0
 10
-6.7386
 20
-23.4714
 30
0.0
 10
-7.0152
 20
-23.4714
 30
0.0
 10
-7.0152
 20
-23.4714
 30
0.0
 10
-7.0152
 20
-23.4714
 30
0.0
 10
-7.0152
 20
-23.4714
 30
0.0
 10
-7.0152
 20
-23.844
 30
0.0
 10
-7.0152
 20
-23.844
 30
0.0
 10
-7.0152
 20
-23.844
 30
0.0
 10
-7.0152
 20
-23.844
 30
0.0
 10
-6.7386
 20
-23.844
 30
0.0
 10
-6.7386
 20
-23.844
 30
0.0
 10
-6.7386
 20
-23.844
 30
0.0
 10
-6.6173
 20
-23.844
 30
0.0
 10
-6.5006
 20
-23.8581
 30
0.0
 10
-6.3887
 20
-23.8863
 30
0.0
 10
-6.3887
 20
-23.8863
 30
0.0
 10
-6.2767
 20
-23.9145
 30
0.0
 10
-6.176
 20
-23.9587
 30
0.0
 10
-6.0867
 20
-24.018
 30
0.0
 10
-6.0867
 20
-24.018
 30
0.0
 10
-5.9973
 20
-24.0773
 30
0.0
 10
-5.9258
 20
-24.1535
 30
0.0
 10
-5.8731
 20
-24.2466
 30
0.0
 10
-5.8731
 20
-24.2466
 30
0.0
 10
-5.8205
 20
-24.3388
 30
0.0
 10
-5.7932
 20
-24.4498
 30
0.0
 10
-5.7903
 20
-24.5777
 30
0.0
 10
-5.7903
 20
-24.5777
 30
0.0
 10
-5.7885
 20
-24.6568
 30
0.0
 10
-5.8007
 20
-24.7377
 30
0.0
 10
-5.8289
 20
-24.8195
 30
0.0
 10
-5.8289
 20
-24.8195
 30
0.0
 10
-5.8562
 20
-24.9023
 30
0.0
 10
-5.9023
 20
-24.9794
 30
0.0
 10
-5.9663
 20
-25.05
 30
0.0
 10
-5.9663
 20
-25.05
 30
0.0
 10
-6.0302
 20
-25.1205
 30
0.0
 10
-6.1158
 20
-25.1779
 30
0.0
 10
-6.2231
 20
-25.2212
 30
0.0
 10
-6.2231
 20
-25.2212
 30
0.0
 10
-6.3303
 20
-25.2654
 30
0.0
 10
-6.462
 20
-25.288
 30
0.0
 10
-6.6201
 20
-25.2889
 30
0.0
 10
-6.6201
 20
-25.2889
 30
0.0
 10
-6.7377
 20
-25.288
 30
0.0
 10
-6.8496
 20
-25.2748
 30
0.0
 10
-6.955
 20
-25.2494
 30
0.0
 10
-6.955
 20
-25.2494
 30
0.0
 10
-7.0603
 20
-25.224
 30
0.0
 10
-7.1544
 20
-25.1939
 30
0.0
 10
-7.2372
 20
-25.1591
 30
0.0
 10
-7.2372
 20
-25.1591
 30
0.0
 10
-7.32
 20
-25.1243
 30
0.0
 10
-7.3849
 20
-25.0923
 30
0.0
 10
-7.4329
 20
-25.0632
 30
0.0
 10
-7.4329
 20
-25.0632
 30
0.0
 10
-7.4329
 20
-25.0632
 30
0.0
 10
-7.5683
 20
-25.4413
 30
0.0
 10
-7.5683
 20
-25.4413
 30
0.0
  0
SPLINE
  5
AB
330
1F
100
AcDbEntity
  8
Ilustrace
 62
   250
100
AcDbSpline
210
0.0
220
0.0
230
1.0
 70
    11
 71
     3
 72
   124
 73
   120
 74
     0
 42
0.0000000001
 43
0.0000000001
 40
0.0
 40
0.0
 40
0.0
 40
0.0
 40
0.032258064516129
 40
0.032258064516129
 40
0.032258064516129
 40
0.032258064516129
 40
0.0645161290322581
 40
0.0645161290322581
 40
0.0645161290322581
 40
0.0645161290322581
 40
0.0967741935483871
 40
0.0967741935483871
 40
0.0967741935483871
 40
0.0967741935483871
 40
0.1290322580645161
 40
0.1290322580645161
 40
0.1290322580645161
 40
0.1290322580645161
 40
0.1612903225806452
 40
0.1612903225806452
 40
0.1612903225806452
 40
0.1612903225806452
 40
0.1935483870967742
 40
0.1935483870967742
 40
0.1935483870967742
 40
0.1935483870967742
 40
0.2258064516129032
 40
0.2258064516129032
 40
0.2258064516129032
 40
0.2258064516129032
 40
0.2580645161290323
 40
0.2580645161290323
 40
0.2580645161290323
 40
0.2580645161290323
 40
0.2903225806451613
 40
0.2903225806451613
 40
0.2903225806451613
 40
0.2903225806451613
 40
0.3225806451612903
 40
0.3225806451612903
 40
0.3225806451612903
 40
0.3225806451612903
 40
0.3548387096774194
 40
0.3548387096774194
 40
0.3548387096774194
 40
0.3548387096774194
 40
0.3870967741935484
 40
0.3870967741935484
 40
0.3870967741935484
 40
0.3870967741935484
 40
0.4193548387096774
 40
0.4193548387096774
 40
0.4193548387096774
 40
0.4193548387096774
 40
0.4516129032258064
 40
0.4516129032258064
 40
0.4516129032258064
 40
0.4516129032258064
 40
0.4838709677419355
 40
0.4838709677419355
 40
0.4838709677419355
 40
0.4838709677419355
 40
0.5161290322580645
 40
0.5161290322580645
 40
0.5161290322580645
 40
0.5161290322580645
 40
0.5483870967741935
 40
0.5483870967741935
 40
0.5483870967741935
 40
0.5483870967741935
 40
0.5806451612903226
 40
0.5806451612903226
 40
0.5806451612903226
 40
0.5806451612903226
 40
0.6129032258064516
 40
0.6129032258064516
 40
0.6129032258064516
 40
0.6129032258064516
 40
0.6451612903225806
 40
0.6451612903225806
 40
0.6451612903225806
 40
0.6451612903225806
 40
0.6774193548387096
 40
0.6774193548387096
 40
0.6774193548387096
 40
0.6774193548387096
 40
0.7096774193548387
 40
0.7096774193548387
 40
0.7096774193548387
 40
0.7096774193548387
 40
0.7419354838709677
 40
0.7419354838709677
 40
0.7419354838709677
 40
0.7419354838709677
 40
0.7741935483870968
 40
0.7741935483870968
 40
0.7741935483870968
 40
0.7741935483870968
 40
0.8064516129032258
 40
0.8064516129032258
 40
0.8064516129032258
 40
0.8064516129032258
 40
0.8387096774193549
 40
0.8387096774193549
 40
0.8387096774193549
 40
0.8387096774193549
 40
0.8709677419354839
 40
0.8709677419354839
 40
0.8709677419354839
 40
0.8709677419354839
 40
0.9032258064516129
 40
0.9032258064516129
 40
0.9032258064516129
 40
0.9032258064516129
 40
0.9354838709677419
 40
0.9354838709677419
 40
0.9354838709677419
 40
0.9354838709677419
 40
1.0
 40
1.0
 40
1.0
 40
1.0
 10
-3.9728
 20
-23.7141
 30
0.0
 10
-4.1243
 20
-23.7781
 30
0.0
 10
-4.2541
 20
-23.8581
 30
0.0
 10
-4.3623
 20
-23.9522
 30
0.0
 10
-4.3623
 20
-23.9522
 30
0.0
 10
-4.4705
 20
-24.0472
 30
0.0
 10
-4.5542
 20
-24.1572
 30
0.0
 10
-4.6125
 20
-24.2824
 30
0.0
 10
-4.6125
 20
-24.2824
 30
0.0
 10
-4.6709
 20
-24.4075
 30
0.0
 10
-4.7
 20
-24.5476
 30
0.0
 10
-4.701
 20
-24.7019
 30
0.0
 10
-4.701
 20
-24.7019
 30
0.0
 10
-4.7
 20
-24.8374
 30
0.0
 10
-4.6727
 20
-24.9634
 30
0.0
 10
-4.6163
 20
-25.0829
 30
0.0
 10
-4.6163
 20
-25.0829
 30
0.0
 10
-4.5608
 20
-25.2014
 30
0.0
 10
-4.4799
 20
-25.3059
 30
0.0
 10
-4.3736
 20
-25.3971
 30
0.0
 10
-4.3736
 20
-25.3971
 30
0.0
 10
-4.2673
 20
-25.4874
 30
0.0
 10
-4.1384
 20
-25.5589
 30
0.0
 10
-3.9869
 20
-25.6107
 30
0.0
 10
-3.9869
 20
-25.6107
 30
0.0
 10
-3.8345
 20
-25.6624
 30
0.0
 10
-3.6624
 20
-25.6887
 30
0.0
 10
-3.4705
 20
-25.6897
 30
0.0
 10
-3.4705
 20
-25.6897
 30
0.0
 10
-3.2946
 20
-25.6887
 30
0.0
 10
-3.1309
 20
-25.6633
 30
0.0
 10
-2.9804
 20
-25.6135
 30
0.0
 10
-2.9804
 20
-25.6135
 30
0.0
 10
-2.8298
 20
-25.5636
 30
0.0
 10
-2.6972
 20
-25.4912
 30
0.0
 10
-2.5843
 20
-25.3971
 30
0.0
 10
-2.5843
 20
-25.3971
 30
0.0
 10
-2.4714
 20
-25.304
 30
0.0
 10
-2.383
 20
-25.192
 30
0.0
 10
-2.32
 20
-25.0613
 30
0.0
 10
-2.32
 20
-25.0613
 30
0.0
 10
-2.256
 20
-24.9305
 30
0.0
 10
-2.224
 20
-24.7847
 30
0.0
 10
-2.2231
 20
-24.6229
 30
0.0
 10
-2.2231
 20
-24.6229
 30
0.0
 10
-2.224
 20
-24.4761
 30
0.0
 10
-2.2541
 20
-24.3426
 30
0.0
 10
-2.3134
 20
-24.2212
 30
0.0
 10
-2.3134
 20
-24.2212
 30
0.0
 10
-2.3726
 20
-24.1008
 30
0.0
 10
-2.4573
 20
-23.9945
 30
0.0
 10
-2.5674
 20
-23.9032
 30
0.0
 10
-2.5674
 20
-23.9032
 30
0.0
 10
-2.6774
 20
-23.811
 30
0.0
 10
-2.8091
 20
-23.7348
 30
0.0
 10
-2.9625
 20
-23.6746
 30
0.0
 10
-2.9625
 20
-23.6746
 30
0.0
 10
-2.9625
 20
-23.6746
 30
0.0
 10
-2.9625
 20
-23.6577
 30
0.0
 10
-2.9625
 20
-23.6577
 30
0.0
 10
-2.9625
 20
-23.6577
 30
0.0
 10
-2.8129
 20
-23.5871
 30
0.0
 10
-2.6934
 20
-23.5053
 30
0.0
 10
-2.6041
 20
-23.4112
 30
0.0
 10
-2.6041
 20
-23.4112
 30
0.0
 10
-2.5147
 20
-23.3181
 30
0.0
 10
-2.4498
 20
-23.2184
 30
0.0
 10
-2.4103
 20
-23.114
 30
0.0
 10
-2.4103
 20
-23.114
 30
0.0
 10
-2.3717
 20
-23.0086
 30
0.0
 10
-2.3519
 20
-22.9042
 30
0.0
 10
-2.3529
 20
-22.7998
 30
0.0
 10
-2.3529
 20
-22.7998
 30
0.0
 10
-2.3529
 20
-22.6831
 30
0.0
 10
-2.3755
 20
-22.5702
 30
0.0
 10
-2.4206
 20
-22.463
 30
0.0
 10
-2.4206
 20
-22.463
 30
0.0
 10
-2.4658
 20
-22.3557
 30
0.0
 10
-2.5326
 20
-22.2598
 30
0.0
 10
-2.6219
 20
-22.1742
 30
0.0
 10
-2.6219
 20
-22.1742
 30
0.0
 10
-2.7122
 20
-22.0895
 30
0.0
 10
-2.8242
 20
-22.0218
 30
0.0
 10
-2.9578
 20
-21.9729
 30
0.0
 10
-2.9578
 20
-21.9729
 30
0.0
 10
-3.0914
 20
-21.923
 30
0.0
 10
-3.2475
 20
-21.8976
 30
0.0
 10
-3.4253
 20
-21.8967
 30
0.0
 10
-3.4253
 20
-21.8967
 30
0.0
 10
-3.5881
 20
-21.8976
 30
0.0
 10
-3.7395
 20
-21.9211
 30
0.0
 10
-3.8769
 20
-21.9672
 30
0.0
 10
-3.8769
 20
-21.9672
 30
0.0
 10
-4.0152
 20
-22.0142
 30
0.0
 10
-4.1356
 20
-22.0801
 30
0.0
 10
-4.2391
 20
-22.1666
 30
0.0
 10
-4.2391
 20
-22.1666
 30
0.0
 10
-4.3416
 20
-22.2532
 30
0.0
 10
-4.4216
 20
-22.3557
 30
0.0
 10
-4.4789
 20
-22.4752
 30
0.0
 10
-4.4789
 20
-22.4752
 30
0.0
 10
-4.5354
 20
-22.5947
 30
0.0
 10
-4.5646
 20
-22.7273
 30
0.0
 10
-4.5655
 20
-22.8731
 30
0.0
 10
-4.5655
 20
-22.8731
 30
0.0
 10
-4.5655
 20
-22.9794
 30
0.0
 10
-4.5457
 20
-23.0829
 30
0.0
 10
-4.5043
 20
-23.1845
 30
0.0
 10
-4.5043
 20
-23.1845
 30
0.0
 10
-4.4639
 20
-23.2861
 30
0.0
 10
-4.3999
 20
-23.3811
 30
0.0
 10
-4.3134
 20
-23.4686
 30
0.0
 10
-4.3134
 20
-23.4686
 30
0.0
 10
-4.2268
 20
-23.5561
 30
0.0
 10
-4.1158
 20
-23.6323
 30
0.0
 10
-3.9785
 20
-23.6972
 30
0.0
 10
-3.9785
 20
-23.6972
 30
0.0
 10
-3.9785
 20
-23.6972
 30
0.0
 10
-3.9728
 20
-23.7141
 30
0.0
 10
-3.9728
 20
-23.7141
 30
0.0
  0
SPLINE
  5
AC
330
1F
100
AcDbEntity
  8
Ilustrace
 62
   250
100
AcDbSpline
210
0.0
220
0.0
230
1.0
 70
    11
 71
     3
 72
    56
 73
    52
 74
     0
 42
0.0000000001
 43
0.0000000001
 40
0.0
 40
0.0
 40
0.0
 40
0.0
 40
0.0714285714285714
 40
0.0714285714285714
 40
0.0714285714285714
 40
0.0714285714285714
 40
0.1428571428571428
 40
0.1428571428571428
 40
0.1428571428571428
 40
0.1428571428571428
 40
0.2142857142857143
 40
0.2142857142857143
 40
0.2142857142857143
 40
0.2142857142857143
 40
0.2857142857142857
 40
0.2857142857142857
 40
0.2857142857142857
 40
0.2857142857142857
 40
0.3571428571428572
 40
0.3571428571428572
 40
0.3571428571428572
 40
0.3571428571428572
 40
0.4285714285714285
 40
0.4285714285714285
 40
0.4285714285714285
 40
0.4285714285714285
 40
0.5
 40
0.5
 40
0.5
 40
0.5
 40
0.5714285714285714
 40
0.5714285714285714
 40
0.5714285714285714
 40
0.5714285714285714
 40
0.6428571428571429
 40
0.6428571428571429
 40
0.6428571428571429
 40
0.6428571428571429
 40
0.7142857142857143
 40
0.7142857142857143
 40
0.7142857142857143
 40
0.7142857142857143
 40
0.7857142857142857
 40
0.7857142857142857
 40
0.7857142857142857
 40
0.7857142857142857
 40
0.8571428571428571
 40
0.8571428571428571
 40
0.8571428571428571
 40
0.8571428571428571
 40
1.0
 40
1.0
 40
1.0
 40
1.0
 10
-3.4592
 20
-25.3284
 30
0.0
 10
-3.5768
 20
-25.3275
 30
0.0
 10
-3.6812
 20
-25.3087
 30
0.0
 10
-3.7734
 20
-25.272
 30
0.0
 10
-3.7734
 20
-25.272
 30
0.0
 10
-3.8665
 20
-25.2344
 30
0.0
 10
-3.9446
 20
-25.1836
 30
0.0
 10
-4.0086
 20
-25.1187
 30
0.0
 10
-4.0086
 20
-25.1187
 30
0.0
 10
-4.0716
 20
-25.0547
 30
0.0
 10
-4.1196
 20
-24.9804
 30
0.0
 10
-4.1516
 20
-24.8976
 30
0.0
 10
-4.1516
 20
-24.8976
 30
0.0
 10
-4.1826
 20
-24.8148
 30
0.0
 10
-4.1967
 20
-24.7264
 30
0.0
 10
-4.193
 20
-24.6342
 30
0.0
 10
-4.193
 20
-24.6342
 30
0.0
 10
-4.193
 20
-24.5166
 30
0.0
 10
-4.1676
 20
-24.4084
 30
0.0
 10
-4.1168
 20
-24.3087
 30
0.0
 10
-4.1168
 20
-24.3087
 30
0.0
 10
-4.0669
 20
-24.209
 30
0.0
 10
-3.9926
 20
-24.1215
 30
0.0
 10
-3.8947
 20
-24.0472
 30
0.0
 10
-3.8947
 20
-24.0472
 30
0.0
 10
-3.796
 20
-23.9729
 30
0.0
 10
-3.6756
 20
-23.9145
 30
0.0
 10
-3.5326
 20
-23.8722
 30
0.0
 10
-3.5326
 20
-23.8722
 30
0.0
 10
-3.3661
 20
-23.9183
 30
0.0
 10
-3.2231
 20
-23.9757
 30
0.0
 10
-3.1027
 20
-24.0453
 30
0.0
 10
-3.1027
 20
-24.0453
 30
0.0
 10
-2.9822
 20
-24.114
 30
0.0
 10
-2.8891
 20
-24.1996
 30
0.0
 10
-2.8242
 20
-24.3012
 30
0.0
 10
-2.8242
 20
-24.3012
 30
0.0
 10
-2.7593
 20
-24.4037
 30
0.0
 10
-2.7264
 20
-24.5279
 30
0.0
 10
-2.7254
 20
-24.6737
 30
0.0
 10
-2.7254
 20
-24.6737
 30
0.0
 10
-2.7264
 20
-24.8007
 30
0.0
 10
-2.7565
 20
-24.9136
 30
0.0
 10
-2.8167
 20
-25.0114
 30
0.0
 10
-2.8167
 20
-25.0114
 30
0.0
 10
-2.8769
 20
-25.1093
 30
0.0
 10
-2.9615
 20
-25.1864
 30
0.0
 10
-3.0707
 20
-25.2428
 30
0.0
 10
-3.0707
 20
-25.2428
 30
0.0
 10
-3.1798
 20
-25.2993
 30
0.0
 10
-3.3096
 20
-25.3275
 30
0.0
 10
-3.4592
 20
-25.3284
 30
0.0
  0
SPLINE
  5
AD
330
1F
100
AcDbEntity
  8
Ilustrace
 62
   250
100
AcDbSpline
210
0.0
220
0.0
230
1.0
 70
    11
 71
     3
 72
    56
 73
    52
 74
     0
 42
0.0000000001
 43
0.0000000001
 40
0.0
 40
0.0
 40
0.0
 40
0.0
 40
0.0714285714285714
 40
0.0714285714285714
 40
0.0714285714285714
 40
0.0714285714285714
 40
0.1428571428571428
 40
0.1428571428571428
 40
0.1428571428571428
 40
0.1428571428571428
 40
0.2142857142857143
 40
0.2142857142857143
 40
0.2142857142857143
 40
0.2142857142857143
 40
0.2857142857142857
 40
0.2857142857142857
 40
0.2857142857142857
 40
0.2857142857142857
 40
0.3571428571428572
 40
0.3571428571428572
 40
0.3571428571428572
 40
0.3571428571428572
 40
0.4285714285714285
 40
0.4285714285714285
 40
0.4285714285714285
 40
0.4285714285714285
 40
0.5
 40
0.5
 40
0.5
 40
0.5
 40
0.5714285714285714
 40
0.5714285714285714
 40
0.5714285714285714
 40
0.5714285714285714
 40
0.6428571428571429
 40
0.6428571428571429
 40
0.6428571428571429
 40
0.6428571428571429
 40
0.7142857142857143
 40
0.7142857142857143
 40
0.7142857142857143
 40
0.7142857142857143
 40
0.7857142857142857
 40
0.7857142857142857
 40
0.7857142857142857
 40
0.7857142857142857
 40
0.8571428571428571
 40
0.8571428571428571
 40
0.8571428571428571
 40
0.8571428571428571
 40
1.0
 40
1.0
 40
1.0
 40
1.0
 10
-3.4535
 20
-22.2522
 30
0.0
 10
-3.3425
 20
-22.2532
 30
0.0
 10
-3.2475
 20
-22.2701
 30
0.0
 10
-3.1685
 20
-22.304
 30
0.0
 10
-3.1685
 20
-22.304
 30
0.0
 10
-3.0895
 20
-22.3379
 30
0.0
 10
-3.0255
 20
-22.384
 30
0.0
 10
-2.9757
 20
-22.4413
 30
0.0
 10
-2.9757
 20
-22.4413
 30
0.0
 10
-2.9267
 20
-22.4987
 30
0.0
 10
-2.89
 20
-22.5627
 30
0.0
 10
-2.8665
 20
-22.6332
 30
0.0
 10
-2.8665
 20
-22.6332
 30
0.0
 10
-2.8439
 20
-22.7038
 30
0.0
 10
-2.8327
 20
-22.7762
 30
0.0
 10
-2.8327
 20
-22.8506
 30
0.0
 10
-2.8327
 20
-22.8506
 30
0.0
 10
-2.8336
 20
-22.9616
 30
0.0
 10
-2.8581
 20
-23.0603
 30
0.0
 10
-2.907
 20
-23.1469
 30
0.0
 10
-2.907
 20
-23.1469
 30
0.0
 10
-2.9559
 20
-23.2344
 30
0.0
 10
-3.0217
 20
-23.3087
 30
0.0
 10
-3.1064
 20
-23.3698
 30
0.0
 10
-3.1064
 20
-23.3698
 30
0.0
 10
-3.1901
 20
-23.4319
 30
0.0
 10
-3.2852
 20
-23.4808
 30
0.0
 10
-3.3915
 20
-23.5166
 30
0.0
 10
-3.3915
 20
-23.5166
 30
0.0
 10
-3.5335
 20
-23.479
 30
0.0
 10
-3.6567
 20
-23.431
 30
0.0
 10
-3.7621
 20
-23.3727
 30
0.0
 10
-3.7621
 20
-23.3727
 30
0.0
 10
-3.8675
 20
-23.3134
 30
0.0
 10
-3.9493
 20
-23.24
 30
0.0
 10
-4.0067
 20
-23.1525
 30
0.0
 10
-4.0067
 20
-23.1525
 30
0.0
 10
-4.0641
 20
-23.065
 30
0.0
 10
-4.0923
 20
-22.9606
 30
0.0
 10
-4.0914
 20
-22.8393
 30
0.0
 10
-4.0914
 20
-22.8393
 30
0.0
 10
-4.0914
 20
-22.732
 30
0.0
 10
-4.0669
 20
-22.6351
 30
0.0
 10
-4.018
 20
-22.5467
 30
0.0
 10
-4.018
 20
-22.5467
 30
0.0
 10
-3.9691
 20
-22.4583
 30
0.0
 10
-3.8966
 20
-22.3877
 30
0.0
 10
-3.8016
 20
-22.3341
 30
0.0
 10
-3.8016
 20
-22.3341
 30
0.0
 10
-3.7075
 20
-22.2805
 30
0.0
 10
-3.5909
 20
-22.2532
 30
0.0
 10
-3.4535
 20
-22.2522
 30
0.0
  0
SPLINE
  5
AE
330
1F
100
AcDbEntity
  8
Ilustrace
 62
   250
100
AcDbSpline
210
0.0
220
0.0
230
1.0
 70
    11
 71
     3
 72
   124
 73
   120
 74
     0
 42
0.0000000001
 43
0.0000000001
 40
0.0
 40
0.0
 40
0.0
 40
0.0
 40
0.032258064516129
 40
0.032258064516129
 40
0.032258064516129
 40
0.032258064516129
 40
0.0645161290322581
 40
0.0645161290322581
 40
0.0645161290322581
 40
0.0645161290322581
 40
0.0967741935483871
 40
0.0967741935483871
 40
0.0967741935483871
 40
0.0967741935483871
 40
0.1290322580645161
 40
0.1290322580645161
 40
0.1290322580645161
 40
0.1290322580645161
 40
0.1612903225806452
 40
0.1612903225806452
 40
0.1612903225806452
 40
0.1612903225806452
 40
0.1935483870967742
 40
0.1935483870967742
 40
0.1935483870967742
 40
0.1935483870967742
 40
0.2258064516129032
 40
0.2258064516129032
 40
0.2258064516129032
 40
0.2258064516129032
 40
0.2580645161290323
 40
0.2580645161290323
 40
0.2580645161290323
 40
0.2580645161290323
 40
0.2903225806451613
 40
0.2903225806451613
 40
0.2903225806451613
 40
0.2903225806451613
 40
0.3225806451612903
 40
0.3225806451612903
 40
0.3225806451612903
 40
0.3225806451612903
 40
0.3548387096774194
 40
0.3548387096774194
 40
0.3548387096774194
 40
0.3548387096774194
 40
0.3870967741935484
 40
0.3870967741935484
 40
0.3870967741935484
 40
0.3870967741935484
 40
0.4193548387096774
 40
0.4193548387096774
 40
0.4193548387096774
 40
0.4193548387096774
 40
0.4516129032258064
 40
0.4516129032258064
 40
0.4516129032258064
 40
0.4516129032258064
 40
0.4838709677419355
 40
0.4838709677419355
 40
0.4838709677419355
 40
0.4838709677419355
 40
0.5161290322580645
 40
0.5161290322580645
 40
0.5161290322580645
 40
0.5161290322580645
 40
0.5483870967741935
 40
0.5483870967741935
 40
0.5483870967741935
 40
0.5483870967741935
 40
0.5806451612903226
 40
0.5806451612903226
 40
0.5806451612903226
 40
0.5806451612903226
 40
0.6129032258064516
 40
0.6129032258064516
 40
0.6129032258064516
 40
0.6129032258064516
 40
0.6451612903225806
 40
0.6451612903225806
 40
0.6451612903225806
 40
0.6451612903225806
 40
0.6774193548387096
 40
0.6774193548387096
 40
0.6774193548387096
 40
0.6774193548387096
 40
0.7096774193548387
 40
0.7096774193548387
 40
0.7096774193548387
 40
0.7096774193548387
 40
0.7419354838709677
 40
0.7419354838709677
 40
0.7419354838709677
 40
0.7419354838709677
 40
0.7741935483870968
 40
0.7741935483870968
 40
0.7741935483870968
 40
0.7741935483870968
 40
0.8064516129032258
 40
0.8064516129032258
 40
0.8064516129032258
 40
0.8064516129032258
 40
0.8387096774193549
 40
0.8387096774193549
 40
0.8387096774193549
 40
0.8387096774193549
 40
0.8709677419354839
 40
0.8709677419354839
 40
0.8709677419354839
 40
0.8709677419354839
 40
0.9032258064516129
 40
0.9032258064516129
 40
0.9032258064516129
 40
0.9032258064516129
 40
0.9354838709677419
 40
0.9354838709677419
 40
0.9354838709677419
 40
0.9354838709677419
 40
1.0
 40
1.0
 40
1.0
 40
1.0
 10
0.5822
 20
-25.6276
 30
0.0
 10
0.5822
 20
-25.6276
 30
0.0
 10
0.5822
 20
-25.2156
 30
0.0
 10
0.5822
 20
-25.2156
 30
0.0
 10
0.5822
 20
-25.2156
 30
0.0
 10
0.5822
 20
-25.2156
 30
0.0
 10
-1.0603
 20
-25.2156
 30
0.0
 10
-1.0603
 20
-25.2156
 30
0.0
 10
-1.0603
 20
-25.2156
 30
0.0
 10
-1.0603
 20
-25.2156
 30
0.0
 10
-1.0603
 20
-25.2043
 30
0.0
 10
-1.0603
 20
-25.2043
 30
0.0
 10
-1.0603
 20
-25.2043
 30
0.0
 10
-1.0603
 20
-25.2043
 30
0.0
 10
-0.7724
 20
-24.9333
 30
0.0
 10
-0.7724
 20
-24.9333
 30
0.0
 10
-0.7724
 20
-24.9333
 30
0.0
 10
-0.5786
 20
-24.748
 30
0.0
 10
-0.4037
 20
-24.5721
 30
0.0
 10
-0.2484
 20
-24.4065
 30
0.0
 10
-0.2484
 20
-24.4065
 30
0.0
 10
-0.0932
 20
-24.241
 30
0.0
 10
0.0394
 20
-24.0792
 30
0.0
 10
0.1495
 20
-23.923
 30
0.0
 10
0.1495
 20
-23.923
 30
0.0
 10
0.2605
 20
-23.7668
 30
0.0
 10
0.3442
 20
-23.6097
 30
0.0
 10
0.4035
 20
-23.4517
 30
0.0
 10
0.4035
 20
-23.4517
 30
0.0
 10
0.4618
 20
-23.2946
 30
0.0
 10
0.491
 20
-23.1318
 30
0.0
 10
0.4919
 20
-22.9634
 30
0.0
 10
0.4919
 20
-22.9634
 30
0.0
 10
0.4919
 20
-22.8308
 30
0.0
 10
0.4712
 20
-22.701
 30
0.0
 10
0.4279
 20
-22.5749
 30
0.0
 10
0.4279
 20
-22.5749
 30
0.0
 10
0.3847
 20
-22.4489
 30
0.0
 10
0.3169
 20
-22.335
 30
0.0
 10
0.2266
 20
-22.2334
 30
0.0
 10
0.2266
 20
-22.2334
 30
0.0
 10
0.1363
 20
-22.1309
 30
0.0
 10
0.0197
 20
-22.05
 30
0.0
 10
-0.1224
 20
-21.9898
 30
0.0
 10
-0.1224
 20
-21.9898
 30
0.0
 10
-0.2644
 20
-21.9286
 30
0.0
 10
-0.4338
 20
-21.8976
 30
0.0
 10
-0.6313
 20
-21.8967
 30
0.0
 10
-0.6313
 20
-21.8967
 30
0.0
 10
-0.7706
 20
-21.8976
 30
0.0
 10
-0.9032
 20
-21.9136
 30
0.0
 10
-1.0293
 20
-21.9465
 30
0.0
 10
-1.0293
 20
-21.9465
 30
0.0
 10
-1.1553
 20
-21.9794
 30
0.0
 10
-1.272
 20
-22.0237
 30
0.0
 10
-1.3792
 20
-22.0801
 30
0.0
 10
-1.3792
 20
-22.0801
 30
0.0
 10
-1.4855
 20
-22.1356
 30
0.0
 10
-1.5805
 20
-22.1986
 30
0.0
 10
-1.6642
 20
-22.2692
 30
0.0
 10
-1.6642
 20
-22.2692
 30
0.0
 10
-1.6642
 20
-22.2692
 30
0.0
 10
-1.5062
 20
-22.6191
 30
0.0
 10
-1.5062
 20
-22.6191
 30
0.0
 10
-1.5062
 20
-22.6191
 30
0.0
 10
-1.4498
 20
-22.5712
 30
0.0
 10
-1.382
 20
-22.5232
 30
0.0
 10
-1.303
 20
-22.4761
 30
0.0
 10
-1.303
 20
-22.4761
 30
0.0
 10
-1.224
 20
-22.4282
 30
0.0
 10
-1.1365
 20
-22.3896
 30
0.0
 10
-1.0396
 20
-22.3576
 30
0.0
 10
-1.0396
 20
-22.3576
 30
0.0
 10
-0.9427
 20
-22.3266
 30
0.0
 10
-0.8383
 20
-22.3096
 30
0.0
 10
-0.7273
 20
-22.3087
 30
0.0
 10
-0.7273
 20
-22.3087
 30
0.0
 10
-0.5909
 20
-22.3096
 30
0.0
 10
-0.4761
 20
-22.3294
 30
0.0
 10
-0.383
 20
-22.368
 30
0.0
 10
-0.383
 20
-22.368
 30
0.0
 10
-0.2908
 20
-22.4075
 30
0.0
 10
-0.2165
 20
-22.4602
 30
0.0
 10
-0.161
 20
-22.5269
 30
0.0
 10
-0.161
 20
-22.5269
 30
0.0
 10
-0.1055
 20
-22.5947
 30
0.0
 10
-0.065
 20
-22.6709
 30
0.0
 10
-0.0405
 20
-22.7565
 30
0.0
 10
-0.0405
 20
-22.7565
 30
0.0
 10
-0.0161
 20
-22.8421
 30
0.0
 10
-0.0039
 20
-22.9315
 30
0.0
 10
-0.0048
 20
-23.0255
 30
0.0
 10
-0.0048
 20
-23.0255
 30
0.0
 10
-0.0048
 20
-23.1629
 30
0.0
 10
-0.0321
 20
-23.2983
 30
0.0
 10
-0.0866
 20
-23.4329
 30
0.0
 10
-0.0866
 20
-23.4329
 30
0.0
 10
-0.1412
 20
-23.5683
 30
0.0
 10
-0.224
 20
-23.7094
 30
0.0
 10
-0.3359
 20
-23.8581
 30
0.0
 10
-0.3359
 20
-23.8581
 30
0.0
 10
-0.4479
 20
-24.0067
 30
0.0
 10
-0.5899
 20
-24.1695
 30
0.0
 10
-0.7621
 20
-24.3463
 30
0.0
 10
-0.7621
 20
-24.3463
 30
0.0
 10
-0.9333
 20
-24.5232
 30
0.0
 10
-1.1365
 20
-24.7226
 30
0.0
 10
-1.3707
 20
-24.9446
 30
0.0
 10
-1.3707
 20
-24.9446
 30
0.0
 10
-1.3707
 20
-24.9446
 30
0.0
 10
-1.7602
 20
-25.3228
 30
0.0
 10
-1.7602
 20
-25.3228
 30
0.0
 10
-1.7602
 20
-25.3228
 30
0.0
 10
-1.7602
 20
-25.3228
 30
0.0
 10
-1.7602
 20
-25.6276
 30
0.0
 10
-1.7602
 20
-25.6276
 30
0.0
 10
-1.7602
 20
-25.6276
 30
0.0
 10
-1.7602
 20
-25.6276
 30
0.0
 10
0.5822
 20
-25.6276
 30
0.0
 10
0.5822
 20
-25.6276
 30
0.0
  0
SPLINE
  5
AF
330
1F
100
AcDbEntity
  8
Ilustrace
 62
   250
100
AcDbSpline
210
0.0
220
0.0
230
1.0
 70
    11
 71
     3
 72
   124
 73
   120
 74
     0
 42
0.0000000001
 43
0.0000000001
 40
0.0
 40
0.0
 40
0.0
 40
0.0
 40
0.032258064516129
 40
0.032258064516129
 40
0.032258064516129
 40
0.032258064516129
 40
0.0645161290322581
 40
0.0645161290322581
 40
0.0645161290322581
 40
0.0645161290322581
 40
0.0967741935483871
 40
0.0967741935483871
 40
0.0967741935483871
 40
0.0967741935483871
 40
0.1290322580645161
 40
0.1290322580645161
 40
0.1290322580645161
 40
0.1290322580645161
 40
0.1612903225806452
 40
0.1612903225806452
 40
0.1612903225806452
 40
0.1612903225806452
 40
0.1935483870967742
 40
0.1935483870967742
 40
0.1935483870967742
 40
0.1935483870967742
 40
0.2258064516129032
 40
0.2258064516129032
 40
0.2258064516129032
 40
0.2258064516129032
 40
0.2580645161290323
 40
0.2580645161290323
 40
0.2580645161290323
 40
0.2580645161290323
 40
0.2903225806451613
 40
0.2903225806451613
 40
0.2903225806451613
 40
0.2903225806451613
 40
0.3225806451612903
 40
0.3225806451612903
 40
0.3225806451612903
 40
0.3225806451612903
 40
0.3548387096774194
 40
0.3548387096774194
 40
0.3548387096774194
 40
0.3548387096774194
 40
0.3870967741935484
 40
0.3870967741935484
 40
0.3870967741935484
 40
0.3870967741935484
 40
0.4193548387096774
 40
0.4193548387096774
 40
0.4193548387096774
 40
0.4193548387096774
 40
0.4516129032258064
 40
0.4516129032258064
 40
0.4516129032258064
 40
0.4516129032258064
 40
0.4838709677419355
 40
0.4838709677419355
 40
0.4838709677419355
 40
0.4838709677419355
 40
0.5161290322580645
 40
0.5161290322580645
 40
0.5161290322580645
 40
0.5161290322580645
 40
0.5483870967741935
 40
0.5483870967741935
 40
0.5483870967741935
 40
0.5483870967741935
 40
0.5806451612903226
 40
0.5806451612903226
 40
0.5806451612903226
 40
0.5806451612903226
 40
0.6129032258064516
 40
0.6129032258064516
 40
0.6129032258064516
 40
0.6129032258064516
 40
0.6451612903225806
 40
0.6451612903225806
 40
0.6451612903225806
 40
0.6451612903225806
 40
0.6774193548387096
 40
0.6774193548387096
 40
0.6774193548387096
 40
0.6774193548387096
 40
0.7096774193548387
 40
0.7096774193548387
 40
0.7096774193548387
 40
0.7096774193548387
 40
0.7419354838709677
 40
0.7419354838709677
 40
0.7419354838709677
 40
0.7419354838709677
 40
0.7741935483870968
 40
0.7741935483870968
 40
0.7741935483870968
 40
0.7741935483870968
 40
0.8064516129032258
 40
0.8064516129032258
 40
0.8064516129032258
 40
0.8064516129032258
 40
0.8387096774193549
 40
0.8387096774193549
 40
0.8387096774193549
 40
0.8387096774193549
 40
0.8709677419354839
 40
0.8709677419354839
 40
0.8709677419354839
 40
0.8709677419354839
 40
0.9032258064516129
 40
0.9032258064516129
 40
0.9032258064516129
 40
0.9032258064516129
 40
0.9354838709677419
 40
0.9354838709677419
 40
0.9354838709677419
 40
0.9354838709677419
 40
1.0
 40
1.0
 40
1.0
 40
1.0
 10
27.2975
 20
9.5765
 30
0.0
 10
27.2975
 20
9.5765
 30
0.0
 10
27.5888
 20
9.8678
 30
0.0
 10
27.5888
 20
9.8678
 30
0.0
 10
27.5888
 20
9.8678
 30
0.0
 10
27.5888
 20
9.8678
 30
0.0
 10
26.4274
 20
11.0292
 30
0.0
 10
26.4274
 20
11.0292
 30
0.0
 10
26.4274
 20
11.0292
 30
0.0
 10
26.4274
 20
11.0292
 30
0.0
 10
26.4354
 20
11.0372
 30
0.0
 10
26.4354
 20
11.0372
 30
0.0
 10
26.4354
 20
11.0372
 30
0.0
 10
26.4354
 20
11.0372
 30
0.0
 10
26.8306
 20
11.0252
 30
0.0
 10
26.8306
 20
11.0252
 30
0.0
 10
26.8306
 20
11.0252
 30
0.0
 10
27.0987
 20
11.0192
 30
0.0
 10
27.3467
 20
11.0199
 30
0.0
 10
27.5736
 20
11.0272
 30
0.0
 10
27.5736
 20
11.0272
 30
0.0
 10
27.8004
 20
11.0345
 30
0.0
 10
28.0086
 20
11.0552
 30
0.0
 10
28.1969
 20
11.0877
 30
0.0
 10
28.1969
 20
11.0877
 30
0.0
 10
28.3858
 20
11.1197
 30
0.0
 10
28.5561
 20
11.1716
 30
0.0
 10
28.7097
 20
11.2414
 30
0.0
 10
28.7097
 20
11.2414
 30
0.0
 10
28.8621
 20
11.3113
 30
0.0
 10
28.9978
 20
11.4057
 30
0.0
 10
29.1175
 20
11.5242
 30
0.0
 10
29.1175
 20
11.5242
 30
0.0
 10
29.2113
 20
11.6179
 30
0.0
 10
29.2884
 20
11.7244
 30
0.0
 10
29.347
 20
11.8441
 30
0.0
 10
29.347
 20
11.8441
 30
0.0
 10
29.4055
 20
11.9638
 30
0.0
 10
29.4381
 20
12.0923
 30
0.0
 10
29.4461
 20
12.228
 30
0.0
 10
29.4461
 20
12.228
 30
0.0
 10
29.4548
 20
12.3643
 30
0.0
 10
29.4295
 20
12.5039
 30
0.0
 10
29.3716
 20
12.647
 30
0.0
 10
29.3716
 20
12.647
 30
0.0
 10
29.3145
 20
12.7907
 30
0.0
 10
29.2166
 20
12.9324
 30
0.0
 10
29.0776
 20
13.0727
 30
0.0
 10
29.0776
 20
13.0727
 30
0.0
 10
28.9784
 20
13.1705
 30
0.0
 10
28.8734
 20
13.253
 30
0.0
 10
28.7609
 20
13.3189
 30
0.0
 10
28.7609
 20
13.3189
 30
0.0
 10
28.6486
 20
13.3847
 30
0.0
 10
28.5347
 20
13.4359
 30
0.0
 10
28.4191
 20
13.4718
 30
0.0
 10
28.4191
 20
13.4718
 30
0.0
 10
28.3046
 20
13.5078
 30
0.0
 10
28.1929
 20
13.5304
 30
0.0
 10
28.0838
 20
13.5396
 30
0.0
 10
28.0838
 20
13.5396
 30
0.0
 10
28.0838
 20
13.5396
 30
0.0
 10
27.9481
 20
13.1805
 30
0.0
 10
27.9481
 20
13.1805
 30
0.0
 10
27.9481
 20
13.1805
 30
0.0
 10
28.0219
 20
13.1745
 30
0.0
 10
28.1038
 20
13.1605
 30
0.0
 10
28.1929
 20
13.1379
 30
0.0
 10
28.1929
 20
13.1379
 30
0.0
 10
28.2827
 20
13.1159
 30
0.0
 10
28.3718
 20
13.0814
 30
0.0
 10
28.463
 20
13.0355
 30
0.0
 10
28.463
 20
13.0355
 30
0.0
 10
28.5534
 20
12.9889
 30
0.0
 10
28.6392
 20
12.9271
 30
0.0
 10
28.7184
 20
12.8492
 30
0.0
 10
28.7184
 20
12.8492
 30
0.0
 10
28.8142
 20
12.7521
 30
0.0
 10
28.8814
 20
12.657
 30
0.0
 10
28.9199
 20
12.5638
 30
0.0
 10
28.9199
 20
12.5638
 30
0.0
 10
28.9572
 20
12.4707
 30
0.0
 10
28.9724
 20
12.3809
 30
0.0
 10
28.9645
 20
12.2945
 30
0.0
 10
28.9645
 20
12.2945
 30
0.0
 10
28.9558
 20
12.2073
 30
0.0
 10
28.9306
 20
12.1248
 30
0.0
 10
28.8874
 20
12.0469
 30
0.0
 10
28.8874
 20
12.0469
 30
0.0
 10
28.8441
 20
11.9692
 30
0.0
 10
28.7895
 20
11.8973
 30
0.0
 10
28.7224
 20
11.8315
 30
0.0
 10
28.7224
 20
11.8315
 30
0.0
 10
28.6252
 20
11.7343
 30
0.0
 10
28.5102
 20
11.6579
 30
0.0
 10
28.3765
 20
11.6013
 30
0.0
 10
28.3765
 20
11.6013
 30
0.0
 10
28.2421
 20
11.5441
 30
0.0
 10
28.0838
 20
11.5029
 30
0.0
 10
27.8995
 20
11.4769
 30
0.0
 10
27.8995
 20
11.4769
 30
0.0
 10
27.7153
 20
11.451
 30
0.0
 10
27.4997
 20
11.4363
 30
0.0
 10
27.253
 20
11.433
 30
0.0
 10
27.253
 20
11.433
 30
0.0
 10
27.0068
 20
11.429
 30
0.0
 10
26.7221
 20
11.4317
 30
0.0
 10
26.3996
 20
11.4403
 30
0.0
 10
26.3996
 20
11.4403
 30
0.0
 10
26.3996
 20
11.4403
 30
0.0
 10
25.8567
 20
11.4483
 30
0.0
 10
25.8567
 20
11.4483
 30
0.0
 10
25.8567
 20
11.4483
 30
0.0
 10
25.8567
 20
11.4483
 30
0.0
 10
25.6412
 20
11.2328
 30
0.0
 10
25.6412
 20
11.2328
 30
0.0
 10
25.6412
 20
11.2328
 30
0.0
 10
25.6412
 20
11.2328
 30
0.0
 10
27.2975
 20
9.5765
 30
0.0
 10
27.2975
 20
9.5765
 30
0.0
  0
SPLINE
  5
B0
330
1F
100
AcDbEntity
  8
Ilustrace
 62
   250
100
AcDbSpline
210
0.0
220
0.0
230
1.0
 70
    11
 71
     3
 72
    36
 73
    32
 74
     0
 42
0.0000000001
 43
0.0000000001
 40
0.0
 40
0.0
 40
0.0
 40
0.0
 40
0.1111111111111111
 40
0.1111111111111111
 40
0.1111111111111111
 40
0.1111111111111111
 40
0.2222222222222222
 40
0.2222222222222222
 40
0.2222222222222222
 40
0.2222222222222222
 40
0.3333333333333333
 40
0.3333333333333333
 40
0.3333333333333333
 40
0.3333333333333333
 40
0.4444444444444444
 40
0.4444444444444444
 40
0.4444444444444444
 40
0.4444444444444444
 40
0.5555555555555556
 40
0.5555555555555556
 40
0.5555555555555556
 40
0.5555555555555556
 40
0.6666666666666666
 40
0.6666666666666666
 40
0.6666666666666666
 40
0.6666666666666666
 40
0.7777777777777778
 40
0.7777777777777778
 40
0.7777777777777778
 40
0.7777777777777778
 40
1.0
 40
1.0
 40
1.0
 40
1.0
 10
30.3309
 20
11.7317
 30
0.0
 10
30.3309
 20
11.7317
 30
0.0
 10
30.0395
 20
11.4403
 30
0.0
 10
30.0395
 20
11.4403
 30
0.0
 10
30.0395
 20
11.4403
 30
0.0
 10
30.0395
 20
11.4403
 30
0.0
 10
31.3087
 20
10.1711
 30
0.0
 10
31.3087
 20
10.1711
 30
0.0
 10
31.3087
 20
10.1711
 30
0.0
 10
31.3087
 20
10.1711
 30
0.0
 10
31.3007
 20
10.1631
 30
0.0
 10
31.3007
 20
10.1631
 30
0.0
 10
31.3007
 20
10.1631
 30
0.0
 10
31.3007
 20
10.1631
 30
0.0
 10
27.8802
 20
8.9937
 30
0.0
 10
27.8802
 20
8.9937
 30
0.0
 10
27.8802
 20
8.9937
 30
0.0
 10
27.8802
 20
8.9937
 30
0.0
 10
28.2435
 20
8.6305
 30
0.0
 10
28.2435
 20
8.6305
 30
0.0
 10
28.2435
 20
8.6305
 30
0.0
 10
28.2435
 20
8.6305
 30
0.0
 10
31.7357
 20
9.8638
 30
0.0
 10
31.7357
 20
9.8638
 30
0.0
 10
31.7357
 20
9.8638
 30
0.0
 10
31.7357
 20
9.8638
 30
0.0
 10
31.9672
 20
10.0953
 30
0.0
 10
31.9672
 20
10.0953
 30
0.0
 10
31.9672
 20
10.0953
 30
0.0
 10
31.9672
 20
10.0953
 30
0.0
 10
30.3309
 20
11.7317
 30
0.0
 10
30.3309
 20
11.7317
 30
0.0
  0
SPLINE
  5
B1
330
1F
100
AcDbEntity
  8
Ilustrace
 62
   250
100
AcDbSpline
210
0.0
220
0.0
230
1.0
 70
    11
 71
     3
 72
    56
 73
    52
 74
     0
 42
0.0000000001
 43
0.0000000001
 40
0.0
 40
0.0
 40
0.0
 40
0.0
 40
0.0714285714285714
 40
0.0714285714285714
 40
0.0714285714285714
 40
0.0714285714285714
 40
0.1428571428571428
 40
0.1428571428571428
 40
0.1428571428571428
 40
0.1428571428571428
 40
0.2142857142857143
 40
0.2142857142857143
 40
0.2142857142857143
 40
0.2142857142857143
 40
0.2857142857142857
 40
0.2857142857142857
 40
0.2857142857142857
 40
0.2857142857142857
 40
0.3571428571428572
 40
0.3571428571428572
 40
0.3571428571428572
 40
0.3571428571428572
 40
0.4285714285714285
 40
0.4285714285714285
 40
0.4285714285714285
 40
0.4285714285714285
 40
0.5
 40
0.5
 40
0.5
 40
0.5
 40
0.5714285714285714
 40
0.5714285714285714
 40
0.5714285714285714
 40
0.5714285714285714
 40
0.6428571428571429
 40
0.6428571428571429
 40
0.6428571428571429
 40
0.6428571428571429
 40
0.7142857142857143
 40
0.7142857142857143
 40
0.7142857142857143
 40
0.7142857142857143
 40
0.7857142857142857
 40
0.7857142857142857
 40
0.7857142857142857
 40
0.7857142857142857
 40
0.8571428571428571
 40
0.8571428571428571
 40
0.8571428571428571
 40
0.8571428571428571
 40
1.0
 40
1.0
 40
1.0
 40
1.0
 10
33.2444
 20
8.9058
 30
0.0
 10
33.1121
 20
9.0382
 30
0.0
 10
32.9618
 20
9.1301
 30
0.0
 10
32.7928
 20
9.182
 30
0.0
 10
32.7928
 20
9.182
 30
0.0
 10
32.6238
 20
9.2339
 30
0.0
 10
32.4428
 20
9.2431
 30
0.0
 10
32.2473
 20
9.2099
 30
0.0
 10
32.2473
 20
9.2099
 30
0.0
 10
32.0517
 20
9.1766
 30
0.0
 10
31.8482
 20
9.0982
 30
0.0
 10
31.636
 20
8.9751
 30
0.0
 10
31.636
 20
8.9751
 30
0.0
 10
31.4245
 20
8.8514
 30
0.0
 10
31.2089
 20
8.681
 30
0.0
 10
30.9894
 20
8.4628
 30
0.0
 10
30.9894
 20
8.4628
 30
0.0
 10
30.7067
 20
8.1722
 30
0.0
 10
30.5025
 20
7.8921
 30
0.0
 10
30.3768
 20
7.6214
 30
0.0
 10
30.3768
 20
7.6214
 30
0.0
 10
30.251
 20
7.3507
 30
0.0
 10
30.2012
 20
7.0999
 30
0.0
 10
30.2264
 20
6.8697
 30
0.0
 10
30.2264
 20
6.8697
 30
0.0
 10
30.2517
 20
6.6396
 30
0.0
 10
30.3489
 20
6.4387
 30
0.0
 10
30.5185
 20
6.2677
 30
0.0
 10
30.5185
 20
6.2677
 30
0.0
 10
30.7101
 20
6.0775
 30
0.0
 10
30.9255
 20
5.9684
 30
0.0
 10
31.165
 20
5.9391
 30
0.0
 10
31.165
 20
5.9391
 30
0.0
 10
31.4045
 20
5.9098
 30
0.0
 10
31.6612
 20
5.9617
 30
0.0
 10
31.9354
 20
6.0947
 30
0.0
 10
31.9354
 20
6.0947
 30
0.0
 10
32.2101
 20
6.2272
 30
0.0
 10
32.4941
 20
6.4406
 30
0.0
 10
32.7894
 20
6.7347
 30
0.0
 10
32.7894
 20
6.7347
 30
0.0
 10
33.0648
 20
7.0114
 30
0.0
 10
33.2671
 20
7.2815
 30
0.0
 10
33.3955
 20
7.5442
 30
0.0
 10
33.3955
 20
7.5442
 30
0.0
 10
33.5239
 20
7.807
 30
0.0
 10
33.5757
 20
8.0544
 30
0.0
 10
33.5511
 20
8.2852
 30
0.0
 10
33.5511
 20
8.2852
 30
0.0
 10
33.5271
 20
8.5168
 30
0.0
 10
33.4254
 20
8.7236
 30
0.0
 10
33.2444
 20
8.9058
 30
0.0
  0
SPLINE
  5
B2
330
1F
100
AcDbEntity
  8
Ilustrace
 62
   250
100
AcDbSpline
210
0.0
220
0.0
230
1.0
 70
    11
 71
     3
 72
    56
 73
    52
 74
     0
 42
0.0000000001
 43
0.0000000001
 40
0.0
 40
0.0
 40
0.0
 40
0.0
 40
0.0714285714285714
 40
0.0714285714285714
 40
0.0714285714285714
 40
0.0714285714285714
 40
0.1428571428571428
 40
0.1428571428571428
 40
0.1428571428571428
 40
0.1428571428571428
 40
0.2142857142857143
 40
0.2142857142857143
 40
0.2142857142857143
 40
0.2142857142857143
 40
0.2857142857142857
 40
0.2857142857142857
 40
0.2857142857142857
 40
0.2857142857142857
 40
0.3571428571428572
 40
0.3571428571428572
 40
0.3571428571428572
 40
0.3571428571428572
 40
0.4285714285714285
 40
0.4285714285714285
 40
0.4285714285714285
 40
0.4285714285714285
 40
0.5
 40
0.5
 40
0.5
 40
0.5
 40
0.5714285714285714
 40
0.5714285714285714
 40
0.5714285714285714
 40
0.5714285714285714
 40
0.6428571428571429
 40
0.6428571428571429
 40
0.6428571428571429
 40
0.6428571428571429
 40
0.7142857142857143
 40
0.7142857142857143
 40
0.7142857142857143
 40
0.7142857142857143
 40
0.7857142857142857
 40
0.7857142857142857
 40
0.7857142857142857
 40
0.7857142857142857
 40
0.8571428571428571
 40
0.8571428571428571
 40
0.8571428571428571
 40
0.8571428571428571
 40
1.0
 40
1.0
 40
1.0
 40
1.0
 10
32.9491
 20
8.6584
 30
0.0
 10
33.0402
 20
8.566
 30
0.0
 10
33.0948
 20
8.4622
 30
0.0
 10
33.1114
 20
8.3457
 30
0.0
 10
33.1114
 20
8.3457
 30
0.0
 10
33.128
 20
8.2294
 30
0.0
 10
33.1114
 20
8.1036
 30
0.0
 10
33.0609
 20
7.9679
 30
0.0
 10
33.0609
 20
7.9679
 30
0.0
 10
33.0109
 20
7.8329
 30
0.0
 10
32.9311
 20
7.6893
 30
0.0
 10
32.8227
 20
7.5396
 30
0.0
 10
32.8227
 20
7.5396
 30
0.0
 10
32.7137
 20
7.3892
 30
0.0
 10
32.5786
 20
7.2342
 30
0.0
 10
32.4183
 20
7.0739
 30
0.0
 10
32.4183
 20
7.0739
 30
0.0
 10
32.1961
 20
6.8518
 30
0.0
 10
31.9852
 20
6.6794
 30
0.0
 10
31.7857
 20
6.5571
 30
0.0
 10
31.7857
 20
6.5571
 30
0.0
 10
31.5861
 20
6.4334
 30
0.0
 10
31.4032
 20
6.3675
 30
0.0
 10
31.2376
 20
6.3575
 30
0.0
 10
31.2376
 20
6.3575
 30
0.0
 10
31.0719
 20
6.3475
 30
0.0
 10
30.9296
 20
6.402
 30
0.0
 10
30.8098
 20
6.5191
 30
0.0
 10
30.8098
 20
6.5191
 30
0.0
 10
30.7034
 20
6.6269
 30
0.0
 10
30.6522
 20
6.7606
 30
0.0
 10
30.6554
 20
6.9223
 30
0.0
 10
30.6554
 20
6.9223
 30
0.0
 10
30.6595
 20
7.0833
 30
0.0
 10
30.7186
 20
7.2635
 30
0.0
 10
30.8324
 20
7.4637
 30
0.0
 10
30.8324
 20
7.4637
 30
0.0
 10
30.9468
 20
7.6646
 30
0.0
 10
31.1158
 20
7.8775
 30
0.0
 10
31.3407
 20
8.1036
 30
0.0
 10
31.3407
 20
8.1036
 30
0.0
 10
31.5775
 20
8.3392
 30
0.0
 10
31.7983
 20
8.5135
 30
0.0
 10
32.0045
 20
8.6291
 30
0.0
 10
32.0045
 20
8.6291
 30
0.0
 10
32.2101
 20
8.7442
 30
0.0
 10
32.3929
 20
8.8034
 30
0.0
 10
32.5546
 20
8.8068
 30
0.0
 10
32.5546
 20
8.8068
 30
0.0
 10
32.7156
 20
8.8095
 30
0.0
 10
32.8473
 20
8.7602
 30
0.0
 10
32.9491
 20
8.6584
 30
0.0
  0
SPLINE
  5
B3
330
1F
100
AcDbEntity
  8
Ilustrace
 62
   250
370
    15
100
AcDbSpline
210
0.0
220
0.0
230
1.0
 70
    24
 71
     3
 72
     8
 73
     4
 74
     0
 42
0.0000000001
 43
0.0000000001
 40
0.0
 40
0.0
 40
0.0
 40
0.0
 40
1.0
 40
1.0
 40
1.0
 40
1.0
 10
-57.1452
 20
-26.7069
 30
0.0
 10
-57.1452
 20
-26.7069
 30
0.0
 10
-57.1452
 20
-20.4413
 30
0.0
 10
-57.1452
 20
-20.4413
 30
0.0
  0
SPLINE
  5
B4
330
1F
100
AcDbEntity
  8
Ilustrace
 62
   250
370
    15
100
AcDbSpline
210
0.0
220
0.0
230
1.0
 70
    24
 71
     3
 72
     8
 73
     4
 74
     0
 42
0.0000000001
 43
0.0000000001
 40
0.0
 40
0.0
 40
0.0
 40
0.0
 40
1.0
 40
1.0
 40
1.0
 40
1.0
 10
-2.3141
 20
34.4961
 30
0.0
 10
-2.3141
 20
34.4961
 30
0.0
 10
-0.1746
 20
36.6356
 30
0.0
 10
-0.1746
 20
36.6356
 30
0.0
  0
SPLINE
  5
B5
330
1F
100
AcDbEntity
  8
Ilustrace
 62
   250
370
    15
100
AcDbSpline
210
0.0
220
0.0
230
1.0
 70
    24
 71
     3
 72
     8
 73
     4
 74
     0
 42
0.0000000001
 43
0.0000000001
 40
0.0
 40
0.0
 40
0.0
 40
0.0
 40
1.0
 40
1.0
 40
1.0
 40
1.0
 10
52.1296
 20
-32.3682
 30
0.0
 10
52.1296
 20
-32.3682
 30
0.0
 10
57.084
 20
-32.3682
 30
0.0
 10
57.084
 20
-32.3682
 30
0.0
  0
SPLINE
  5
B6
330
1F
100
AcDbEntity
  8
Ilustrace
 62
   250
370
    15
100
AcDbSpline
210
0.0
220
0.0
230
1.0
 70
    24
 71
     3
 72
     8
 73
     4
 74
     0
 42
0.0000000001
 43
0.0000000001
 40
0.0
 40
0.0
 40
0.0
 40
0.0
 40
1.0
 40
1.0
 40
1.0
 40
1.0
 10
52.3317
 20
-31.1375
 30
0.0
 10
52.3317
 20
-31.1375
 30
0.0
 10
57.1454
 20
-31.1375
 30
0.0
 10
57.1454
 20
-31.1375
 30
0.0
  0
SPLINE
  5
B7
330
1F
100
AcDbEntity
  8
Ilustrace
 62
   250
370
    15
100
AcDbSpline
210
0.0
220
0.0
230
1.0
 70
    24
 71
     3
 72
     8
 73
     4
 74
     0
 42
0.0000000001
 43
0.0000000001
 40
0.0
 40
0.0
 40
0.0
 40
0.0
 40
1.0
 40
1.0
 40
1.0
 40
1.0
 10
56.649
 20
-25.953
 30
0.0
 10
56.649
 20
-25.953
 30
0.0
 10
56.649
 20
-36.6356
 30
0.0
 10
56.649
 20
-36.6356
 30
0.0
  0
SPLINE
  5
B8
330
1F
100
AcDbEntity
  8
Ilustrace
 62
   250
100
AcDbSpline
210
0.0
220
0.0
230
1.0
 70
    11
 71
     3
 72
    48
 73
    44
 74
     0
 42
0.0000000001
 43
0.0000000001
 40
0.0
 40
0.0
 40
0.0
 40
0.0
 40
0.0833333333333333
 40
0.0833333333333333
 40
0.0833333333333333
 40
0.0833333333333333
 40
0.1666666666666667
 40
0.1666666666666667
 40
0.1666666666666667
 40
0.1666666666666667
 40
0.25
 40
0.25
 40
0.25
 40
0.25
 40
0.3333333333333333
 40
0.3333333333333333
 40
0.3333333333333333
 40
0.3333333333333333
 40
0.4166666666666667
 40
0.4166666666666667
 40
0.4166666666666667
 40
0.4166666666666667
 40
0.5
 40
0.5
 40
0.5
 40
0.5
 40
0.5833333333333334
 40
0.5833333333333334
 40
0.5833333333333334
 40
0.5833333333333334
 40
0.6666666666666666
 40
0.6666666666666666
 40
0.6666666666666666
 40
0.6666666666666666
 40
0.75
 40
0.75
 40
0.75
 40
0.75
 40
0.8333333333333334
 40
0.8333333333333334
 40
0.8333333333333334
 40
0.8333333333333334
 40
1.0
 40
1.0
 40
1.0
 40
1.0
 10
56.0147
 20
-27.7959
 30
0.0
 10
56.0147
 20
-27.7959
 30
0.0
 10
55.01
 20
-27.7959
 30
0.0
 10
55.01
 20
-27.7959
 30
0.0
 10
55.01
 20
-27.7959
 30
0.0
 10
55.01
 20
-27.7959
 30
0.0
 10
55.01
 20
-27.2823
 30
0.0
 10
55.01
 20
-27.2823
 30
0.0
 10
55.01
 20
-27.2823
 30
0.0
 10
55.01
 20
-27.2823
 30
0.0
 10
54.6262
 20
-27.2823
 30
0.0
 10
54.6262
 20
-27.2823
 30
0.0
 10
54.6262
 20
-27.2823
 30
0.0
 10
54.6262
 20
-27.2823
 30
0.0
 10
54.6262
 20
-27.7959
 30
0.0
 10
54.6262
 20
-27.7959
 30
0.0
 10
54.6262
 20
-27.7959
 30
0.0
 10
54.6262
 20
-27.7959
 30
0.0
 10
52.3458
 20
-27.7959
 30
0.0
 10
52.3458
 20
-27.7959
 30
0.0
 10
52.3458
 20
-27.7959
 30
0.0
 10
52.3458
 20
-27.7959
 30
0.0
 10
52.3458
 20
-28.3322
 30
0.0
 10
52.3458
 20
-28.3322
 30
0.0
 10
52.3458
 20
-28.3322
 30
0.0
 10
52.3458
 20
-28.3322
 30
0.0
 10
54.6883
 20
-29.969
 30
0.0
 10
54.6883
 20
-29.969
 30
0.0
 10
54.6883
 20
-29.969
 30
0.0
 10
54.6883
 20
-29.969
 30
0.0
 10
55.01
 20
-29.969
 30
0.0
 10
55.01
 20
-29.969
 30
0.0
 10
55.01
 20
-29.969
 30
0.0
 10
55.01
 20
-29.969
 30
0.0
 10
55.01
 20
-28.2644
 30
0.0
 10
55.01
 20
-28.2644
 30
0.0
 10
55.01
 20
-28.2644
 30
0.0
 10
55.01
 20
-28.2644
 30
0.0
 10
56.0147
 20
-28.2644
 30
0.0
 10
56.0147
 20
-28.2644
 30
0.0
 10
56.0147
 20
-28.2644
 30
0.0
 10
56.0147
 20
-28.2644
 30
0.0
 10
56.0147
 20
-27.7959
 30
0.0
 10
56.0147
 20
-27.7959
 30
0.0
  0
SPLINE
  5
B9
330
1F
100
AcDbEntity
  8
Ilustrace
 62
   250
100
AcDbSpline
210
0.0
220
0.0
230
1.0
 70
    11
 71
     3
 72
    36
 73
    32
 74
     0
 42
0.0000000001
 43
0.0000000001
 40
0.0
 40
0.0
 40
0.0
 40
0.0
 40
0.1111111111111111
 40
0.1111111111111111
 40
0.1111111111111111
 40
0.1111111111111111
 40
0.2222222222222222
 40
0.2222222222222222
 40
0.2222222222222222
 40
0.2222222222222222
 40
0.3333333333333333
 40
0.3333333333333333
 40
0.3333333333333333
 40
0.3333333333333333
 40
0.4444444444444444
 40
0.4444444444444444
 40
0.4444444444444444
 40
0.4444444444444444
 40
0.5555555555555556
 40
0.5555555555555556
 40
0.5555555555555556
 40
0.5555555555555556
 40
0.6666666666666666
 40
0.6666666666666666
 40
0.6666666666666666
 40
0.6666666666666666
 40
0.7777777777777778
 40
0.7777777777777778
 40
0.7777777777777778
 40
0.7777777777777778
 40
1.0
 40
1.0
 40
1.0
 40
1.0
 10
54.6262
 20
-29.4667
 30
0.0
 10
54.6262
 20
-29.4667
 30
0.0
 10
54.6149
 20
-29.4667
 30
0.0
 10
54.6149
 20
-29.4667
 30
0.0
 10
54.6149
 20
-29.4667
 30
0.0
 10
54.6149
 20
-29.4667
 30
0.0
 10
53.3675
 20
-28.5692
 30
0.0
 10
53.3675
 20
-28.5692
 30
0.0
 10
53.3675
 20
-28.5692
 30
0.0
 10
53.2838
 20
-28.5194
 30
0.0
 10
53.1991
 20
-28.4695
 30
0.0
 10
53.1135
 20
-28.4206
 30
0.0
 10
53.1135
 20
-28.4206
 30
0.0
 10
53.0269
 20
-28.3726
 30
0.0
 10
52.931
 20
-28.3199
 30
0.0
 10
52.8256
 20
-28.2644
 30
0.0
 10
52.8256
 20
-28.2644
 30
0.0
 10
52.8256
 20
-28.2644
 30
0.0
 10
52.8256
 20
-28.2475
 30
0.0
 10
52.8256
 20
-28.2475
 30
0.0
 10
52.8256
 20
-28.2475
 30
0.0
 10
53.0175
 20
-28.2588
 30
0.0
 10
53.2094
 20
-28.2644
 30
0.0
 10
53.4013
 20
-28.2644
 30
0.0
 10
53.4013
 20
-28.2644
 30
0.0
 10
53.4013
 20
-28.2644
 30
0.0
 10
54.6262
 20
-28.2644
 30
0.0
 10
54.6262
 20
-28.2644
 30
0.0
 10
54.6262
 20
-28.2644
 30
0.0
 10
54.6262
 20
-28.2644
 30
0.0
 10
54.6262
 20
-29.4667
 30
0.0
 10
54.6262
 20
-29.4667
 30
0.0
  0
SPLINE
  5
BA
330
1F
100
AcDbEntity
  8
Ilustrace
 62
   250
100
AcDbSpline
210
0.0
220
0.0
230
1.0
 70
    11
 71
     3
 72
   604
 73
   600
 74
     0
 42
0.0000000001
 43
0.0000000001
 40
0.0
 40
0.0
 40
0.0
 40
0.0
 40
0.0066225165562914
 40
0.0066225165562914
 40
0.0066225165562914
 40
0.0066225165562914
 40
0.0132450331125828
 40
0.0132450331125828
 40
0.0132450331125828
 40
0.0132450331125828
 40
0.0198675496688742
 40
0.0198675496688742
 40
0.0198675496688742
 40
0.0198675496688742
 40
0.0264900662251656
 40
0.0264900662251656
 40
0.0264900662251656
 40
0.0264900662251656
 40
0.033112582781457
 40
0.033112582781457
 40
0.033112582781457
 40
0.033112582781457
 40
0.0397350993377483
 40
0.0397350993377483
 40
0.0397350993377483
 40
0.0397350993377483
 40
0.0463576158940397
 40
0.0463576158940397
 40
0.0463576158940397
 40
0.0463576158940397
 40
0.0529801324503311
 40
0.0529801324503311
 40
0.0529801324503311
 40
0.0529801324503311
 40
0.0596026490066225
 40
0.0596026490066225
 40
0.0596026490066225
 40
0.0596026490066225
 40
0.0662251655629139
 40
0.0662251655629139
 40
0.0662251655629139
 40
0.0662251655629139
 40
0.0728476821192053
 40
0.0728476821192053
 40
0.0728476821192053
 40
0.0728476821192053
 40
0.0794701986754967
 40
0.0794701986754967
 40
0.0794701986754967
 40
0.0794701986754967
 40
0.0860927152317881
 40
0.0860927152317881
 40
0.0860927152317881
 40
0.0860927152317881
 40
0.0927152317880795
 40
0.0927152317880795
 40
0.0927152317880795
 40
0.0927152317880795
 40
0.0993377483443709
 40
0.0993377483443709
 40
0.0993377483443709
 40
0.0993377483443709
 40
0.1059602649006623
 40
0.1059602649006623
 40
0.1059602649006623
 40
0.1059602649006623
 40
0.1125827814569536
 40
0.1125827814569536
 40
0.1125827814569536
 40
0.1125827814569536
 40
0.119205298013245
 40
0.119205298013245
 40
0.119205298013245
 40
0.119205298013245
 40
0.1258278145695364
 40
0.1258278145695364
 40
0.1258278145695364
 40
0.1258278145695364
 40
0.1324503311258278
 40
0.1324503311258278
 40
0.1324503311258278
 40
0.1324503311258278
 40
0.1390728476821192
 40
0.1390728476821192
 40
0.1390728476821192
 40
0.1390728476821192
 40
0.1456953642384106
 40
0.1456953642384106
 40
0.1456953642384106
 40
0.1456953642384106
 40
0.152317880794702
 40
0.152317880794702
 40
0.152317880794702
 40
0.152317880794702
 40
0.1589403973509934
 40
0.1589403973509934
 40
0.1589403973509934
 40
0.1589403973509934
 40
0.1655629139072848
 40
0.1655629139072848
 40
0.1655629139072848
 40
0.1655629139072848
 40
0.1721854304635762
 40
0.1721854304635762
 40
0.1721854304635762
 40
0.1721854304635762
 40
0.1788079470198675
 40
0.1788079470198675
 40
0.1788079470198675
 40
0.1788079470198675
 40
0.1854304635761589
 40
0.1854304635761589
 40
0.1854304635761589
 40
0.1854304635761589
 40
0.1920529801324503
 40
0.1920529801324503
 40
0.1920529801324503
 40
0.1920529801324503
 40
0.1986754966887417
 40
0.1986754966887417
 40
0.1986754966887417
 40
0.1986754966887417
 40
0.2052980132450331
 40
0.2052980132450331
 40
0.2052980132450331
 40
0.2052980132450331
 40
0.2119205298013245
 40
0.2119205298013245
 40
0.2119205298013245
 40
0.2119205298013245
 40
0.2185430463576159
 40
0.2185430463576159
 40
0.2185430463576159
 40
0.2185430463576159
 40
0.2251655629139073
 40
0.2251655629139073
 40
0.2251655629139073
 40
0.2251655629139073
 40
0.2317880794701987
 40
0.2317880794701987
 40
0.2317880794701987
 40
0.2317880794701987
 40
0.2384105960264901
 40
0.2384105960264901
 40
0.2384105960264901
 40
0.2384105960264901
 40
0.2450331125827815
 40
0.2450331125827815
 40
0.2450331125827815
 40
0.2450331125827815
 40
0.2516556291390729
 40
0.2516556291390729
 40
0.2516556291390729
 40
0.2516556291390729
 40
0.2582781456953642
 40
0.2582781456953642
 40
0.2582781456953642
 40
0.2582781456953642
 40
0.2649006622516556
 40
0.2649006622516556
 40
0.2649006622516556
 40
0.2649006622516556
 40
0.271523178807947
 40
0.271523178807947
 40
0.271523178807947
 40
0.271523178807947
 40
0.2781456953642384
 40
0.2781456953642384
 40
0.2781456953642384
 40
0.2781456953642384
 40
0.2847682119205298
 40
0.2847682119205298
 40
0.2847682119205298
 40
0.2847682119205298
 40
0.2913907284768212
 40
0.2913907284768212
 40
0.2913907284768212
 40
0.2913907284768212
 40
0.2980132450331126
 40
0.2980132450331126
 40
0.2980132450331126
 40
0.2980132450331126
 40
0.304635761589404
 40
0.304635761589404
 40
0.304635761589404
 40
0.304635761589404
 40
0.3112582781456953
 40
0.3112582781456953
 40
0.3112582781456953
 40
0.3112582781456953
 40
0.3178807947019868
 40
0.3178807947019868
 40
0.3178807947019868
 40
0.3178807947019868
 40
0.3245033112582781
 40
0.3245033112582781
 40
0.3245033112582781
 40
0.3245033112582781
 40
0.3311258278145696
 40
0.3311258278145696
 40
0.3311258278145696
 40
0.3311258278145696
 40
0.3377483443708609
 40
0.3377483443708609
 40
0.3377483443708609
 40
0.3377483443708609
 40
0.3443708609271523
 40
0.3443708609271523
 40
0.3443708609271523
 40
0.3443708609271523
 40
0.3509933774834437
 40
0.3509933774834437
 40
0.3509933774834437
 40
0.3509933774834437
 40
0.3576158940397351
 40
0.3576158940397351
 40
0.3576158940397351
 40
0.3576158940397351
 40
0.3642384105960265
 40
0.3642384105960265
 40
0.3642384105960265
 40
0.3642384105960265
 40
0.3708609271523179
 40
0.3708609271523179
 40
0.3708609271523179
 40
0.3708609271523179
 40
0.3774834437086093
 40
0.3774834437086093
 40
0.3774834437086093
 40
0.3774834437086093
 40
0.3841059602649007
 40
0.3841059602649007
 40
0.3841059602649007
 40
0.3841059602649007
 40
0.3907284768211921
 40
0.3907284768211921
 40
0.3907284768211921
 40
0.3907284768211921
 40
0.3973509933774834
 40
0.3973509933774834
 40
0.3973509933774834
 40
0.3973509933774834
 40
0.4039735099337748
 40
0.4039735099337748
 40
0.4039735099337748
 40
0.4039735099337748
 40
0.4105960264900662
 40
0.4105960264900662
 40
0.4105960264900662
 40
0.4105960264900662
 40
0.4172185430463576
 40
0.4172185430463576
 40
0.4172185430463576
 40
0.4172185430463576
 40
0.423841059602649
 40
0.423841059602649
 40
0.423841059602649
 40
0.423841059602649
 40
0.4304635761589404
 40
0.4304635761589404
 40
0.4304635761589404
 40
0.4304635761589404
 40
0.4370860927152318
 40
0.4370860927152318
 40
0.4370860927152318
 40
0.4370860927152318
 40
0.4437086092715232
 40
0.4437086092715232
 40
0.4437086092715232
 40
0.4437086092715232
 40
0.4503311258278146
 40
0.4503311258278146
 40
0.4503311258278146
 40
0.4503311258278146
 40
0.456953642384106
 40
0.456953642384106
 40
0.456953642384106
 40
0.456953642384106
 40
0.4635761589403973
 40
0.4635761589403973
 40
0.4635761589403973
 40
0.4635761589403973
 40
0.4701986754966888
 40
0.4701986754966888
 40
0.4701986754966888
 40
0.4701986754966888
 40
0.4768211920529801
 40
0.4768211920529801
 40
0.4768211920529801
 40
0.4768211920529801
 40
0.4834437086092715
 40
0.4834437086092715
 40
0.4834437086092715
 40
0.4834437086092715
 40
0.4900662251655629
 40
0.4900662251655629
 40
0.4900662251655629
 40
0.4900662251655629
 40
0.4966887417218543
 40
0.4966887417218543
 40
0.4966887417218543
 40
0.4966887417218543
 40
0.5033112582781457
 40
0.5033112582781457
 40
0.5033112582781457
 40
0.5033112582781457
 40
0.5099337748344371
 40
0.5099337748344371
 40
0.5099337748344371
 40
0.5099337748344371
 40
0.5165562913907285
 40
0.5165562913907285
 40
0.5165562913907285
 40
0.5165562913907285
 40
0.5231788079470199
 40
0.5231788079470199
 40
0.5231788079470199
 40
0.5231788079470199
 40
0.5298013245033113
 40
0.5298013245033113
 40
0.5298013245033113
 40
0.5298013245033113
 40
0.5364238410596026
 40
0.5364238410596026
 40
0.5364238410596026
 40
0.5364238410596026
 40
0.543046357615894
 40
0.543046357615894
 40
0.543046357615894
 40
0.543046357615894
 40
0.5496688741721855
 40
0.5496688741721855
 40
0.5496688741721855
 40
0.5496688741721855
 40
0.5562913907284768
 40
0.5562913907284768
 40
0.5562913907284768
 40
0.5562913907284768
 40
0.5629139072847682
 40
0.5629139072847682
 40
0.5629139072847682
 40
0.5629139072847682
 40
0.5695364238410596
 40
0.5695364238410596
 40
0.5695364238410596
 40
0.5695364238410596
 40
0.5761589403973509
 40
0.5761589403973509
 40
0.5761589403973509
 40
0.5761589403973509
 40
0.5827814569536424
 40
0.5827814569536424
 40
0.5827814569536424
 40
0.5827814569536424
 40
0.5894039735099338
 40
0.5894039735099338
 40
0.5894039735099338
 40
0.5894039735099338
 40
0.5960264900662252
 40
0.5960264900662252
 40
0.5960264900662252
 40
0.5960264900662252
 40
0.6026490066225165
 40
0.6026490066225165
 40
0.6026490066225165
 40
0.6026490066225165
 40
0.609271523178808
 40
0.609271523178808
 40
0.609271523178808
 40
0.609271523178808
 40
0.6158940397350994
 40
0.6158940397350994
 40
0.6158940397350994
 40
0.6158940397350994
 40
0.6225165562913907
 40
0.6225165562913907
 40
0.6225165562913907
 40
0.6225165562913907
 40
0.6291390728476821
 40
0.6291390728476821
 40
0.6291390728476821
 40
0.6291390728476821
 40
0.6357615894039735
 40
0.6357615894039735
 40
0.6357615894039735
 40
0.6357615894039735
 40
0.6423841059602649
 40
0.6423841059602649
 40
0.6423841059602649
 40
0.6423841059602649
 40
0.6490066225165563
 40
0.6490066225165563
 40
0.6490066225165563
 40
0.6490066225165563
 40
0.6556291390728477
 40
0.6556291390728477
 40
0.6556291390728477
 40
0.6556291390728477
 40
0.6622516556291391
 40
0.6622516556291391
 40
0.6622516556291391
 40
0.6622516556291391
 40
0.6688741721854304
 40
0.6688741721854304
 40
0.6688741721854304
 40
0.6688741721854304
 40
0.6754966887417219
 40
0.6754966887417219
 40
0.6754966887417219
 40
0.6754966887417219
 40
0.6821192052980133
 40
0.6821192052980133
 40
0.6821192052980133
 40
0.6821192052980133
 40
0.6887417218543046
 40
0.6887417218543046
 40
0.6887417218543046
 40
0.6887417218543046
 40
0.695364238410596
 40
0.695364238410596
 40
0.695364238410596
 40
0.695364238410596
 40
0.7019867549668874
 40
0.7019867549668874
 40
0.7019867549668874
 40
0.7019867549668874
 40
0.7086092715231788
 40
0.7086092715231788
 40
0.7086092715231788
 40
0.7086092715231788
 40
0.7152317880794702
 40
0.7152317880794702
 40
0.7152317880794702
 40
0.7152317880794702
 40
0.7218543046357616
 40
0.7218543046357616
 40
0.7218543046357616
 40
0.7218543046357616
 40
0.7284768211920529
 40
0.7284768211920529
 40
0.7284768211920529
 40
0.7284768211920529
 40
0.7350993377483444
 40
0.7350993377483444
 40
0.7350993377483444
 40
0.7350993377483444
 40
0.7417218543046358
 40
0.7417218543046358
 40
0.7417218543046358
 40
0.7417218543046358
 40
0.7483443708609272
 40
0.7483443708609272
 40
0.7483443708609272
 40
0.7483443708609272
 40
0.7549668874172185
 40
0.7549668874172185
 40
0.7549668874172185
 40
0.7549668874172185
 40
0.7615894039735099
 40
0.7615894039735099
 40
0.7615894039735099
 40
0.7615894039735099
 40
0.7682119205298014
 40
0.7682119205298014
 40
0.7682119205298014
 40
0.7682119205298014
 40
0.7748344370860927
 40
0.7748344370860927
 40
0.7748344370860927
 40
0.7748344370860927
 40
0.7814569536423841
 40
0.7814569536423841
 40
0.7814569536423841
 40
0.7814569536423841
 40
0.7880794701986755
 40
0.7880794701986755
 40
0.7880794701986755
 40
0.7880794701986755
 40
0.7947019867549668
 40
0.7947019867549668
 40
0.7947019867549668
 40
0.7947019867549668
 40
0.8013245033112583
 40
0.8013245033112583
 40
0.8013245033112583
 40
0.8013245033112583
 40
0.8079470198675497
 40
0.8079470198675497
 40
0.8079470198675497
 40
0.8079470198675497
 40
0.8145695364238411
 40
0.8145695364238411
 40
0.8145695364238411
 40
0.8145695364238411
 40
0.8211920529801324
 40
0.8211920529801324
 40
0.8211920529801324
 40
0.8211920529801324
 40
0.8278145695364238
 40
0.8278145695364238
 40
0.8278145695364238
 40
0.8278145695364238
 40
0.8344370860927153
 40
0.8344370860927153
 40
0.8344370860927153
 40
0.8344370860927153
 40
0.8410596026490066
 40
0.8410596026490066
 40
0.8410596026490066
 40
0.8410596026490066
 40
0.847682119205298
 40
0.847682119205298
 40
0.847682119205298
 40
0.847682119205298
 40
0.8543046357615894
 40
0.8543046357615894
 40
0.8543046357615894
 40
0.8543046357615894
 40
0.8609271523178808
 40
0.8609271523178808
 40
0.8609271523178808
 40
0.8609271523178808
 40
0.8675496688741722
 40
0.8675496688741722
 40
0.8675496688741722
 40
0.8675496688741722
 40
0.8741721854304636
 40
0.8741721854304636
 40
0.8741721854304636
 40
0.8741721854304636
 40
0.8807947019867549
 40
0.8807947019867549
 40
0.8807947019867549
 40
0.8807947019867549
 40
0.8874172185430463
 40
0.8874172185430463
 40
0.8874172185430463
 40
0.8874172185430463
 40
0.8940397350993378
 40
0.8940397350993378
 40
0.8940397350993378
 40
0.8940397350993378
 40
0.9006622516556292
 40
0.9006622516556292
 40
0.9006622516556292
 40
0.9006622516556292
 40
0.9072847682119205
 40
0.9072847682119205
 40
0.9072847682119205
 40
0.9072847682119205
 40
0.9139072847682119
 40
0.9139072847682119
 40
0.9139072847682119
 40
0.9139072847682119
 40
0.9205298013245033
 40
0.9205298013245033
 40
0.9205298013245033
 40
0.9205298013245033
 40
0.9271523178807947
 40
0.9271523178807947
 40
0.9271523178807947
 40
0.9271523178807947
 40
0.9337748344370861
 40
0.9337748344370861
 40
0.9337748344370861
 40
0.9337748344370861
 40
0.9403973509933775
 40
0.9403973509933775
 40
0.9403973509933775
 40
0.9403973509933775
 40
0.9470198675496688
 40
0.9470198675496688
 40
0.9470198675496688
 40
0.9470198675496688
 40
0.9536423841059603
 40
0.9536423841059603
 40
0.9536423841059603
 40
0.9536423841059603
 40
0.9602649006622517
 40
0.9602649006622517
 40
0.9602649006622517
 40
0.9602649006622517
 40
0.9668874172185431
 40
0.9668874172185431
 40
0.9668874172185431
 40
0.9668874172185431
 40
0.9735099337748344
 40
0.9735099337748344
 40
0.9735099337748344
 40
0.9735099337748344
 40
0.9801324503311258
 40
0.9801324503311258
 40
0.9801324503311258
 40
0.9801324503311258
 40
0.9867549668874173
 40
0.9867549668874173
 40
0.9867549668874173
 40
0.9867549668874173
 40
1.0
 40
1.0
 40
1.0
 40
1.0
 10
-47.3095
 20
-18.0585
 30
0.0
 10
-47.3094
 20
-18.0585
 30
0.0
 10
-47.2995
 20
-18.0595
 30
0.0
 10
-47.2884
 20
-18.0607
 30
0.0
 10
-47.2884
 20
-18.0607
 30
0.0
 10
-47.2884
 20
-18.0607
 30
0.0
 10
-47.2874
 20
-18.0608
 30
0.0
 10
-47.2874
 20
-18.0608
 30
0.0
 10
-47.2874
 20
-18.0608
 30
0.0
 10
-47.2687
 20
-18.0625
 30
0.0
 10
-47.2678
 20
-18.0626
 30
0.0
 10
-47.2678
 20
-18.0626
 30
0.0
 10
-47.2678
 20
-18.0626
 30
0.0
 10
-47.2451
 20
-18.0643
 30
0.0
 10
-47.2259
 20
-18.0658
 30
0.0
 10
-47.225
 20
-18.0659
 30
0.0
 10
-47.225
 20
-18.0659
 30
0.0
 10
-47.2241
 20
-18.066
 30
0.0
 10
-47.2215
 20
-18.0657
 30
0.0
 10
-47.2211
 20
-18.0657
 30
0.0
 10
-47.2211
 20
-18.0657
 30
0.0
 10
-47.2208
 20
-18.0656
 30
0.0
 10
-47.2155
 20
-18.062
 30
0.0
 10
-47.2104
 20
-18.0602
 30
0.0
 10
-47.2104
 20
-18.0602
 30
0.0
 10
-47.2104
 20
-18.0602
 30
0.0
 10
-47.2083
 20
-18.0584
 30
0.0
 10
-47.2083
 20
-18.0584
 30
0.0
 10
-47.2083
 20
-18.0584
 30
0.0
 10
-47.0864
 20
-17.9709
 30
0.0
 10
-46.9897
 20
-17.8443
 30
0.0
 10
-46.9414
 20
-17.7013
 30
0.0
 10
-46.9414
 20
-17.7013
 30
0.0
 10
-46.9212
 20
-17.6417
 30
0.0
 10
-46.9083
 20
-17.579
 30
0.0
 10
-46.8948
 20
-17.5176
 30
0.0
 10
-46.8948
 20
-17.5176
 30
0.0
 10
-46.8818
 20
-17.4593
 30
0.0
 10
-46.8679
 20
-17.4
 30
0.0
 10
-46.8621
 20
-17.3404
 30
0.0
 10
-46.8621
 20
-17.3404
 30
0.0
 10
-46.8542
 20
-17.2588
 30
0.0
 10
-47.0136
 20
-17.299
 30
0.0
 10
-47.042
 20
-17.2371
 30
0.0
 10
-47.042
 20
-17.2371
 30
0.0
 10
-47.0671
 20
-17.1825
 30
0.0
 10
-47.0614
 20
-17.0606
 30
0.0
 10
-47.0522
 20
-17.0468
 30
0.0
 10
-47.0522
 20
-17.0468
 30
0.0
 10
-47.043
 20
-17.0329
 30
0.0
 10
-46.9784
 20
-16.9798
 30
0.0
 10
-46.9758
 20
-16.9773
 30
0.0
 10
-46.9758
 20
-16.9773
 30
0.0
 10
-46.9313
 20
-16.9335
 30
0.0
 10
-46.8672
 20
-16.9155
 30
0.0
 10
-46.8209
 20
-16.8733
 30
0.0
 10
-46.8209
 20
-16.8733
 30
0.0
 10
-46.7994
 20
-16.8537
 30
0.0
 10
-46.7806
 20
-16.8328
 30
0.0
 10
-46.7496
 20
-16.8345
 30
0.0
 10
-46.7496
 20
-16.8345
 30
0.0
 10
-46.7295
 20
-16.8356
 30
0.0
 10
-46.7093
 20
-16.8399
 30
0.0
 10
-46.6899
 20
-16.8451
 30
0.0
 10
-46.6899
 20
-16.8451
 30
0.0
 10
-46.6708
 20
-16.8503
 30
0.0
 10
-46.624
 20
-16.8447
 30
0.0
 10
-46.6332
 20
-16.814
 30
0.0
 10
-46.6332
 20
-16.814
 30
0.0
 10
-46.6422
 20
-16.7838
 30
0.0
 10
-46.6568
 20
-16.7529
 30
0.0
 10
-46.6781
 20
-16.7296
 30
0.0
 10
-46.6781
 20
-16.7296
 30
0.0
 10
-46.7161
 20
-16.6878
 30
0.0
 10
-46.7801
 20
-16.6942
 30
0.0
 10
-46.7801
 20
-16.6942
 30
0.0
 10
-46.7801
 20
-16.6942
 30
0.0
 10
-46.8027
 20
-16.6965
 30
0.0
 10
-46.8386
 20
-16.6917
 30
0.0
 10
-46.8599
 20
-16.6836
 30
0.0
 10
-46.8599
 20
-16.6836
 30
0.0
 10
-46.8599
 20
-16.6836
 30
0.0
 10
-46.8746
 20
-16.678
 30
0.0
 10
-46.8975
 20
-16.6694
 30
0.0
 10
-46.8975
 20
-16.6694
 30
0.0
 10
-46.932
 20
-16.6564
 30
0.0
 10
-46.9721
 20
-16.6552
 30
0.0
 10
-47.008
 20
-16.6621
 30
0.0
 10
-47.008
 20
-16.6621
 30
0.0
 10
-47.0457
 20
-16.6695
 30
0.0
 10
-47.0823
 20
-16.6832
 30
0.0
 10
-47.1205
 20
-16.688
 30
0.0
 10
-47.1205
 20
-16.688
 30
0.0
 10
-47.1497
 20
-16.6917
 30
0.0
 10
-47.1693
 20
-16.6826
 30
0.0
 10
-47.1693
 20
-16.6826
 30
0.0
 10
-47.1693
 20
-16.6826
 30
0.0
 10
-47.1899
 20
-16.6729
 30
0.0
 10
-47.2179
 20
-16.6522
 30
0.0
 10
-47.2315
 20
-16.6366
 30
0.0
 10
-47.2315
 20
-16.6366
 30
0.0
 10
-47.2315
 20
-16.6366
 30
0.0
 10
-47.2425
 20
-16.6214
 30
0.0
 10
-47.2425
 20
-16.6214
 30
0.0
 10
-47.2425
 20
-16.6214
 30
0.0
 10
-47.2628
 20
-16.5933
 30
0.0
 10
-47.2685
 20
-16.5644
 30
0.0
 10
-47.2652
 20
-16.5303
 30
0.0
 10
-47.2652
 20
-16.5303
 30
0.0
 10
-47.2591
 20
-16.4651
 30
0.0
 10
-47.2261
 20
-16.4055
 30
0.0
 10
-47.219
 20
-16.3403
 30
0.0
 10
-47.219
 20
-16.3403
 30
0.0
 10
-47.2101
 20
-16.259
 30
0.0
 10
-47.2841
 20
-16.2134
 30
0.0
 10
-47.3337
 20
-16.1605
 30
0.0
 10
-47.3337
 20
-16.1605
 30
0.0
 10
-47.3999
 20
-16.09
 30
0.0
 10
-47.4626
 20
-16.0155
 30
0.0
 10
-47.5362
 20
-15.9524
 30
0.0
 10
-47.5362
 20
-15.9524
 30
0.0
 10
-47.578
 20
-15.9165
 30
0.0
 10
-47.6233
 20
-15.8957
 30
0.0
 10
-47.6722
 20
-15.8726
 30
0.0
 10
-47.6722
 20
-15.8726
 30
0.0
 10
-47.7581
 20
-15.8318
 30
0.0
 10
-47.8407
 20
-15.7813
 30
0.0
 10
-47.93
 20
-15.7479
 30
0.0
 10
-47.93
 20
-15.7479
 30
0.0
 10
-47.93
 20
-15.7479
 30
0.0
 10
-47.9393
 20
-15.7444
 30
0.0
 10
-47.9393
 20
-15.7444
 30
0.0
 10
-47.9393
 20
-15.7444
 30
0.0
 10
-47.9502
 20
-15.7413
 30
0.0
 10
-47.9775
 20
-15.7354
 30
0.0
 10
-47.9999
 20
-15.7314
 30
0.0
 10
-47.9999
 20
-15.7314
 30
0.0
 10
-47.9999
 20
-15.7314
 30
0.0
 10
-48.0422
 20
-15.7239
 30
0.0
 10
-48.0821
 20
-15.7259
 30
0.0
 10
-48.0821
 20
-15.7259
 30
0.0
 10
-48.128
 20
-15.7283
 30
0.0
 10
-48.0256
 20
-15.9013
 30
0.0
 10
-48.0165
 20
-15.9155
 30
0.0
 10
-48.0165
 20
-15.9155
 30
0.0
 10
-47.9667
 20
-15.9937
 30
0.0
 10
-47.8953
 20
-16.0553
 30
0.0
 10
-47.823
 20
-16.112
 30
0.0
 10
-47.823
 20
-16.112
 30
0.0
 10
-47.7869
 20
-16.1403
 30
0.0
 10
-47.7473
 20
-16.1651
 30
0.0
 10
-47.7317
 20
-16.2105
 30
0.0
 10
-47.7317
 20
-16.2105
 30
0.0
 10
-47.7243
 20
-16.2319
 30
0.0
 10
-47.7264
 20
-16.2569
 30
0.0
 10
-47.7269
 20
-16.2791
 30
0.0
 10
-47.7269
 20
-16.2791
 30
0.0
 10
-47.7284
 20
-16.3358
 30
0.0
 10
-47.7322
 20
-16.3924
 30
0.0
 10
-47.7338
 20
-16.449
 30
0.0
 10
-47.7338
 20
-16.449
 30
0.0
 10
-47.7364
 20
-16.5459
 30
0.0
 10
-47.7314
 20
-16.6427
 30
0.0
 10
-47.7148
 20
-16.7384
 30
0.0
 10
-47.7148
 20
-16.7384
 30
0.0
 10
-47.7136
 20
-16.7453
 30
0.0
 10
-47.6923
 20
-16.7427
 30
0.0
 10
-47.6708
 20
-16.7426
 30
0.0
 10
-47.6708
 20
-16.7426
 30
0.0
 10
-47.6495
 20
-16.7426
 30
0.0
 10
-47.6283
 20
-16.7424
 30
0.0
 10
-47.6276
 20
-16.746
 30
0.0
 10
-47.6276
 20
-16.746
 30
0.0
 10
-47.6446
 20
-16.6587
 30
0.0
 10
-47.6483
 20
-16.5704
 30
0.0
 10
-47.6471
 20
-16.4817
 30
0.0
 10
-47.6471
 20
-16.4817
 30
0.0
 10
-47.6461
 20
-16.4002
 30
0.0
 10
-47.631
 20
-16.3142
 30
0.0
 10
-47.6411
 20
-16.2331
 30
0.0
 10
-47.6411
 20
-16.2331
 30
0.0
 10
-47.6457
 20
-16.1966
 30
0.0
 10
-47.6724
 20
-16.1696
 30
0.0
 10
-47.6996
 20
-16.1479
 30
0.0
 10
-47.6996
 20
-16.1479
 30
0.0
 10
-47.7025
 20
-16.1456
 30
0.0
 10
-47.7054
 20
-16.1433
 30
0.0
 10
-47.7082
 20
-16.141
 30
0.0
 10
-47.7082
 20
-16.141
 30
0.0
 10
-47.7483
 20
-16.093
 30
0.0
 10
-47.8553
 20
-15.9567
 30
0.0
 10
-47.7664
 20
-15.9737
 30
0.0
 10
-47.7664
 20
-15.9737
 30
0.0
 10
-47.6589
 20
-15.9943
 30
0.0
 10
-47.5969
 20
-15.9872
 30
0.0
 10
-47.5053
 20
-16.0611
 30
0.0
 10
-47.5053
 20
-16.0611
 30
0.0
 10
-47.453
 20
-16.1173
 30
0.0
 10
-47.4023
 20
-16.1751
 30
0.0
 10
-47.3469
 20
-16.2283
 30
0.0
 10
-47.3469
 20
-16.2283
 30
0.0
 10
-47.295
 20
-16.278
 30
0.0
 10
-47.3021
 20
-16.3361
 30
0.0
 10
-47.3206
 20
-16.4006
 30
0.0
 10
-47.3206
 20
-16.4006
 30
0.0
 10
-47.3372
 20
-16.4586
 30
0.0
 10
-47.3672
 20
-16.5235
 30
0.0
 10
-47.3466
 20
-16.5841
 30
0.0
 10
-47.3466
 20
-16.5841
 30
0.0
 10
-47.3345
 20
-16.6198
 30
0.0
 10
-47.2447
 20
-16.7414
 30
0.0
 10
-47.1415
 20
-16.7432
 30
0.0
 10
-47.1415
 20
-16.7432
 30
0.0
 10
-47.1378
 20
-16.7433
 30
0.0
 10
-47.0775
 20
-16.7436
 30
0.0
 10
-47.0314
 20
-16.7316
 30
0.0
 10
-47.0314
 20
-16.7316
 30
0.0
 10
-46.9878
 20
-16.7202
 30
0.0
 10
-46.9531
 20
-16.7107
 30
0.0
 10
-46.9107
 20
-16.7303
 30
0.0
 10
-46.9107
 20
-16.7303
 30
0.0
 10
-46.9107
 20
-16.7303
 30
0.0
 10
-46.8941
 20
-16.7379
 30
0.0
 10
-46.8941
 20
-16.7379
 30
0.0
 10
-46.8941
 20
-16.7379
 30
0.0
 10
-46.8769
 20
-16.7439
 30
0.0
 10
-46.8813
 20
-16.752
 30
0.0
 10
-46.9037
 20
-16.7558
 30
0.0
 10
-46.9037
 20
-16.7558
 30
0.0
 10
-46.9037
 20
-16.7558
 30
0.0
 10
-46.9394
 20
-16.7618
 30
0.0
 10
-46.9774
 20
-16.7851
 30
0.0
 10
-46.9774
 20
-16.7851
 30
0.0
 10
-46.9725
 20
-16.7821
 30
0.0
 10
-46.9503
 20
-16.7878
 30
0.0
 10
-46.9447
 20
-16.7883
 30
0.0
 10
-46.9447
 20
-16.7883
 30
0.0
 10
-46.9386
 20
-16.7889
 30
0.0
 10
-46.9175
 20
-16.7943
 30
0.0
 10
-46.912
 20
-16.7909
 30
0.0
 10
-46.912
 20
-16.7909
 30
0.0
 10
-46.8792
 20
-16.7707
 30
0.0
 10
-46.854
 20
-16.7653
 30
0.0
 10
-46.854
 20
-16.7653
 30
0.0
 10
-46.854
 20
-16.7653
 30
0.0
 10
-46.8318
 20
-16.7605
 30
0.0
 10
-46.8103
 20
-16.7567
 30
0.0
 10
-46.8063
 20
-16.7568
 30
0.0
 10
-46.8063
 20
-16.7568
 30
0.0
 10
-46.8063
 20
-16.7568
 30
0.0
 10
-46.803
 20
-16.7566
 30
0.0
 10
-46.803
 20
-16.7566
 30
0.0
 10
-46.803
 20
-16.7566
 30
0.0
 10
-46.8019
 20
-16.7565
 30
0.0
 10
-46.8008
 20
-16.7564
 30
0.0
 10
-46.7997
 20
-16.7563
 30
0.0
 10
-46.7997
 20
-16.7563
 30
0.0
 10
-46.7838
 20
-16.755
 30
0.0
 10
-46.7682
 20
-16.7535
 30
0.0
 10
-46.7522
 20
-16.7541
 30
0.0
 10
-46.7522
 20
-16.7541
 30
0.0
 10
-46.7514
 20
-16.7541
 30
0.0
 10
-46.7506
 20
-16.7541
 30
0.0
 10
-46.7498
 20
-16.7541
 30
0.0
 10
-46.7498
 20
-16.7541
 30
0.0
 10
-46.7509
 20
-16.754
 30
0.0
 10
-46.7517
 20
-16.7543
 30
0.0
 10
-46.7521
 20
-16.7547
 30
0.0
 10
-46.7521
 20
-16.7547
 30
0.0
 10
-46.7528
 20
-16.7556
 30
0.0
 10
-46.7523
 20
-16.7572
 30
0.0
 10
-46.751
 20
-16.7593
 30
0.0
 10
-46.751
 20
-16.7593
 30
0.0
 10
-46.7486
 20
-16.7634
 30
0.0
 10
-46.7435
 20
-16.7692
 30
0.0
 10
-46.74
 20
-16.7737
 30
0.0
 10
-46.74
 20
-16.7737
 30
0.0
 10
-46.74
 20
-16.7737
 30
0.0
 10
-46.7391
 20
-16.7748
 30
0.0
 10
-46.7391
 20
-16.7748
 30
0.0
 10
-46.7391
 20
-16.7748
 30
0.0
 10
-46.7384
 20
-16.7758
 30
0.0
 10
-46.7386
 20
-16.7766
 30
0.0
 10
-46.7396
 20
-16.7765
 30
0.0
 10
-46.7396
 20
-16.7765
 30
0.0
 10
-46.7396
 20
-16.7765
 30
0.0
 10
-46.7405
 20
-16.7765
 30
0.0
 10
-46.7405
 20
-16.7765
 30
0.0
 10
-46.7405
 20
-16.7765
 30
0.0
 10
-46.7442
 20
-16.7762
 30
0.0
 10
-46.748
 20
-16.776
 30
0.0
 10
-46.7517
 20
-16.7759
 30
0.0
 10
-46.7517
 20
-16.7759
 30
0.0
 10
-46.7867
 20
-16.775
 30
0.0
 10
-46.8211
 20
-16.7815
 30
0.0
 10
-46.8518
 20
-16.8021
 30
0.0
 10
-46.8518
 20
-16.8021
 30
0.0
 10
-46.8818
 20
-16.8221
 30
0.0
 10
-46.9052
 20
-16.848
 30
0.0
 10
-46.9363
 20
-16.8669
 30
0.0
 10
-46.9363
 20
-16.8669
 30
0.0
 10
-46.9593
 20
-16.8808
 30
0.0
 10
-46.9699
 20
-16.8869
 30
0.0
 10
-46.9699
 20
-16.8869
 30
0.0
 10
-46.9699
 20
-16.8869
 30
0.0
 10
-46.9895
 20
-16.8984
 30
0.0
 10
-47.0205
 20
-16.8966
 30
0.0
 10
-47.0387
 20
-16.883
 30
0.0
 10
-47.0387
 20
-16.883
 30
0.0
 10
-47.0387
 20
-16.883
 30
0.0
 10
-47.0693
 20
-16.8602
 30
0.0
 10
-47.0998
 20
-16.8382
 30
0.0
 10
-47.0998
 20
-16.8382
 30
0.0
 10
-47.1059
 20
-16.8338
 30
0.0
 10
-47.1096
 20
-16.8285
 30
0.0
 10
-47.1202
 20
-16.8256
 30
0.0
 10
-47.1202
 20
-16.8256
 30
0.0
 10
-47.1409
 20
-16.8237
 30
0.0
 10
-47.1621
 20
-16.8204
 30
0.0
 10
-47.1781
 20
-16.8249
 30
0.0
 10
-47.1781
 20
-16.8249
 30
0.0
 10
-47.1952
 20
-16.8297
 30
0.0
 10
-47.2024
 20
-16.8362
 30
0.0
 10
-47.2053
 20
-16.8419
 30
0.0
 10
-47.2053
 20
-16.8419
 30
0.0
 10
-47.2049
 20
-16.8422
 30
0.0
 10
-47.2044
 20
-16.8451
 30
0.0
 10
-47.204
 20
-16.8455
 30
0.0
 10
-47.204
 20
-16.8455
 30
0.0
 10
-47.1832
 20
-16.8641
 30
0.0
 10
-47.1572
 20
-16.8828
 30
0.0
 10
-47.1354
 20
-16.9
 30
0.0
 10
-47.1354
 20
-16.9
 30
0.0
 10
-47.1629
 20
-16.9288
 30
0.0
 10
-47.2557
 20
-17.0169
 30
0.0
 10
-47.4305
 20
-17.1029
 30
0.0
 10
-47.4305
 20
-17.1029
 30
0.0
 10
-47.5665
 20
-17.1698
 30
0.0
 10
-47.842
 20
-17.1679
 30
0.0
 10
-47.9216
 20
-17.1659
 30
0.0
 10
-47.9216
 20
-17.1659
 30
0.0
 10
-47.9307
 20
-17.1628
 30
0.0
 10
-47.9395
 20
-17.1594
 30
0.0
 10
-47.9479
 20
-17.1553
 30
0.0
 10
-47.9479
 20
-17.1553
 30
0.0
 10
-47.9713
 20
-17.1441
 30
0.0
 10
-47.9047
 20
-17.1097
 30
0.0
 10
-47.8802
 20
-17.0973
 30
0.0
 10
-47.8802
 20
-17.0973
 30
0.0
 10
-47.8762
 20
-17.0953
 30
0.0
 10
-47.8618
 20
-17.088
 30
0.0
 10
-47.8563
 20
-17.085
 30
0.0
 10
-47.8563
 20
-17.085
 30
0.0
 10
-47.8488
 20
-17.081
 30
0.0
 10
-47.8414
 20
-17.0764
 30
0.0
 10
-47.8355
 20
-17.0709
 30
0.0
 10
-47.8355
 20
-17.0709
 30
0.0
 10
-47.833
 20
-17.0685
 30
0.0
 10
-47.8307
 20
-17.066
 30
0.0
 10
-47.8289
 20
-17.0633
 30
0.0
 10
-47.8289
 20
-17.0633
 30
0.0
 10
-47.8241
 20
-17.0559
 30
0.0
 10
-47.854
 20
-17.0549
 30
0.0
 10
-47.8576
 20
-17.0548
 30
0.0
 10
-47.8576
 20
-17.0548
 30
0.0
 10
-47.8576
 20
-17.0548
 30
0.0
 10
-47.8578
 20
-17.0548
 30
0.0
 10
-47.8578
 20
-17.0548
 30
0.0
 10
-47.8578
 20
-17.0548
 30
0.0
 10
-47.858
 20
-17.0548
 30
0.0
 10
-47.8709
 20
-17.0517
 30
0.0
 10
-47.8866
 20
-17.048
 30
0.0
 10
-47.8866
 20
-17.048
 30
0.0
 10
-47.9023
 20
-17.0442
 30
0.0
 10
-47.9098
 20
-17.0369
 30
0.0
 10
-47.9033
 20
-17.0317
 30
0.0
 10
-47.9033
 20
-17.0317
 30
0.0
 10
-47.9033
 20
-17.0317
 30
0.0
 10
-47.8973
 20
-17.0271
 30
0.0
 10
-47.8973
 20
-17.0271
 30
0.0
 10
-47.8973
 20
-17.0271
 30
0.0
 10
-47.846
 20
-16.987
 30
0.0
 10
-47.7933
 20
-16.9506
 30
0.0
 10
-47.7462
 20
-16.9048
 30
0.0
 10
-47.7462
 20
-16.9048
 30
0.0
 10
-47.6952
 20
-16.8552
 30
0.0
 10
-47.4784
 20
-16.779
 30
0.0
 10
-47.4682
 20
-16.7741
 30
0.0
 10
-47.4682
 20
-16.7741
 30
0.0
 10
-47.453
 20
-16.7668
 30
0.0
 10
-47.4361
 20
-16.7608
 30
0.0
 10
-47.419
 20
-16.7571
 30
0.0
 10
-47.419
 20
-16.7571
 30
0.0
 10
-47.4176
 20
-16.7568
 30
0.0
 10
-47.4162
 20
-16.7566
 30
0.0
 10
-47.4148
 20
-16.7563
 30
0.0
 10
-47.4148
 20
-16.7563
 30
0.0
 10
-47.4132
 20
-16.756
 30
0.0
 10
-47.4116
 20
-16.7557
 30
0.0
 10
-47.41
 20
-16.7554
 30
0.0
 10
-47.41
 20
-16.7554
 30
0.0
 10
-47.4067
 20
-16.7549
 30
0.0
 10
-47.4034
 20
-16.7544
 30
0.0
 10
-47.4001
 20
-16.7541
 30
0.0
 10
-47.4001
 20
-16.7541
 30
0.0
 10
-47.4285
 20
-16.757
 30
0.0
 10
-47.4587
 20
-16.7434
 30
0.0
 10
-47.4873
 20
-16.7464
 30
0.0
 10
-47.4873
 20
-16.7464
 30
0.0
 10
-47.4904
 20
-16.7467
 30
0.0
 10
-47.4934
 20
-16.7472
 30
0.0
 10
-47.4964
 20
-16.7477
 30
0.0
 10
-47.4964
 20
-16.7477
 30
0.0
 10
-47.5416
 20
-16.7548
 30
0.0
 10
-47.7869
 20
-16.852
 30
0.0
 10
-47.8423
 20
-16.9058
 30
0.0
 10
-47.8423
 20
-16.9058
 30
0.0
 10
-47.8849
 20
-16.9473
 30
0.0
 10
-47.9476
 20
-16.9935
 30
0.0
 10
-47.9476
 20
-16.9935
 30
0.0
 10
-47.9476
 20
-16.9935
 30
0.0
 10
-47.9659
 20
-17.007
 30
0.0
 10
-47.9822
 20
-17.0183
 30
0.0
 10
-47.9839
 20
-17.0185
 30
0.0
 10
-47.9839
 20
-17.0185
 30
0.0
 10
-47.9839
 20
-17.0185
 30
0.0
 10
-47.9851
 20
-17.019
 30
0.0
 10
-47.9851
 20
-17.019
 30
0.0
 10
-47.9851
 20
-17.019
 30
0.0
 10
-48.0462
 20
-17.0439
 30
0.0
 10
-48.1075
 20
-17.0681
 30
0.0
 10
-48.169
 20
-17.0917
 30
0.0
 10
-48.169
 20
-17.0917
 30
0.0
 10
-48.2109
 20
-17.1077
 30
0.0
 10
-48.2529
 20
-17.1235
 30
0.0
 10
-48.2955
 20
-17.1374
 30
0.0
 10
-48.2955
 20
-17.1374
 30
0.0
 10
-48.2997
 20
-17.1388
 30
0.0
 10
-48.3448
 20
-17.148
 30
0.0
 10
-48.3309
 20
-17.1554
 30
0.0
 10
-48.3309
 20
-17.1554
 30
0.0
 10
-48.2884
 20
-17.178
 30
0.0
 10
-48.2342
 20
-17.173
 30
0.0
 10
-48.1908
 20
-17.1966
 30
0.0
 10
-48.1908
 20
-17.1966
 30
0.0
 10
-48.1333
 20
-17.228
 30
0.0
 10
-48.2258
 20
-17.2585
 30
0.0
 10
-48.2434
 20
-17.2771
 30
0.0
 10
-48.2434
 20
-17.2771
 30
0.0
 10
-48.2415
 20
-17.2769
 30
0.0
 10
-48.2406
 20
-17.2769
 30
0.0
 10
-48.2413
 20
-17.2771
 30
0.0
 10
-48.2413
 20
-17.2771
 30
0.0
 10
-48.2421
 20
-17.2773
 30
0.0
 10
-48.2356
 20
-17.2783
 30
0.0
 10
-48.2255
 20
-17.2792
 30
0.0
 10
-48.2255
 20
-17.2792
 30
0.0
 10
-48.2154
 20
-17.2801
 30
0.0
 10
-48.2045
 20
-17.2812
 30
0.0
 10
-48.2013
 20
-17.2817
 30
0.0
 10
-48.2013
 20
-17.2817
 30
0.0
 10
-48.2013
 20
-17.2817
 30
0.0
 10
-48.2004
 20
-17.2818
 30
0.0
 10
-48.2004
 20
-17.2818
 30
0.0
 10
-48.2004
 20
-17.2818
 30
0.0
 10
-48.1869
 20
-17.283
 30
0.0
 10
-48.1703
 20
-17.287
 30
0.0
 10
-48.1567
 20
-17.2852
 30
0.0
 10
-48.1567
 20
-17.2852
 30
0.0
 10
-48.1402
 20
-17.283
 30
0.0
 10
-48.1204
 20
-17.2693
 30
0.0
 10
-48.1051
 20
-17.2629
 30
0.0
 10
-48.1051
 20
-17.2629
 30
0.0
 10
-48.0623
 20
-17.2452
 30
0.0
 10
-48.0184
 20
-17.23
 30
0.0
 10
-47.9736
 20
-17.2178
 30
0.0
 10
-47.9736
 20
-17.2178
 30
0.0
 10
-47.9295
 20
-17.2058
 30
0.0
 10
-47.879
 20
-17.2007
 30
0.0
 10
-47.879
 20
-17.2007
 30
0.0
 10
-47.879
 20
-17.2007
 30
0.0
 10
-47.8564
 20
-17.1984
 30
0.0
 10
-47.8194
 20
-17.1993
 30
0.0
 10
-47.797
 20
-17.2026
 30
0.0
 10
-47.797
 20
-17.2026
 30
0.0
 10
-47.797
 20
-17.2026
 30
0.0
 10
-47.7845
 20
-17.2045
 30
0.0
 10
-47.7637
 20
-17.2068
 30
0.0
 10
-47.7637
 20
-17.2068
 30
0.0
 10
-47.7384
 20
-17.2117
 30
0.0
 10
-47.7154
 20
-17.2156
 30
0.0
 10
-47.6988
 20
-17.2171
 30
0.0
 10
-47.6988
 20
-17.2171
 30
0.0
 10
-47.6919
 20
-17.2177
 30
0.0
 10
-47.6792
 20
-17.2174
 30
0.0
 10
-47.6623
 20
-17.2161
 30
0.0
 10
-47.6623
 20
-17.2161
 30
0.0
 10
-47.6231
 20
-17.2188
 30
0.0
 10
-47.5838
 20
-17.2193
 30
0.0
 10
-47.5448
 20
-17.2135
 30
0.0
 10
-47.5448
 20
-17.2135
 30
0.0
 10
-47.4074
 20
-17.1931
 30
0.0
 10
-47.182
 20
-17.1128
 30
0.0
 10
-47.182
 20
-17.1128
 30
0.0
 10
-47.182
 20
-17.1128
 30
0.0
 10
-47.1606
 20
-17.1052
 30
0.0
 10
-47.1431
 20
-17.1027
 30
0.0
 10
-47.1432
 20
-17.1071
 30
0.0
 10
-47.1432
 20
-17.1071
 30
0.0
 10
-47.1432
 20
-17.1071
 30
0.0
 10
-47.1432
 20
-17.1113
 30
0.0
 10
-47.1432
 20
-17.1113
 30
0.0
 10
-47.1432
 20
-17.1113
 30
0.0
 10
-47.1434
 20
-17.1231
 30
0.0
 10
-47.1433
 20
-17.135
 30
0.0
 10
-47.1429
 20
-17.1468
 30
0.0
 10
-47.1429
 20
-17.1468
 30
0.0
 10
-47.1415
 20
-17.1909
 30
0.0
 10
-47.1395
 20
-17.2438
 30
0.0
 10
-47.0923
 20
-17.2605
 30
0.0
 10
-47.0923
 20
-17.2605
 30
0.0
 10
-47.0536
 20
-17.2742
 30
0.0
 10
-46.9611
 20
-17.2686
 30
0.0
 10
-46.9491
 20
-17.3194
 30
0.0
 10
-46.9491
 20
-17.3194
 30
0.0
 10
-46.9453
 20
-17.3357
 30
0.0
 10
-46.9525
 20
-17.3588
 30
0.0
 10
-46.9551
 20
-17.3748
 30
0.0
 10
-46.9551
 20
-17.3748
 30
0.0
 10
-46.9597
 20
-17.4027
 30
0.0
 10
-46.9652
 20
-17.4305
 30
0.0
 10
-46.9709
 20
-17.4582
 30
0.0
 10
-46.9709
 20
-17.4582
 30
0.0
 10
-46.9838
 20
-17.5213
 30
0.0
 10
-46.9957
 20
-17.5852
 30
0.0
 10
-47.0139
 20
-17.6471
 30
0.0
 10
-47.0139
 20
-17.6471
 30
0.0
 10
-47.0141
 20
-17.6475
 30
0.0
 10
-47.0152
 20
-17.6478
 30
0.0
 10
-47.0154
 20
-17.6473
 30
0.0
 10
-47.0154
 20
-17.6473
 30
0.0
 10
-47.0154
 20
-17.6473
 30
0.0
 10
-47.0201
 20
-17.633
 30
0.0
 10
-47.0201
 20
-17.633
 30
0.0
 10
-47.0201
 20
-17.633
 30
0.0
 10
-47.0201
 20
-17.633
 30
0.0
 10
-47.023
 20
-17.6225
 30
0.0
 10
-47.023
 20
-17.6225
 30
0.0
 10
-47.023
 20
-17.6225
 30
0.0
 10
-47.0232
 20
-17.5868
 30
0.0
 10
-47.0269
 20
-17.507
 30
0.0
 10
-47.0586
 20
-17.6024
 30
0.0
 10
-47.0586
 20
-17.6024
 30
0.0
 10
-47.0978
 20
-17.7201
 30
0.0
 10
-47.1404
 20
-17.7678
 30
0.0
 10
-47.1765
 20
-17.8063
 30
0.0
 10
-47.1765
 20
-17.8063
 30
0.0
 10
-47.1702
 20
-17.7533
 30
0.0
 10
-47.1663
 20
-17.7
 30
0.0
 10
-47.1659
 20
-17.6467
 30
0.0
 10
-47.1659
 20
-17.6467
 30
0.0
 10
-47.1654
 20
-17.592
 30
0.0
 10
-47.1708
 20
-17.5395
 30
0.0
 10
-47.1883
 20
-17.4877
 30
0.0
 10
-47.1883
 20
-17.4877
 30
0.0
 10
-47.2044
 20
-17.4398
 30
0.0
 10
-47.2434
 20
-17.4076
 30
0.0
 10
-47.2803
 20
-17.375
 30
0.0
 10
-47.2803
 20
-17.375
 30
0.0
 10
-47.2868
 20
-17.3693
 30
0.0
 10
-47.3152
 20
-17.3715
 30
0.0
 10
-47.3236
 20
-17.3708
 30
0.0
 10
-47.3236
 20
-17.3708
 30
0.0
 10
-47.3237
 20
-17.3708
 30
0.0
 10
-47.3238
 20
-17.3708
 30
0.0
 10
-47.3239
 20
-17.3708
 30
0.0
 10
-47.3239
 20
-17.3708
 30
0.0
 10
-47.3314
 20
-17.3701
 30
0.0
 10
-47.3617
 20
-17.3725
 30
0.0
 10
-47.3675
 20
-17.3674
 30
0.0
 10
-47.3675
 20
-17.3674
 30
0.0
 10
-47.3216
 20
-17.4078
 30
0.0
 10
-47.2885
 20
-17.4417
 30
0.0
 10
-47.2689
 20
-17.4991
 30
0.0
 10
-47.2689
 20
-17.4991
 30
0.0
 10
-47.2451
 20
-17.5686
 30
0.0
 10
-47.2515
 20
-17.6508
 30
0.0
 10
-47.2564
 20
-17.7226
 30
0.0
 10
-47.2564
 20
-17.7226
 30
0.0
 10
-47.2629
 20
-17.817
 30
0.0
 10
-47.2782
 20
-17.9109
 30
0.0
 10
-47.2981
 20
-18.0033
 30
0.0
 10
-47.2981
 20
-18.0033
 30
0.0
 10
-47.3019
 20
-18.021
 30
0.0
 10
-47.3082
 20
-18.0393
 30
0.0
 10
-47.3104
 20
-18.0572
 30
0.0
 10
-47.3104
 20
-18.0572
 30
0.0
 10
-47.3104
 20
-18.0572
 30
0.0
 10
-47.3095
 20
-18.0585
 30
0.0
 10
-47.3095
 20
-18.0585
 30
0.0
  0
SPLINE
  5
BB
330
1F
100
AcDbEntity
  8
Ilustrace
 62
   250
100
AcDbSpline
210
0.0
220
0.0
230
1.0
 70
    11
 71
     3
 72
    16
 73
    12
 74
     0
 42
0.0000000001
 43
0.0000000001
 40
0.0
 40
0.0
 40
0.0
 40
0.0
 40
0.25
 40
0.25
 40
0.25
 40
0.25
 40
0.5
 40
0.5
 40
0.5
 40
0.5
 40
1.0
 40
1.0
 40
1.0
 40
1.0
 10
-48.2439
 20
-17.2776
 30
0.0
 10
-48.2438
 20
-17.2774
 30
0.0
 10
-48.2435
 20
-17.2772
 30
0.0
 10
-48.2434
 20
-17.277
 30
0.0
 10
-48.2434
 20
-17.277
 30
0.0
 10
-48.2434
 20
-17.277
 30
0.0
 10
-48.2434
 20
-17.277
 30
0.0
 10
-48.2435
 20
-17.277
 30
0.0
 10
-48.2435
 20
-17.277
 30
0.0
 10
-48.2435
 20
-17.277
 30
0.0
 10
-48.2439
 20
-17.2776
 30
0.0
 10
-48.2439
 20
-17.2776
 30
0.0
  0
SPLINE
  5
BC
330
1F
100
AcDbEntity
  8
Ilustrace
 62
   250
100
AcDbSpline
210
0.0
220
0.0
230
1.0
 70
    11
 71
     3
 72
    36
 73
    32
 74
     0
 42
0.0000000001
 43
0.0000000001
 40
0.0
 40
0.0
 40
0.0
 40
0.0
 40
0.1111111111111111
 40
0.1111111111111111
 40
0.1111111111111111
 40
0.1111111111111111
 40
0.2222222222222222
 40
0.2222222222222222
 40
0.2222222222222222
 40
0.2222222222222222
 40
0.3333333333333333
 40
0.3333333333333333
 40
0.3333333333333333
 40
0.3333333333333333
 40
0.4444444444444444
 40
0.4444444444444444
 40
0.4444444444444444
 40
0.4444444444444444
 40
0.5555555555555556
 40
0.5555555555555556
 40
0.5555555555555556
 40
0.5555555555555556
 40
0.6666666666666666
 40
0.6666666666666666
 40
0.6666666666666666
 40
0.6666666666666666
 40
0.7777777777777778
 40
0.7777777777777778
 40
0.7777777777777778
 40
0.7777777777777778
 40
1.0
 40
1.0
 40
1.0
 40
1.0
 10
-50.8627
 20
-17.1847
 30
0.0
 10
-50.8627
 20
-17.1847
 30
0.0
 10
-51.337
 20
-18.5939
 30
0.0
 10
-51.337
 20
-18.5939
 30
0.0
 10
-51.337
 20
-18.5939
 30
0.0
 10
-51.337
 20
-18.5939
 30
0.0
 10
-50.9811
 20
-18.5939
 30
0.0
 10
-50.9811
 20
-18.5939
 30
0.0
 10
-50.9811
 20
-18.5939
 30
0.0
 10
-50.9811
 20
-18.5939
 30
0.0
 10
-50.8928
 20
-18.3054
 30
0.0
 10
-50.8928
 20
-18.3054
 30
0.0
 10
-50.8928
 20
-18.3054
 30
0.0
 10
-50.8928
 20
-18.3054
 30
0.0
 10
-50.4495
 20
-18.3054
 30
0.0
 10
-50.4495
 20
-18.3054
 30
0.0
 10
-50.4495
 20
-18.3054
 30
0.0
 10
-50.4495
 20
-18.3054
 30
0.0
 10
-50.3608
 20
-18.5939
 30
0.0
 10
-50.3608
 20
-18.5939
 30
0.0
 10
-50.3608
 20
-18.5939
 30
0.0
 10
-50.3608
 20
-18.5939
 30
0.0
 10
-49.9955
 20
-18.5939
 30
0.0
 10
-49.9955
 20
-18.5939
 30
0.0
 10
-49.9955
 20
-18.5939
 30
0.0
 10
-49.9955
 20
-18.5939
 30
0.0
 10
-50.4758
 20
-17.1847
 30
0.0
 10
-50.4758
 20
-17.1847
 30
0.0
 10
-50.4758
 20
-17.1847
 30
0.0
 10
-50.4758
 20
-17.1847
 30
0.0
 10
-50.8627
 20
-17.1847
 30
0.0
 10
-50.8627
 20
-17.1847
 30
0.0
  0
SPLINE
  5
BD
330
1F
100
AcDbEntity
  8
Ilustrace
 62
   250
100
AcDbSpline
210
0.0
220
0.0
230
1.0
 70
    11
 71
     3
 72
    16
 73
    12
 74
     0
 42
0.0000000001
 43
0.0000000001
 40
0.0
 40
0.0
 40
0.0
 40
0.0
 40
0.25
 40
0.25
 40
0.25
 40
0.25
 40
0.5
 40
0.5
 40
0.5
 40
0.5
 40
1.0
 40
1.0
 40
1.0
 40
1.0
 10
-50.6716
 20
-17.5843
 30
0.0
 10
-50.6716
 20
-17.5843
 30
0.0
 10
-50.5269
 20
-18.0494
 30
0.0
 10
-50.5269
 20
-18.0494
 30
0.0
 10
-50.5269
 20
-18.0494
 30
0.0
 10
-50.5269
 20
-18.0494
 30
0.0
 10
-50.8154
 20
-18.0494
 30
0.0
 10
-50.8154
 20
-18.0494
 30
0.0
 10
-50.8154
 20
-18.0494
 30
0.0
 10
-50.8154
 20
-18.0494
 30
0.0
 10
-50.6716
 20
-17.5843
 30
0.0
 10
-50.6716
 20
-17.5843
 30
0.0
  0
SPLINE
  5
BE
330
1F
100
AcDbEntity
  8
Ilustrace
 62
   250
100
AcDbSpline
210
0.0
220
0.0
230
1.0
 70
    11
 71
     3
 72
    20
 73
    16
 74
     0
 42
0.0000000001
 43
0.0000000001
 40
0.0
 40
0.0
 40
0.0
 40
0.0
 40
0.2
 40
0.2
 40
0.2
 40
0.2
 40
0.4
 40
0.4
 40
0.4
 40
0.4
 40
0.6
 40
0.6
 40
0.6
 40
0.6
 40
1.0
 40
1.0
 40
1.0
 40
1.0
 10
-49.9464
 20
-18.5939
 30
0.0
 10
-49.9464
 20
-18.5939
 30
0.0
 10
-49.6145
 20
-18.5939
 30
0.0
 10
-49.6145
 20
-18.5939
 30
0.0
 10
-49.6145
 20
-18.5939
 30
0.0
 10
-49.6145
 20
-18.5939
 30
0.0
 10
-49.6145
 20
-17.185
 30
0.0
 10
-49.6145
 20
-17.185
 30
0.0
 10
-49.6145
 20
-17.185
 30
0.0
 10
-49.6145
 20
-17.185
 30
0.0
 10
-49.9464
 20
-17.185
 30
0.0
 10
-49.9464
 20
-17.185
 30
0.0
 10
-49.9464
 20
-17.185
 30
0.0
 10
-49.9464
 20
-17.185
 30
0.0
 10
-49.9464
 20
-18.5939
 30
0.0
 10
-49.9464
 20
-18.5939
 30
0.0
  0
SPLINE
  5
BF
330
1F
100
AcDbEntity
  8
Ilustrace
 62
   250
100
AcDbSpline
210
0.0
220
0.0
230
1.0
 70
    11
 71
     3
 72
   124
 73
   120
 74
     0
 42
0.0000000001
 43
0.0000000001
 40
0.0
 40
0.0
 40
0.0
 40
0.0
 40
0.032258064516129
 40
0.032258064516129
 40
0.032258064516129
 40
0.032258064516129
 40
0.0645161290322581
 40
0.0645161290322581
 40
0.0645161290322581
 40
0.0645161290322581
 40
0.0967741935483871
 40
0.0967741935483871
 40
0.0967741935483871
 40
0.0967741935483871
 40
0.1290322580645161
 40
0.1290322580645161
 40
0.1290322580645161
 40
0.1290322580645161
 40
0.1612903225806452
 40
0.1612903225806452
 40
0.1612903225806452
 40
0.1612903225806452
 40
0.1935483870967742
 40
0.1935483870967742
 40
0.1935483870967742
 40
0.1935483870967742
 40
0.2258064516129032
 40
0.2258064516129032
 40
0.2258064516129032
 40
0.2258064516129032
 40
0.2580645161290323
 40
0.2580645161290323
 40
0.2580645161290323
 40
0.2580645161290323
 40
0.2903225806451613
 40
0.2903225806451613
 40
0.2903225806451613
 40
0.2903225806451613
 40
0.3225806451612903
 40
0.3225806451612903
 40
0.3225806451612903
 40
0.3225806451612903
 40
0.3548387096774194
 40
0.3548387096774194
 40
0.3548387096774194
 40
0.3548387096774194
 40
0.3870967741935484
 40
0.3870967741935484
 40
0.3870967741935484
 40
0.3870967741935484
 40
0.4193548387096774
 40
0.4193548387096774
 40
0.4193548387096774
 40
0.4193548387096774
 40
0.4516129032258064
 40
0.4516129032258064
 40
0.4516129032258064
 40
0.4516129032258064
 40
0.4838709677419355
 40
0.4838709677419355
 40
0.4838709677419355
 40
0.4838709677419355
 40
0.5161290322580645
 40
0.5161290322580645
 40
0.5161290322580645
 40
0.5161290322580645
 40
0.5483870967741935
 40
0.5483870967741935
 40
0.5483870967741935
 40
0.5483870967741935
 40
0.5806451612903226
 40
0.5806451612903226
 40
0.5806451612903226
 40
0.5806451612903226
 40
0.6129032258064516
 40
0.6129032258064516
 40
0.6129032258064516
 40
0.6129032258064516
 40
0.6451612903225806
 40
0.6451612903225806
 40
0.6451612903225806
 40
0.6451612903225806
 40
0.6774193548387096
 40
0.6774193548387096
 40
0.6774193548387096
 40
0.6774193548387096
 40
0.7096774193548387
 40
0.7096774193548387
 40
0.7096774193548387
 40
0.7096774193548387
 40
0.7419354838709677
 40
0.7419354838709677
 40
0.7419354838709677
 40
0.7419354838709677
 40
0.7741935483870968
 40
0.7741935483870968
 40
0.7741935483870968
 40
0.7741935483870968
 40
0.8064516129032258
 40
0.8064516129032258
 40
0.8064516129032258
 40
0.8064516129032258
 40
0.8387096774193549
 40
0.8387096774193549
 40
0.8387096774193549
 40
0.8387096774193549
 40
0.8709677419354839
 40
0.8709677419354839
 40
0.8709677419354839
 40
0.8709677419354839
 40
0.9032258064516129
 40
0.9032258064516129
 40
0.9032258064516129
 40
0.9032258064516129
 40
0.9354838709677419
 40
0.9354838709677419
 40
0.9354838709677419
 40
0.9354838709677419
 40
1.0
 40
1.0
 40
1.0
 40
1.0
 10
-48.9338
 20
-18.5984
 30
0.0
 10
-49.0218
 20
-18.5984
 30
0.0
 10
-49.1024
 20
-18.5873
 30
0.0
 10
-49.1753
 20
-18.565
 30
0.0
 10
-49.1753
 20
-18.565
 30
0.0
 10
-49.2485
 20
-18.543
 30
0.0
 10
-49.3116
 20
-18.509
 30
0.0
 10
-49.3657
 20
-18.4627
 30
0.0
 10
-49.3657
 20
-18.4627
 30
0.0
 10
-49.4187
 20
-18.4164
 30
0.0
 10
-49.4602
 20
-18.3584
 30
0.0
 10
-49.4897
 20
-18.2886
 30
0.0
 10
-49.4897
 20
-18.2886
 30
0.0
 10
-49.5195
 20
-18.2189
 30
0.0
 10
-49.5344
 20
-18.1364
 30
0.0
 10
-49.5344
 20
-18.0415
 30
0.0
 10
-49.5344
 20
-18.0415
 30
0.0
 10
-49.5344
 20
-17.9399
 30
0.0
 10
-49.5182
 20
-17.8531
 30
0.0
 10
-49.4861
 20
-17.7815
 30
0.0
 10
-49.4861
 20
-17.7815
 30
0.0
 10
-49.4537
 20
-17.7103
 30
0.0
 10
-49.41
 20
-17.6514
 30
0.0
 10
-49.355
 20
-17.6051
 30
0.0
 10
-49.355
 20
-17.6051
 30
0.0
 10
-49.3019
 20
-17.561
 30
0.0
 10
-49.2394
 20
-17.5283
 30
0.0
 10
-49.1678
 20
-17.507
 30
0.0
 10
-49.1678
 20
-17.507
 30
0.0
 10
-49.096
 20
-17.486
 30
0.0
 10
-49.0212
 20
-17.4752
 30
0.0
 10
-48.9435
 20
-17.4752
 30
0.0
 10
-48.9435
 20
-17.4752
 30
0.0
 10
-48.8846
 20
-17.4752
 30
0.0
 10
-48.8259
 20
-17.482
 30
0.0
 10
-48.767
 20
-17.4957
 30
0.0
 10
-48.767
 20
-17.4957
 30
0.0
 10
-48.7081
 20
-17.5093
 30
0.0
 10
-48.6491
 20
-17.5309
 30
0.0
 10
-48.5896
 20
-17.5607
 30
0.0
 10
-48.5896
 20
-17.5607
 30
0.0
 10
-48.5896
 20
-17.5607
 30
0.0
 10
-48.5896
 20
-17.8453
 30
0.0
 10
-48.5896
 20
-17.8453
 30
0.0
 10
-48.5896
 20
-17.8453
 30
0.0
 10
-48.5896
 20
-17.8453
 30
0.0
 10
-48.6323
 20
-17.8453
 30
0.0
 10
-48.6323
 20
-17.8453
 30
0.0
 10
-48.6323
 20
-17.8453
 30
0.0
 10
-48.6456
 20
-17.8326
 30
0.0
 10
-48.6618
 20
-17.8188
 30
0.0
 10
-48.6812
 20
-17.8035
 30
0.0
 10
-48.6812
 20
-17.8035
 30
0.0
 10
-48.7003
 20
-17.7883
 30
0.0
 10
-48.7214
 20
-17.7744
 30
0.0
 10
-48.744
 20
-17.7617
 30
0.0
 10
-48.744
 20
-17.7617
 30
0.0
 10
-48.7683
 20
-17.7485
 30
0.0
 10
-48.7955
 20
-17.7372
 30
0.0
 10
-48.8256
 20
-17.7281
 30
0.0
 10
-48.8256
 20
-17.7281
 30
0.0
 10
-48.8561
 20
-17.7187
 30
0.0
 10
-48.89
 20
-17.7142
 30
0.0
 10
-48.9273
 20
-17.7142
 30
0.0
 10
-48.9273
 20
-17.7142
 30
0.0
 10
-49.0121
 20
-17.7142
 30
0.0
 10
-49.0775
 20
-17.7436
 30
0.0
 10
-49.1241
 20
-17.8029
 30
0.0
 10
-49.1241
 20
-17.8029
 30
0.0
 10
-49.1705
 20
-17.8621
 30
0.0
 10
-49.1938
 20
-17.9414
 30
0.0
 10
-49.1938
 20
-18.0415
 30
0.0
 10
-49.1938
 20
-18.0415
 30
0.0
 10
-49.1938
 20
-18.1483
 30
0.0
 10
-49.1688
 20
-18.2283
 30
0.0
 10
-49.1193
 20
-18.2808
 30
0.0
 10
-49.1193
 20
-18.2808
 30
0.0
 10
-49.0697
 20
-18.3332
 30
0.0
 10
-49.0037
 20
-18.3594
 30
0.0
 10
-48.9214
 20
-18.3594
 30
0.0
 10
-48.9214
 20
-18.3594
 30
0.0
 10
-48.8797
 20
-18.3594
 30
0.0
 10
-48.8431
 20
-18.3546
 30
0.0
 10
-48.8114
 20
-18.3452
 30
0.0
 10
-48.8114
 20
-18.3452
 30
0.0
 10
-48.78
 20
-18.3358
 30
0.0
 10
-48.7528
 20
-18.3241
 30
0.0
 10
-48.7301
 20
-18.3109
 30
0.0
 10
-48.7301
 20
-18.3109
 30
0.0
 10
-48.7078
 20
-18.2975
 30
0.0
 10
-48.689
 20
-18.284
 30
0.0
 10
-48.6731
 20
-18.2698
 30
0.0
 10
-48.6731
 20
-18.2698
 30
0.0
 10
-48.6573
 20
-18.2555
 30
0.0
 10
-48.6437
 20
-18.2426
 30
0.0
 10
-48.6323
 20
-18.2312
 30
0.0
 10
-48.6323
 20
-18.2312
 30
0.0
 10
-48.6323
 20
-18.2312
 30
0.0
 10
-48.5896
 20
-18.2312
 30
0.0
 10
-48.5896
 20
-18.2312
 30
0.0
 10
-48.5896
 20
-18.2312
 30
0.0
 10
-48.5896
 20
-18.2312
 30
0.0
 10
-48.5896
 20
-18.5158
 30
0.0
 10
-48.5896
 20
-18.5158
 30
0.0
 10
-48.5896
 20
-18.5158
 30
0.0
 10
-48.6087
 20
-18.5239
 30
0.0
 10
-48.6304
 20
-18.5336
 30
0.0
 10
-48.6557
 20
-18.5443
 30
0.0
 10
-48.6557
 20
-18.5443
 30
0.0
 10
-48.6806
 20
-18.555
 30
0.0
 10
-48.7058
 20
-18.564
 30
0.0
 10
-48.7317
 20
-18.5708
 30
0.0
 10
-48.7317
 20
-18.5708
 30
0.0
 10
-48.7641
 20
-18.5795
 30
0.0
 10
-48.7942
 20
-18.5863
 30
0.0
 10
-48.8224
 20
-18.5912
 30
0.0
 10
-48.8224
 20
-18.5912
 30
0.0
 10
-48.8505
 20
-18.5961
 30
0.0
 10
-48.8878
 20
-18.5984
 30
0.0
 10
-48.9338
 20
-18.5984
 30
0.0
  0
SPLINE
  5
C0
330
1F
100
AcDbEntity
  8
Ilustrace
 62
   250
100
AcDbSpline
210
0.0
220
0.0
230
1.0
 70
    11
 71
     3
 72
    40
 73
    36
 74
     0
 42
0.0000000001
 43
0.0000000001
 40
0.0
 40
0.0
 40
0.0
 40
0.0
 40
0.1
 40
0.1
 40
0.1
 40
0.1
 40
0.2
 40
0.2
 40
0.2
 40
0.2
 40
0.3
 40
0.3
 40
0.3
 40
0.3
 40
0.4
 40
0.4
 40
0.4
 40
0.4
 40
0.5
 40
0.5
 40
0.5
 40
0.5
 40
0.6
 40
0.6
 40
0.6
 40
0.6
 40
0.7
 40
0.7
 40
0.7
 40
0.7
 40
0.8
 40
0.8
 40
0.8
 40
0.8
 40
1.0
 40
1.0
 40
1.0
 40
1.0
 10
-47.8449
 20
-18.2921
 30
0.0
 10
-47.8449
 20
-18.2921
 30
0.0
 10
-47.8449
 20
-18.07
 30
0.0
 10
-47.8449
 20
-18.07
 30
0.0
 10
-47.8449
 20
-18.07
 30
0.0
 10
-47.9012
 20
-18.0758
 30
0.0
 10
-47.9469
 20
-18.0807
 30
0.0
 10
-47.9815
 20
-18.0845
 30
0.0
 10
-47.9815
 20
-18.0845
 30
0.0
 10
-48.0165
 20
-18.0888
 30
0.0
 10
-48.0505
 20
-18.0969
 30
0.0
 10
-48.0842
 20
-18.1088
 30
0.0
 10
-48.0842
 20
-18.1088
 30
0.0
 10
-48.1133
 20
-18.1188
 30
0.0
 10
-48.1356
 20
-18.1344
 30
0.0
 10
-48.1518
 20
-18.1548
 30
0.0
 10
-48.1518
 20
-18.1548
 30
0.0
 10
-48.168
 20
-18.1755
 30
0.0
 10
-48.1761
 20
-18.2027
 30
0.0
 10
-48.1761
 20
-18.2371
 30
0.0
 10
-48.1761
 20
-18.2371
 30
0.0
 10
-48.1761
 20
-18.2869
 30
0.0
 10
-48.1625
 20
-18.3212
 30
0.0
 10
-48.1356
 20
-18.34
 30
0.0
 10
-48.1356
 20
-18.34
 30
0.0
 10
-48.1087
 20
-18.3584
 30
0.0
 10
-48.0692
 20
-18.3679
 30
0.0
 10
-48.0168
 20
-18.3679
 30
0.0
 10
-48.0168
 20
-18.3679
 30
0.0
 10
-47.9877
 20
-18.3679
 30
0.0
 10
-47.9579
 20
-18.3611
 30
0.0
 10
-47.9274
 20
-18.3478
 30
0.0
 10
-47.9274
 20
-18.3478
 30
0.0
 10
-47.897
 20
-18.3344
 30
0.0
 10
-47.8695
 20
-18.316
 30
0.0
 10
-47.8449
 20
-18.2921
 30
0.0
  0
SPLINE
  5
C1
330
1F
100
AcDbEntity
  8
Ilustrace
 62
   250
100
AcDbSpline
210
0.0
220
0.0
230
1.0
 70
    11
 71
     3
 72
   104
 73
   100
 74
     0
 42
0.0000000001
 43
0.0000000001
 40
0.0
 40
0.0
 40
0.0
 40
0.0
 40
0.0384615384615385
 40
0.0384615384615385
 40
0.0384615384615385
 40
0.0384615384615385
 40
0.0769230769230769
 40
0.0769230769230769
 40
0.0769230769230769
 40
0.0769230769230769
 40
0.1153846153846154
 40
0.1153846153846154
 40
0.1153846153846154
 40
0.1153846153846154
 40
0.1538461538461539
 40
0.1538461538461539
 40
0.1538461538461539
 40
0.1538461538461539
 40
0.1923076923076923
 40
0.1923076923076923
 40
0.1923076923076923
 40
0.1923076923076923
 40
0.2307692307692308
 40
0.2307692307692308
 40
0.2307692307692308
 40
0.2307692307692308
 40
0.2692307692307692
 40
0.2692307692307692
 40
0.2692307692307692
 40
0.2692307692307692
 40
0.3076923076923077
 40
0.3076923076923077
 40
0.3076923076923077
 40
0.3076923076923077
 40
0.3461538461538461
 40
0.3461538461538461
 40
0.3461538461538461
 40
0.3461538461538461
 40
0.3846153846153846
 40
0.3846153846153846
 40
0.3846153846153846
 40
0.3846153846153846
 40
0.4230769230769231
 40
0.4230769230769231
 40
0.4230769230769231
 40
0.4230769230769231
 40
0.4615384615384616
 40
0.4615384615384616
 40
0.4615384615384616
 40
0.4615384615384616
 40
0.5
 40
0.5
 40
0.5
 40
0.5
 40
0.5384615384615384
 40
0.5384615384615384
 40
0.5384615384615384
 40
0.5384615384615384
 40
0.5769230769230769
 40
0.5769230769230769
 40
0.5769230769230769
 40
0.5769230769230769
 40
0.6153846153846154
 40
0.6153846153846154
 40
0.6153846153846154
 40
0.6153846153846154
 40
0.6538461538461539
 40
0.6538461538461539
 40
0.6538461538461539
 40
0.6538461538461539
 40
0.6923076923076923
 40
0.6923076923076923
 40
0.6923076923076923
 40
0.6923076923076923
 40
0.7307692307692307
 40
0.7307692307692307
 40
0.7307692307692307
 40
0.7307692307692307
 40
0.7692307692307693
 40
0.7692307692307693
 40
0.7692307692307693
 40
0.7692307692307693
 40
0.8076923076923077
 40
0.8076923076923077
 40
0.8076923076923077
 40
0.8076923076923077
 40
0.8461538461538461
 40
0.8461538461538461
 40
0.8461538461538461
 40
0.8461538461538461
 40
0.8846153846153846
 40
0.8846153846153846
 40
0.8846153846153846
 40
0.8846153846153846
 40
0.9230769230769231
 40
0.9230769230769231
 40
0.9230769230769231
 40
0.9230769230769231
 40
1.0
 40
1.0
 40
1.0
 40
1.0
 10
-48.4228
 20
-17.5614
 30
0.0
 10
-48.3866
 20
-17.5324
 30
0.0
 10
-48.3367
 20
-17.5067
 30
0.0
 10
-48.2636
 20
-17.4937
 30
0.0
 10
-48.2636
 20
-17.4937
 30
0.0
 10
-48.19
 20
-17.4807
 30
0.0
 10
-48.1159
 20
-17.4743
 30
0.0
 10
-48.0414
 20
-17.4743
 30
0.0
 10
-48.0414
 20
-17.4743
 30
0.0
 10
-47.8579
 20
-17.4743
 30
0.0
 10
-47.7241
 20
-17.5047
 30
0.0
 10
-47.6402
 20
-17.5659
 30
0.0
 10
-47.6402
 20
-17.5659
 30
0.0
 10
-47.5564
 20
-17.6268
 30
0.0
 10
-47.5146
 20
-17.72
 30
0.0
 10
-47.5146
 20
-17.8453
 30
0.0
 10
-47.5146
 20
-17.8453
 30
0.0
 10
-47.5146
 20
-17.8453
 30
0.0
 10
-47.5146
 20
-18.5947
 30
0.0
 10
-47.5146
 20
-18.5947
 30
0.0
 10
-47.5146
 20
-18.5947
 30
0.0
 10
-47.5146
 20
-18.5947
 30
0.0
 10
-47.8449
 20
-18.5947
 30
0.0
 10
-47.8449
 20
-18.5947
 30
0.0
 10
-47.8449
 20
-18.5947
 30
0.0
 10
-47.8449
 20
-18.5947
 30
0.0
 10
-47.8449
 20
-18.4569
 30
0.0
 10
-47.8449
 20
-18.4569
 30
0.0
 10
-47.8449
 20
-18.4569
 30
0.0
 10
-47.8675
 20
-18.476
 30
0.0
 10
-47.8879
 20
-18.4931
 30
0.0
 10
-47.906
 20
-18.5083
 30
0.0
 10
-47.906
 20
-18.5083
 30
0.0
 10
-47.9242
 20
-18.5232
 30
0.0
 10
-47.9482
 20
-18.5385
 30
0.0
 10
-47.9786
 20
-18.5537
 30
0.0
 10
-47.9786
 20
-18.5537
 30
0.0
 10
-48.0084
 20
-18.5682
 30
0.0
 10
-48.0372
 20
-18.5792
 30
0.0
 10
-48.0654
 20
-18.587
 30
0.0
 10
-48.0654
 20
-18.587
 30
0.0
 10
-48.0936
 20
-18.5945
 30
0.0
 10
-48.133
 20
-18.5984
 30
0.0
 10
-48.1836
 20
-18.5984
 30
0.0
 10
-48.1836
 20
-18.5984
 30
0.0
 10
-48.2778
 20
-18.5984
 30
0.0
 10
-48.3561
 20
-18.5666
 30
0.0
 10
-48.4183
 20
-18.5035
 30
0.0
 10
-48.4183
 20
-18.5035
 30
0.0
 10
-48.4808
 20
-18.4403
 30
0.0
 10
-48.5119
 20
-18.3607
 30
0.0
 10
-48.5119
 20
-18.2646
 30
0.0
 10
-48.5119
 20
-18.2646
 30
0.0
 10
-48.5119
 20
-18.1855
 30
0.0
 10
-48.496
 20
-18.1215
 30
0.0
 10
-48.4643
 20
-18.0729
 30
0.0
 10
-48.4643
 20
-18.0729
 30
0.0
 10
-48.4328
 20
-18.0243
 30
0.0
 10
-48.3872
 20
-17.9855
 30
0.0
 10
-48.328
 20
-17.9573
 30
0.0
 10
-48.328
 20
-17.9573
 30
0.0
 10
-48.2678
 20
-17.9282
 30
0.0
 10
-48.1959
 20
-17.9078
 30
0.0
 10
-48.1123
 20
-17.8965
 30
0.0
 10
-48.1123
 20
-17.8965
 30
0.0
 10
-48.0306
 20
-17.8854
 30
0.0
 10
-47.943
 20
-17.8766
 30
0.0
 10
-47.8492
 20
-17.8702
 30
0.0
 10
-47.8492
 20
-17.8702
 30
0.0
 10
-47.8595
 20
-17.8456
 30
0.0
 10
-47.8726
 20
-17.8232
 30
0.0
 10
-47.8882
 20
-17.8032
 30
0.0
 10
-47.8882
 20
-17.8032
 30
0.0
 10
-47.9349
 20
-17.7439
 30
0.0
 10
-48.0002
 20
-17.7145
 30
0.0
 10
-48.0851
 20
-17.7145
 30
0.0
 10
-48.0851
 20
-17.7145
 30
0.0
 10
-48.1223
 20
-17.7145
 30
0.0
 10
-48.1563
 20
-17.7191
 30
0.0
 10
-48.1868
 20
-17.7284
 30
0.0
 10
-48.1868
 20
-17.7284
 30
0.0
 10
-48.2169
 20
-17.7375
 30
0.0
 10
-48.2441
 20
-17.7488
 30
0.0
 10
-48.2683
 20
-17.762
 30
0.0
 10
-48.2683
 20
-17.762
 30
0.0
 10
-48.291
 20
-17.7747
 30
0.0
 10
-48.312
 20
-17.7887
 30
0.0
 10
-48.3311
 20
-17.8038
 30
0.0
 10
-48.3311
 20
-17.8038
 30
0.0
 10
-48.3506
 20
-17.8191
 30
0.0
 10
-48.3668
 20
-17.833
 30
0.0
 10
-48.3801
 20
-17.8456
 30
0.0
 10
-48.3801
 20
-17.8456
 30
0.0
 10
-48.3801
 20
-17.8456
 30
0.0
 10
-48.4228
 20
-17.8456
 30
0.0
 10
-48.4228
 20
-17.8456
 30
0.0
 10
-48.4228
 20
-17.8456
 30
0.0
 10
-48.4228
 20
-17.8456
 30
0.0
 10
-48.4228
 20
-17.5614
 30
0.0
 10
-48.4228
 20
-17.5614
 30
0.0
  0
SPLINE
  5
C2
330
1F
100
AcDbEntity
  8
Ilustrace
 62
   250
370
    30
100
AcDbSpline
210
0.0
220
0.0
230
1.0
 70
    24
 71
     3
 72
     8
 73
     4
 74
     0
 42
0.0000000001
 43
0.0000000001
 40
0.0
 40
0.0
 40
0.0
 40
0.0
 40
1.0
 40
1.0
 40
1.0
 40
1.0
 10
-42.9923
 20
-33.7638
 30
0.0
 10
-42.9923
 20
-33.7638
 30
0.0
 10
-42.9923
 20
-32.3395
 30
0.0
 10
-42.9923
 20
-32.3395
 30
0.0
  0
SPLINE
  5
C3
330
1F
100
AcDbEntity
  8
Ilustrace
 62
   250
370
    30
100
AcDbSpline
210
0.0
220
0.0
230
1.0
 70
    24
 71
     3
 72
     8
 73
     4
 74
     0
 42
0.0000000001
 43
0.0000000001
 40
0.0
 40
0.0
 40
0.0
 40
0.0
 40
1.0
 40
1.0
 40
1.0
 40
1.0
 10
37.6271
 20
-33.7638
 30
0.0
 10
37.6271
 20
-33.7638
 30
0.0
 10
-42.9923
 20
-33.7638
 30
0.0
 10
-42.9923
 20
-33.7638
 30
0.0
  0
SPLINE
  5
C4
330
1F
100
AcDbEntity
  8
Ilustrace
 62
   250
370
    30
100
AcDbSpline
210
0.0
220
0.0
230
1.0
 70
    24
 71
     3
 72
     8
 73
     4
 74
     0
 42
0.0000000001
 43
0.0000000001
 40
0.0
 40
0.0
 40
0.0
 40
0.0
 40
1.0
 40
1.0
 40
1.0
 40
1.0
 10
37.6271
 20
-32.3395
 30
0.0
 10
37.6271
 20
-32.3395
 30
0.0
 10
37.6271
 20
-33.7638
 30
0.0
 10
37.6271
 20
-33.7638
 30
0.0
  0
SPLINE
  5
C5
330
1F
100
AcDbEntity
  8
Ilustrace
 62
   250
370
    30
100
AcDbSpline
210
0.0
220
0.0
230
1.0
 70
    24
 71
     3
 72
     8
 73
     4
 74
     0
 42
0.0000000001
 43
0.0000000001
 40
0.0
 40
0.0
 40
0.0
 40
0.0
 40
1.0
 40
1.0
 40
1.0
 40
1.0
 10
-43.4197
 20
-33.7638
 30
0.0
 10
-43.4197
 20
-33.7638
 30
0.0
 10
-43.4197
 20
-32.3395
 30
0.0
 10
-43.4197
 20
-32.3395
 30
0.0
  0
SPLINE
  5
C6
330
1F
100
AcDbEntity
  8
Ilustrace
 62
   250
370
    30
100
AcDbSpline
210
0.0
220
0.0
230
1.0
 70
    24
 71
     3
 72
     8
 73
     4
 74
     0
 42
0.0000000001
 43
0.0000000001
 40
0.0
 40
0.0
 40
0.0
 40
0.0
 40
1.0
 40
1.0
 40
1.0
 40
1.0
 10
-42.9923
 20
-33.7638
 30
0.0
 10
-42.9923
 20
-33.7638
 30
0.0
 10
-43.4197
 20
-33.7638
 30
0.0
 10
-43.4197
 20
-33.7638
 30
0.0
  0
SPLINE
  5
C7
330
1F
100
AcDbEntity
  8
Ilustrace
 62
   250
370
    30
100
AcDbSpline
210
0.0
220
0.0
230
1.0
 70
    24
 71
     3
 72
     8
 73
     4
 74
     0
 42
0.0000000001
 43
0.0000000001
 40
0.0
 40
0.0
 40
0.0
 40
0.0
 40
1.0
 40
1.0
 40
1.0
 40
1.0
 10
38.0545
 20
-33.7638
 30
0.0
 10
38.0545
 20
-33.7638
 30
0.0
 10
37.6271
 20
-33.7638
 30
0.0
 10
37.6271
 20
-33.7638
 30
0.0
  0
SPLINE
  5
C8
330
1F
100
AcDbEntity
  8
Ilustrace
 62
   250
370
    30
100
AcDbSpline
210
0.0
220
0.0
230
1.0
 70
    24
 71
     3
 72
     8
 73
     4
 74
     0
 42
0.0000000001
 43
0.0000000001
 40
0.0
 40
0.0
 40
0.0
 40
0.0
 40
1.0
 40
1.0
 40
1.0
 40
1.0
 10
38.0545
 20
-33.7638
 30
0.0
 10
38.0545
 20
-33.7638
 30
0.0
 10
38.0545
 20
-32.3395
 30
0.0
 10
38.0545
 20
-32.3395
 30
0.0
  0
SPLINE
  5
C9
330
1F
100
AcDbEntity
  8
Ilustrace
 62
   250
370
    30
100
AcDbSpline
210
0.0
220
0.0
230
1.0
 70
    24
 71
     3
 72
     8
 73
     4
 74
     0
 42
0.0000000001
 43
0.0000000001
 40
0.0
 40
0.0
 40
0.0
 40
0.0
 40
1.0
 40
1.0
 40
1.0
 40
1.0
 10
39.8207
 20
-33.7638
 30
0.0
 10
39.8207
 20
-33.7638
 30
0.0
 10
38.0545
 20
-33.7638
 30
0.0
 10
38.0545
 20
-33.7638
 30
0.0
  0
SPLINE
  5
CA
330
1F
100
AcDbEntity
  8
Ilustrace
 62
   250
370
    30
100
AcDbSpline
210
0.0
220
0.0
230
1.0
 70
    24
 71
     3
 72
     8
 73
     4
 74
     0
 42
0.0000000001
 43
0.0000000001
 40
0.0
 40
0.0
 40
0.0
 40
0.0
 40
1.0
 40
1.0
 40
1.0
 40
1.0
 10
39.8207
 20
-32.3395
 30
0.0
 10
39.8207
 20
-32.3395
 30
0.0
 10
39.8207
 20
-33.7638
 30
0.0
 10
39.8207
 20
-33.7638
 30
0.0
  0
SPLINE
  5
CB
330
1F
100
AcDbEntity
  8
Ilustrace
 62
   250
370
    30
100
AcDbSpline
210
0.0
220
0.0
230
1.0
 70
    24
 71
     3
 72
     8
 73
     4
 74
     0
 42
0.0000000001
 43
0.0000000001
 40
0.0
 40
0.0
 40
0.0
 40
0.0
 40
1.0
 40
1.0
 40
1.0
 40
1.0
 10
38.8134
 20
-33.7638
 30
0.0
 10
38.8134
 20
-33.7638
 30
0.0
 10
38.8134
 20
-32.3395
 30
0.0
 10
38.8134
 20
-32.3395
 30
0.0
  0
SPLINE
  5
CC
330
1F
100
AcDbEntity
  8
Ilustrace
 62
   250
370
    30
100
AcDbSpline
210
0.0
220
0.0
230
1.0
 70
    24
 71
     3
 72
     8
 73
     4
 74
     0
 42
0.0000000001
 43
0.0000000001
 40
0.0
 40
0.0
 40
0.0
 40
0.0
 40
1.0
 40
1.0
 40
1.0
 40
1.0
 10
-43.4197
 20
-33.7638
 30
0.0
 10
-43.4197
 20
-33.7638
 30
0.0
 10
-45.1858
 20
-33.7638
 30
0.0
 10
-45.1858
 20
-33.7638
 30
0.0
  0
SPLINE
  5
CD
330
1F
100
AcDbEntity
  8
Ilustrace
 62
   250
370
    30
100
AcDbSpline
210
0.0
220
0.0
230
1.0
 70
    24
 71
     3
 72
     8
 73
     4
 74
     0
 42
0.0000000001
 43
0.0000000001
 40
0.0
 40
0.0
 40
0.0
 40
0.0
 40
1.0
 40
1.0
 40
1.0
 40
1.0
 10
-45.1858
 20
-32.3395
 30
0.0
 10
-45.1858
 20
-32.3395
 30
0.0
 10
-45.1858
 20
-33.7638
 30
0.0
 10
-45.1858
 20
-33.7638
 30
0.0
  0
SPLINE
  5
CE
330
1F
100
AcDbEntity
  8
Ilustrace
 62
   250
370
    30
100
AcDbSpline
210
0.0
220
0.0
230
1.0
 70
    24
 71
     3
 72
     8
 73
     4
 74
     0
 42
0.0000000001
 43
0.0000000001
 40
0.0
 40
0.0
 40
0.0
 40
0.0
 40
1.0
 40
1.0
 40
1.0
 40
1.0
 10
-44.1786
 20
-32.3395
 30
0.0
 10
-44.1786
 20
-32.3395
 30
0.0
 10
-44.1786
 20
-33.7638
 30
0.0
 10
-44.1786
 20
-33.7638
 30
0.0
  0
SPLINE
  5
CF
330
1F
100
AcDbEntity
  8
Ilustrace
 62
   250
370
    30
100
AcDbSpline
210
0.0
220
0.0
230
1.0
 70
    24
 71
     3
 72
     8
 73
     4
 74
     0
 42
0.0000000001
 43
0.0000000001
 40
0.0
 40
0.0
 40
0.0
 40
0.0
 40
1.0
 40
1.0
 40
1.0
 40
1.0
 10
51.7286
 20
-31.1999
 30
0.0
 10
51.7286
 20
-31.1999
 30
0.0
 10
-57.0937
 20
-31.1999
 30
0.0
 10
-57.0937
 20
-31.1999
 30
0.0
  0
SPLINE
  5
D0
330
1F
100
AcDbEntity
  8
Ilustrace
 62
   250
370
    30
100
AcDbSpline
210
0.0
220
0.0
230
1.0
 70
    24
 71
     3
 72
     8
 73
     4
 74
     0
 42
0.0000000001
 43
0.0000000001
 40
0.0
 40
0.0
 40
0.0
 40
0.0
 40
1.0
 40
1.0
 40
1.0
 40
1.0
 10
-57.0937
 20
-32.3395
 30
0.0
 10
-57.0937
 20
-32.3395
 30
0.0
 10
-57.0937
 20
-31.1999
 30
0.0
 10
-57.0937
 20
-31.1999
 30
0.0
  0
SPLINE
  5
D1
330
1F
100
AcDbEntity
  8
Ilustrace
 62
   250
370
    30
100
AcDbSpline
210
0.0
220
0.0
230
1.0
 70
    24
 71
     3
 72
     8
 73
     4
 74
     0
 42
0.0000000001
 43
0.0000000001
 40
0.0
 40
0.0
 40
0.0
 40
0.0
 40
1.0
 40
1.0
 40
1.0
 40
1.0
 10
51.7286
 20
-32.3395
 30
0.0
 10
51.7286
 20
-32.3395
 30
0.0
 10
-57.0937
 20
-32.3395
 30
0.0
 10
-57.0937
 20
-32.3395
 30
0.0
  0
SPLINE
  5
D2
330
1F
100
AcDbEntity
  8
Ilustrace
 62
   250
370
    30
100
AcDbSpline
210
0.0
220
0.0
230
1.0
 70
    24
 71
     3
 72
     8
 73
     4
 74
     0
 42
0.0000000001
 43
0.0000000001
 40
0.0
 40
0.0
 40
0.0
 40
0.0
 40
1.0
 40
1.0
 40
1.0
 40
1.0
 10
51.7286
 20
-31.1999
 30
0.0
 10
51.7286
 20
-31.1999
 30
0.0
 10
51.7286
 20
-32.3395
 30
0.0
 10
51.7286
 20
-32.3395
 30
0.0
  0
SPLINE
  5
D3
330
1F
100
AcDbEntity
  8
Ilustrace
 62
   250
370
     9
100
AcDbSpline
210
0.0
220
0.0
230
1.0
 70
    11
 71
     3
 72
    32
 73
    28
 74
     0
 42
0.0000000001
 43
0.0000000001
 40
0.0
 40
0.0
 40
0.0
 40
0.0
 40
0.125
 40
0.125
 40
0.125
 40
0.125
 40
0.25
 40
0.25
 40
0.25
 40
0.25
 40
0.375
 40
0.375
 40
0.375
 40
0.375
 40
0.5
 40
0.5
 40
0.5
 40
0.5
 40
0.625
 40
0.625
 40
0.625
 40
0.625
 40
0.75
 40
0.75
 40
0.75
 40
0.75
 40
1.0
 40
1.0
 40
1.0
 40
1.0
 10
-55.7917
 20
-26.8
 30
0.0
 10
-55.7917
 20
-26.8
 30
0.0
 10
-55.7917
 20
-26.8
 30
0.0
 10
-55.7917
 20
-26.8
 30
0.0
 10
-55.7917
 20
-26.8
 30
0.0
 10
-55.7917
 20
-26.8
 30
0.0
 10
-55.7917
 20
-26.8
 30
0.0
 10
-55.7917
 20
-26.8
 30
0.0
 10
-55.7917
 20
-26.8
 30
0.0
 10
-55.7917
 20
-26.8
 30
0.0
 10
-57.0645
 20
-26.3566
 30
0.0
 10
-57.0645
 20
-26.3566
 30
0.0
 10
-57.0645
 20
-26.3566
 30
0.0
 10
-57.0645
 20
-26.3566
 30
0.0
 10
-55.7917
 20
-25.9132
 30
0.0
 10
-55.7917
 20
-25.9132
 30
0.0
 10
-55.7917
 20
-25.9132
 30
0.0
 10
-55.7917
 20
-25.9132
 30
0.0
 10
-55.7917
 20
-25.9132
 30
0.0
 10
-55.7917
 20
-25.9132
 30
0.0
 10
-55.7917
 20
-25.9132
 30
0.0
 10
-55.7917
 20
-25.9132
 30
0.0
 10
-55.7917
 20
-25.9132
 30
0.0
 10
-55.7917
 20
-25.9132
 30
0.0
 10
-55.7917
 20
-25.9132
 30
0.0
 10
-55.7917
 20
-25.9132
 30
0.0
 10
-55.7917
 20
-26.8
 30
0.0
 10
-55.7917
 20
-26.8
 30
0.0
  0
SPLINE
  5
D4
330
1F
100
AcDbEntity
  8
Ilustrace
 62
   250
370
     9
100
AcDbSpline
210
0.0
220
0.0
230
1.0
 70
    11
 71
     3
 72
    32
 73
    28
 74
     0
 42
0.0000000001
 43
0.0000000001
 40
0.0
 40
0.0
 40
0.0
 40
0.0
 40
0.125
 40
0.125
 40
0.125
 40
0.125
 40
0.25
 40
0.25
 40
0.25
 40
0.25
 40
0.375
 40
0.375
 40
0.375
 40
0.375
 40
0.5
 40
0.5
 40
0.5
 40
0.5
 40
0.625
 40
0.625
 40
0.625
 40
0.625
 40
0.75
 40
0.75
 40
0.75
 40
0.75
 40
1.0
 40
1.0
 40
1.0
 40
1.0
 10
56.2218
 20
-33.6635
 30
0.0
 10
56.2218
 20
-33.6635
 30
0.0
 10
56.2218
 20
-33.6635
 30
0.0
 10
56.2218
 20
-33.6635
 30
0.0
 10
56.2218
 20
-33.6635
 30
0.0
 10
56.2218
 20
-33.6635
 30
0.0
 10
56.2218
 20
-33.6635
 30
0.0
 10
56.2218
 20
-33.6635
 30
0.0
 10
56.2218
 20
-33.6635
 30
0.0
 10
56.2218
 20
-33.6635
 30
0.0
 10
56.6652
 20
-32.3907
 30
0.0
 10
56.6652
 20
-32.3907
 30
0.0
 10
56.6652
 20
-32.3907
 30
0.0
 10
56.6652
 20
-32.3907
 30
0.0
 10
57.1086
 20
-33.6635
 30
0.0
 10
57.1086
 20
-33.6635
 30
0.0
 10
57.1086
 20
-33.6635
 30
0.0
 10
57.1086
 20
-33.6635
 30
0.0
 10
57.1086
 20
-33.6635
 30
0.0
 10
57.1086
 20
-33.6635
 30
0.0
 10
57.1086
 20
-33.6635
 30
0.0
 10
57.1086
 20
-33.6635
 30
0.0
 10
57.1086
 20
-33.6635
 30
0.0
 10
57.1086
 20
-33.6635
 30
0.0
 10
57.1086
 20
-33.6635
 30
0.0
 10
57.1086
 20
-33.6635
 30
0.0
 10
56.2218
 20
-33.6635
 30
0.0
 10
56.2218
 20
-33.6635
 30
0.0
  0
SPLINE
  5
D5
330
1F
100
AcDbEntity
  8
Ilustrace
 62
   250
370
     9
100
AcDbSpline
210
0.0
220
0.0
230
1.0
 70
    11
 71
     3
 72
    32
 73
    28
 74
     0
 42
0.0000000001
 43
0.0000000001
 40
0.0
 40
0.0
 40
0.0
 40
0.0
 40
0.125
 40
0.125
 40
0.125
 40
0.125
 40
0.25
 40
0.25
 40
0.25
 40
0.25
 40
0.375
 40
0.375
 40
0.375
 40
0.375
 40
0.5
 40
0.5
 40
0.5
 40
0.5
 40
0.625
 40
0.625
 40
0.625
 40
0.625
 40
0.75
 40
0.75
 40
0.75
 40
0.75
 40
1.0
 40
1.0
 40
1.0
 40
1.0
 10
50.3755
 20
-26.7382
 30
0.0
 10
50.3755
 20
-26.7382
 30
0.0
 10
50.3755
 20
-26.7382
 30
0.0
 10
50.3755
 20
-26.7382
 30
0.0
 10
50.3755
 20
-26.7382
 30
0.0
 10
50.3755
 20
-26.7382
 30
0.0
 10
50.3755
 20
-26.7382
 30
0.0
 10
50.3755
 20
-26.7382
 30
0.0
 10
50.3755
 20
-26.7382
 30
0.0
 10
50.3755
 20
-26.7382
 30
0.0
 10
51.6483
 20
-26.2948
 30
0.0
 10
51.6483
 20
-26.2948
 30
0.0
 10
51.6483
 20
-26.2948
 30
0.0
 10
51.6483
 20
-26.2948
 30
0.0
 10
50.3755
 20
-25.8514
 30
0.0
 10
50.3755
 20
-25.8514
 30
0.0
 10
50.3755
 20
-25.8514
 30
0.0
 10
50.3755
 20
-25.8514
 30
0.0
 10
50.3755
 20
-25.8514
 30
0.0
 10
50.3755
 20
-25.8514
 30
0.0
 10
50.3755
 20
-25.8514
 30
0.0
 10
50.3755
 20
-25.8514
 30
0.0
 10
50.3755
 20
-25.8514
 30
0.0
 10
50.3755
 20
-25.8514
 30
0.0
 10
50.3755
 20
-25.8514
 30
0.0
 10
50.3755
 20
-25.8514
 30
0.0
 10
50.3755
 20
-26.7382
 30
0.0
 10
50.3755
 20
-26.7382
 30
0.0
  0
SPLINE
  5
D6
330
1F
100
AcDbEntity
  8
Ilustrace
 62
   250
370
     9
100
AcDbSpline
210
0.0
220
0.0
230
1.0
 70
    11
 71
     3
 72
    32
 73
    28
 74
     0
 42
0.0000000001
 43
0.0000000001
 40
0.0
 40
0.0
 40
0.0
 40
0.0
 40
0.125
 40
0.125
 40
0.125
 40
0.125
 40
0.25
 40
0.25
 40
0.25
 40
0.25
 40
0.375
 40
0.375
 40
0.375
 40
0.375
 40
0.5
 40
0.5
 40
0.5
 40
0.5
 40
0.625
 40
0.625
 40
0.625
 40
0.625
 40
0.75
 40
0.75
 40
0.75
 40
0.75
 40
1.0
 40
1.0
 40
1.0
 40
1.0
 10
53.2734
 20
-16.8018
 30
0.0
 10
53.2734
 20
-16.8018
 30
0.0
 10
53.2734
 20
-16.8018
 30
0.0
 10
53.2734
 20
-16.8018
 30
0.0
 10
53.2734
 20
-16.8018
 30
0.0
 10
53.2734
 20
-16.8018
 30
0.0
 10
53.2734
 20
-16.8018
 30
0.0
 10
53.2734
 20
-16.8018
 30
0.0
 10
53.2734
 20
-16.8018
 30
0.0
 10
53.2734
 20
-16.8018
 30
0.0
 10
53.8599
 20
-18.0153
 30
0.0
 10
53.8599
 20
-18.0153
 30
0.0
 10
53.8599
 20
-18.0153
 30
0.0
 10
53.8599
 20
-18.0153
 30
0.0
 10
52.6464
 20
-17.4288
 30
0.0
 10
52.6464
 20
-17.4288
 30
0.0
 10
52.6464
 20
-17.4288
 30
0.0
 10
52.6464
 20
-17.4288
 30
0.0
 10
52.6464
 20
-17.4288
 30
0.0
 10
52.6464
 20
-17.4288
 30
0.0
 10
52.6464
 20
-17.4288
 30
0.0
 10
52.6464
 20
-17.4288
 30
0.0
 10
52.6464
 20
-17.4288
 30
0.0
 10
52.6464
 20
-17.4288
 30
0.0
 10
52.6464
 20
-17.4288
 30
0.0
 10
52.6464
 20
-17.4288
 30
0.0
 10
53.2734
 20
-16.8018
 30
0.0
 10
53.2734
 20
-16.8018
 30
0.0
  0
SPLINE
  5
D7
330
1F
100
AcDbEntity
  8
Ilustrace
 62
   250
370
     9
100
AcDbSpline
210
0.0
220
0.0
230
1.0
 70
    11
 71
     3
 72
    32
 73
    28
 74
     0
 42
0.0000000001
 43
0.0000000001
 40
0.0
 40
0.0
 40
0.0
 40
0.0
 40
0.125
 40
0.125
 40
0.125
 40
0.125
 40
0.25
 40
0.25
 40
0.25
 40
0.25
 40
0.375
 40
0.375
 40
0.375
 40
0.375
 40
0.5
 40
0.5
 40
0.5
 40
0.5
 40
0.625
 40
0.625
 40
0.625
 40
0.625
 40
0.75
 40
0.75
 40
0.75
 40
0.75
 40
1.0
 40
1.0
 40
1.0
 40
1.0
 10
0.1897
 20
35.106
 30
0.0
 10
0.1897
 20
35.106
 30
0.0
 10
0.1897
 20
35.106
 30
0.0
 10
0.1897
 20
35.106
 30
0.0
 10
0.1897
 20
35.106
 30
0.0
 10
0.1897
 20
35.106
 30
0.0
 10
0.1897
 20
35.106
 30
0.0
 10
0.1897
 20
35.106
 30
0.0
 10
0.1897
 20
35.106
 30
0.0
 10
0.1897
 20
35.106
 30
0.0
 10
-0.3968
 20
36.3195
 30
0.0
 10
-0.3968
 20
36.3195
 30
0.0
 10
-0.3968
 20
36.3195
 30
0.0
 10
-0.3968
 20
36.3195
 30
0.0
 10
0.8167
 20
35.733
 30
0.0
 10
0.8167
 20
35.733
 30
0.0
 10
0.8167
 20
35.733
 30
0.0
 10
0.8167
 20
35.733
 30
0.0
 10
0.8167
 20
35.733
 30
0.0
 10
0.8167
 20
35.733
 30
0.0
 10
0.8167
 20
35.733
 30
0.0
 10
0.8167
 20
35.733
 30
0.0
 10
0.8167
 20
35.733
 30
0.0
 10
0.8167
 20
35.733
 30
0.0
 10
0.8167
 20
35.733
 30
0.0
 10
0.8167
 20
35.733
 30
0.0
 10
0.1897
 20
35.106
 30
0.0
 10
0.1897
 20
35.106
 30
0.0
  0
SPLINE
  5
D8
330
1F
100
AcDbEntity
  8
Ilustrace
 62
   250
370
     9
100
AcDbSpline
210
0.0
220
0.0
230
1.0
 70
    11
 71
     3
 72
    32
 73
    28
 74
     0
 42
0.0000000001
 43
0.0000000001
 40
0.0
 40
0.0
 40
0.0
 40
0.0
 40
0.125
 40
0.125
 40
0.125
 40
0.125
 40
0.25
 40
0.25
 40
0.25
 40
0.25
 40
0.375
 40
0.375
 40
0.375
 40
0.375
 40
0.5
 40
0.5
 40
0.5
 40
0.5
 40
0.625
 40
0.625
 40
0.625
 40
0.625
 40
0.75
 40
0.75
 40
0.75
 40
0.75
 40
1.0
 40
1.0
 40
1.0
 40
1.0
 10
56.2044
 20
-29.8045
 30
0.0
 10
56.2044
 20
-29.8045
 30
0.0
 10
56.2044
 20
-29.8045
 30
0.0
 10
56.2044
 20
-29.8045
 30
0.0
 10
56.2044
 20
-29.8045
 30
0.0
 10
56.2044
 20
-29.8045
 30
0.0
 10
56.2044
 20
-29.8045
 30
0.0
 10
56.2044
 20
-29.8045
 30
0.0
 10
56.2044
 20
-29.8045
 30
0.0
 10
56.2044
 20
-29.8045
 30
0.0
 10
56.6478
 20
-31.0773
 30
0.0
 10
56.6478
 20
-31.0773
 30
0.0
 10
56.6478
 20
-31.0773
 30
0.0
 10
56.6478
 20
-31.0773
 30
0.0
 10
57.0912
 20
-29.8045
 30
0.0
 10
57.0912
 20
-29.8045
 30
0.0
 10
57.0912
 20
-29.8045
 30
0.0
 10
57.0912
 20
-29.8045
 30
0.0
 10
57.0912
 20
-29.8045
 30
0.0
 10
57.0912
 20
-29.8045
 30
0.0
 10
57.0912
 20
-29.8045
 30
0.0
 10
57.0912
 20
-29.8045
 30
0.0
 10
57.0912
 20
-29.8045
 30
0.0
 10
57.0912
 20
-29.8045
 30
0.0
 10
57.0912
 20
-29.8045
 30
0.0
 10
57.0912
 20
-29.8045
 30
0.0
 10
56.2044
 20
-29.8045
 30
0.0
 10
56.2044
 20
-29.8045
 30
0.0
  0
ENDSEC
  0
SECTION
  2
OBJECTS
  0
DICTIONARY
  5
C
330
0
100
AcDbDictionary
281
     1
  3
ACAD_GROUP
350
D
  3
ACAD_LAYOUT
350
1A
  3
ACAD_MATERIAL
350
3B
  3
ACAD_MLEADERSTYLE
350
DB
  3
ACAD_MLINESTYLE
350
17
  3
ACAD_PLOTSETTINGS
350
19
  3
ACAD_PLOTSTYLENAME
350
E
  3
ACAD_VISUALSTYLE
350
2A
  3
AcDbVariableDictionary
350
D9
  0
DICTIONARY
  5
D
102
{ACAD_REACTORS
330
C
102
}
330
C
100
AcDbDictionary
281
     1
  0
DICTIONARY
  5
1A
102
{ACAD_REACTORS
330
C
102
}
330
C
100
AcDbDictionary
281
     1
  3
Layout1
350
1E
  3
Layout2
350
26
  3
Model
350
22
  0
DICTIONARY
  5
3B
102
{ACAD_REACTORS
330
C
102
}
330
C
100
AcDbDictionary
281
     1
  3
ByBlock
350
3D
  3
ByLayer
350
3C
  3
Global
350
3E
  0
DICTIONARY
  5
DB
102
{ACAD_REACTORS
330
C
102
}
330
C
100
AcDbDictionary
281
     1
  0
DICTIONARY
  5
17
102
{ACAD_REACTORS
330
C
102
}
330
C
100
AcDbDictionary
281
     1
  3
Standard
350
18
  0
DICTIONARY
  5
19
102
{ACAD_REACTORS
330
C
102
}
330
C
100
AcDbDictionary
281
     1
  0
ACDBDICTIONARYWDFLT
  5
E
102
{ACAD_REACTORS
330
C
102
}
330
C
100
AcDbDictionary
281
     1
  3
Normal
350
F
100
AcDbDictionaryWithDefault
340
F
  0
DICTIONARY
  5
2A
102
{ACAD_REACTORS
330
C
102
}
330
C
100
AcDbDictionary
281
     1
  3
2dWireframe
350
2F
  3
3D Hidden
350
31
  3
3dWireframe
350
30
  3
Basic
350
32
  3
Brighten
350
36
  3
ColorChange
350
3A
  3
Conceptual
350
34
  3
Dim
350
35
  3
Facepattern
350
39
  3
Flat
350
2B
  3
FlatWithEdges
350
2C
  3
Gouraud
350
2D
  3
GouraudWithEdges
350
2E
  3
Linepattern
350
38
  3
Realistic
350
33
  3
Thicken
350
37
  0
DICTIONARY
  5
D9
102
{ACAD_REACTORS
330
C
102
}
330
C
100
AcDbDictionary
281
     1
  3
DIMASSOC
350
DC
  3
HIDETEXT
350
DD
  0
LAYOUT
  5
1E
102
{ACAD_REACTORS
330
1A
102
}
330
1A
100
AcDbPlotSettings
  1

  2
none_device
  4

  6

 40
0.0
 41
0.0
 42
0.0
 43
0.0
 44
0.0
 45
0.0
 46
0.0
 47
0.0
 48
0.0
 49
0.0
140
0.0
141
0.0
142
1.0
143
1.0
 70
   688
 72
     0
 73
     0
 74
     5
  7

 75
    16
147
1.0
148
0.0
149
0.0
100
AcDbLayout
  1
Layout1
 70
     1
 71
     1
 10
0.0
 20
0.0
 11
12.0
 21
9.0
 12
0.0
 22
0.0
 32
0.0
 14
1.000000000000000E+20
 24
1.000000000000000E+20
 34
1.000000000000000E+20
 15
-1.000000000000000E+20
 25
-1.000000000000000E+20
 35
-1.000000000000000E+20
146
0.0
 13
0.0
 23
0.0
 33
0.0
 16
1.0
 26
0.0
 36
0.0
 17
0.0
 27
1.0
 37
0.0
 76
     0
330
1B
  0
LAYOUT
  5
26
102
{ACAD_REACTORS
330
1A
102
}
330
1A
100
AcDbPlotSettings
  1

  2
none_device
  4

  6

 40
0.0
 41
0.0
 42
0.0
 43
0.0
 44
0.0
 45
0.0
 46
0.0
 47
0.0
 48
0.0
 49
0.0
140
0.0
141
0.0
142
1.0
143
1.0
 70
   688
 72
     0
 73
     0
 74
     5
  7

 75
    16
147
1.0
148
0.0
149
0.0
100
AcDbLayout
  1
Layout2
 70
     1
 71
     2
 10
0.0
 20
0.0
 11
0.0
 21
0.0
 12
0.0
 22
0.0
 32
0.0
 14
0.0
 24
0.0
 34
0.0
 15
0.0
 25
0.0
 35
0.0
146
0.0
 13
0.0
 23
0.0
 33
0.0
 16
1.0
 26
0.0
 36
0.0
 17
0.0
 27
1.0
 37
0.0
 76
     0
330
23
  0
LAYOUT
  5
22
102
{ACAD_REACTORS
330
1A
102
}
330
1A
100
AcDbPlotSettings
  1

  2
none_device
  4

  6

 40
0.0
 41
0.0
 42
0.0
 43
0.0
 44
0.0
 45
0.0
 46
0.0
 47
0.0
 48
0.0
 49
0.0
140
0.0
141
0.0
142
1.0
143
1.0
 70
  1712
 72
     0
 73
     0
 74
     0
  7

 75
     0
147
1.0
148
0.0
149
0.0
100
AcDbLayout
  1
Model
 70
     1
 71
     0
 10
0.0
 20
0.0
 11
12.0
 21
9.0
 12
0.0
 22
0.0
 32
0.0
 14
-57.4451
 24
-36.6356
 34
0.0
 15
57.1622
 25
36.6855
 35
0.0
146
0.0
 13
0.0
 23
0.0
 33
0.0
 16
1.0
 26
0.0
 36
0.0
 17
0.0
 27
1.0
 37
0.0
 76
     0
330
1F
331
29
  0
MATERIAL
  5
3D
102
{ACAD_REACTORS
330
3B
102
}
102
{ACAD_XDICTIONARY
360
100
102
}
330
3B
100
AcDbMaterial
  1
ByBlock
  0
MATERIAL
  5
3C
102
{ACAD_REACTORS
330
3B
102
}
102
{ACAD_XDICTIONARY
360
FE
102
}
330
3B
100
AcDbMaterial
  1
ByLayer
  0
MATERIAL
  5
3E
102
{ACAD_REACTORS
330
3B
102
}
102
{ACAD_XDICTIONARY
360
102
102
}
330
3B
100
AcDbMaterial
  1
Global
  0
MLINESTYLE
  5
18
102
{ACAD_REACTORS
330
17
102
}
330
17
100
AcDbMlineStyle
  2
Standard
 70
     0
  3

 62
   256
 51
90.0
 52
90.0
 71
     2
 49
0.5
 62
   256
  6
BYLAYER
 49
-0.5
 62
   256
  6
BYLAYER
  0
ACDBPLACEHOLDER
  5
F
102
{ACAD_REACTORS
330
E
102
}
330
E
  0
VISUALSTYLE
  5
2F
102
{ACAD_REACTORS
330
2A
102
}
102
{ACAD_XDICTIONARY
360
E6
102
}
330
2A
100
AcDbVisualStyle
  2
2dWireframe
 70
     4
 71
     0
 72
     2
 73
     0
 90
        0
 40
-0.6
 41
-30.0
 62
     5
 63
     7
 74
     1
 91
        4
 64
     7
 65
   257
 75
     1
175
     1
 42
1.0
 92
        0
 66
   257
 43
1.0
 76
     1
 77
     6
 78
     2
 67
     7
 79
     5
170
     0
171
     0
290
     0
174
     0
 93
        1
 44
0.0
173
     0
291
     0
 45
0.0
1001
ACAD
1000
AcDbSavedByObjectVersion
1070
     0
  0
VISUALSTYLE
  5
31
102
{ACAD_REACTORS
330
2A
102
}
102
{ACAD_XDICTIONARY
360
EA
102
}
330
2A
100
AcDbVisualStyle
  2
3D Hidden
 70
     6
 71
     1
 72
     2
 73
     2
 90
        0
 40
-0.6
 41
-30.0
 62
     5
 63
     7
 74
     2
 91
        2
 64
     7
 65
   257
 75
     2
175
     1
 42
40.0
 92
        0
 66
   257
 43
1.0
 76
     1
 77
     6
 78
     2
 67
     7
 79
     3
170
     0
171
     0
290
     0
174
     0
 93
        1
 44
0.0
173
     0
291
     0
 45
0.0
1001
ACAD
1000
AcDbSavedByObjectVersion
1070
     0
  0
VISUALSTYLE
  5
30
102
{ACAD_REACTORS
330
2A
102
}
102
{ACAD_XDICTIONARY
360
E8
102
}
330
2A
100
AcDbVisualStyle
  2
3dWireframe
 70
     5
 71
     0
 72
     2
 73
     0
 90
        0
 40
-0.6
 41
-30.0
 62
     5
 63
     7
 74
     1
 91
        4
 64
     7
 65
   257
 75
     1
175
     1
 42
1.0
 92
        0
 66
   257
 43
1.0
 76
     1
 77
     6
 78
     2
 67
     7
 79
     5
170
     0
171
     0
290
     0
174
     0
 93
        1
 44
0.0
173
     0
291
     0
 45
0.0
1001
ACAD
1000
AcDbSavedByObjectVersion
1070
     0
  0
VISUALSTYLE
  5
32
102
{ACAD_REACTORS
330
2A
102
}
102
{ACAD_XDICTIONARY
360
EC
102
}
330
2A
100
AcDbVisualStyle
  2
Basic
 70
     7
 71
     1
 72
     0
 73
     1
 90
        0
 40
-0.6
 41
-30.0
 62
     5
 63
     7
 74
     0
 91
        4
 64
     7
 65
   257
 75
     1
175
     1
 42
1.0
 92
        8
 66
     7
 43
1.0
 76
     1
 77
     6
 78
     2
 67
     7
 79
     5
170
     0
171
     0
290
     0
174
     0
 93
        1
 44
0.0
173
     0
291
     1
 45
0.0
1001
ACAD
1000
AcDbSavedByObjectVersion
1070
     0
  0
VISUALSTYLE
  5
36
102
{ACAD_REACTORS
330
2A
102
}
102
{ACAD_XDICTIONARY
360
F4
102
}
330
2A
100
AcDbVisualStyle
  2
Brighten
 70
    12
 71
     2
 72
     2
 73
     0
 90
        0
 40
-0.6
 41
-30.0
 62
     5
 63
     7
 74
     1
 91
        4
 64
     7
 65
   257
 75
     1
175
     1
 42
1.0
 92
        8
 66
     7
 43
1.0
 76
     1
 77
     6
 78
     2
 67
     7
 79
     5
170
     0
171
     0
290
     0
174
     0
 93
        1
 44
50.0
173
     0
291
     1
 45
0.0
1001
ACAD
1000
AcDbSavedByObjectVersion
1070
     0
  0
VISUALSTYLE
  5
3A
102
{ACAD_REACTORS
330
2A
102
}
102
{ACAD_XDICTIONARY
360
FC
102
}
330
2A
100
AcDbVisualStyle
  2
ColorChange
 70
    16
 71
     2
 72
     2
 73
     3
 90
        0
 40
-0.6
 41
-30.0
 62
     5
 63
     8
 74
     1
 91
        4
 64
     7
 65
   257
 75
     1
175
     1
 42
1.0
 92
        8
 66
     8
 43
1.0
 76
     1
 77
     6
 78
     2
 67
     7
 79
     5
170
     0
171
     0
290
     0
174
     0
 93
        1
 44
0.0
173
     0
291
     1
 45
0.0
1001
ACAD
1000
AcDbSavedByObjectVersion
1070
     0
  0
VISUALSTYLE
  5
34
102
{ACAD_REACTORS
330
2A
102
}
102
{ACAD_XDICTIONARY
360
F0
102
}
330
2A
100
AcDbVisualStyle
  2
Conceptual
 70
     9
 71
     3
 72
     2
 73
     0
 90
        0
 40
-0.6
 41
-30.0
 62
     5
 63
     7
 74
     2
 91
        2
 64
     7
 65
   257
 75
     1
175
     1
 42
40.0
 92
        8
 66
     7
 43
1.0
 76
     1
 77
     6
 78
     2
 67
     7
 79
     3
170
     0
171
     0
290
     0
174
     0
 93
        1
 44
0.0
173
     0
291
     0
 45
0.0
1001
ACAD
1000
AcDbSavedByObjectVersion
1070
     0
  0
VISUALSTYLE
  5
35
102
{ACAD_REACTORS
330
2A
102
}
102
{ACAD_XDICTIONARY
360
F2
102
}
330
2A
100
AcDbVisualStyle
  2
Dim
 70
    11
 71
     2
 72
     2
 73
     0
 90
        0
 40
-0.6
 41
-30.0
 62
     5
 63
     7
 74
     1
 91
        4
 64
     7
 65
   257
 75
     1
175
     1
 42
1.0
 92
        8
 66
     7
 43
1.0
 76
     1
 77
     6
 78
     2
 67
     7
 79
     5
170
     0
171
     0
290
     0
174
     0
 93
        1
 44
-50.0
173
     0
291
     1
 45
0.0
1001
ACAD
1000
AcDbSavedByObjectVersion
1070
     0
  0
VISUALSTYLE
  5
39
102
{ACAD_REACTORS
330
2A
102
}
102
{ACAD_XDICTIONARY
360
FA
102
}
330
2A
100
AcDbVisualStyle
  2
Facepattern
 70
    15
 71
     2
 72
     2
 73
     0
 90
        0
 40
-0.6
 41
-30.0
 62
     5
 63
     7
 74
     1
 91
        4
 64
     7
 65
   257
 75
     1
175
     1
 42
1.0
 92
        8
 66
     7
 43
1.0
 76
     1
 77
     6
 78
     2
 67
     7
 79
     5
170
     0
171
     0
290
     0
174
     0
 93
        1
 44
0.0
173
     0
291
     1
 45
0.0
1001
ACAD
1000
AcDbSavedByObjectVersion
1070
     0
  0
VISUALSTYLE
  5
2B
102
{ACAD_REACTORS
330
2A
102
}
102
{ACAD_XDICTIONARY
360
DE
102
}
330
2A
100
AcDbVisualStyle
  2
Flat
 70
     0
 71
     2
 72
     1
 73
     1
 90
        2
 40
-0.6
 41
30.0
 62
     5
 63
     7
 74
     0
 91
        4
 64
     7
 65
   257
 75
     1
175
     1
 42
1.0
 92
        8
 66
     7
 43
1.0
 76
     1
 77
     6
 78
     2
 67
     7
 79
     5
170
     0
171
     0
290
     0
174
     0
 93
       13
 44
0.0
173
     0
291
     1
 45
0.0
1001
ACAD
1000
AcDbSavedByObjectVersion
1070
     0
  0
VISUALSTYLE
  5
2C
102
{ACAD_REACTORS
330
2A
102
}
102
{ACAD_XDICTIONARY
360
E0
102
}
330
2A
100
AcDbVisualStyle
  2
FlatWithEdges
 70
     1
 71
     2
 72
     1
 73
     1
 90
        2
 40
-0.6
 41
30.0
 62
     5
 63
     7
 74
     1
 91
        4
 64
     7
 65
   257
 75
     1
175
     1
 42
1.0
 92
        0
 66
   257
 43
1.0
 76
     1
 77
     6
 78
     2
 67
     7
 79
     5
170
     0
171
     0
290
     0
174
     0
 93
       13
 44
0.0
173
     0
291
     1
 45
0.0
1001
ACAD
1000
AcDbSavedByObjectVersion
1070
     0
  0
VISUALSTYLE
  5
2D
102
{ACAD_REACTORS
330
2A
102
}
102
{ACAD_XDICTIONARY
360
E2
102
}
330
2A
100
AcDbVisualStyle
  2
Gouraud
 70
     2
 71
     2
 72
     2
 73
     1
 90
        2
 40
-0.6
 41
30.0
 62
     5
 63
     7
 74
     0
 91
        4
 64
     7
 65
   257
 75
     1
175
     1
 42
1.0
 92
        0
 66
     7
 43
1.0
 76
     1
 77
     6
 78
     2
 67
     7
 79
     5
170
     0
171
     0
290
     0
174
     0
 93
       13
 44
0.0
173
     0
291
     1
 45
0.0
1001
ACAD
1000
AcDbSavedByObjectVersion
1070
     0
  0
VISUALSTYLE
  5
2E
102
{ACAD_REACTORS
330
2A
102
}
102
{ACAD_XDICTIONARY
360
E4
102
}
330
2A
100
AcDbVisualStyle
  2
GouraudWithEdges
 70
     3
 71
     2
 72
     2
 73
     1
 90
        2
 40
-0.6
 41
30.0
 62
     5
 63
     7
 74
     1
 91
        4
 64
     7
 65
   257
 75
     1
175
     1
 42
1.0
 92
        0
 66
   257
 43
1.0
 76
     1
 77
     6
 78
     2
 67
     7
 79
     5
170
     0
171
     0
290
     0
174
     0
 93
       13
 44
0.0
173
     0
291
     1
 45
0.0
1001
ACAD
1000
AcDbSavedByObjectVersion
1070
     0
  0
VISUALSTYLE
  5
38
102
{ACAD_REACTORS
330
2A
102
}
102
{ACAD_XDICTIONARY
360
F8
102
}
330
2A
100
AcDbVisualStyle
  2
Linepattern
 70
    14
 71
     2
 72
     2
 73
     0
 90
        0
 40
-0.6
 41
-30.0
 62
     5
 63
     7
 74
     1
 91
        4
 64
     7
 65
   257
 75
     7
175
     7
 42
1.0
 92
        8
 66
     7
 43
1.0
 76
     1
 77
     6
 78
     2
 67
     7
 79
     5
170
     0
171
     0
290
     0
174
     0
 93
        1
 44
0.0
173
     0
291
     1
 45
0.0
1001
ACAD
1000
AcDbSavedByObjectVersion
1070
     0
  0
VISUALSTYLE
  5
33
102
{ACAD_REACTORS
330
2A
102
}
102
{ACAD_XDICTIONARY
360
EE
102
}
330
2A
100
AcDbVisualStyle
  2
Realistic
 70
     8
 71
     2
 72
     2
 73
     0
 90
        0
 40
-0.6
 41
-30.0
 62
     5
 63
     7
 74
     1
 91
        0
 64
     7
 65
   257
 75
     1
175
     1
 42
1.0
 92
        8
 66
     8
 43
1.0
 76
     1
 77
     6
 78
     2
 67
     7
 79
     5
170
     0
171
     0
290
     0
174
     0
 93
       13
 44
0.0
173
     0
291
     0
 45
0.0
1001
ACAD
1000
AcDbSavedByObjectVersion
1070
     0
  0
VISUALSTYLE
  5
37
102
{ACAD_REACTORS
330
2A
102
}
102
{ACAD_XDICTIONARY
360
F6
102
}
330
2A
100
AcDbVisualStyle
  2
Thicken
 70
    13
 71
     2
 72
     2
 73
     0
 90
        0
 40
-0.6
 41
-30.0
 62
     5
 63
     7
 74
     1
 91
        4
 64
     7
 65
   257
 75
     1
175
     1
 42
1.0
 92
       12
 66
     7
 43
1.0
 76
     1
 77
     6
 78
     2
 67
     7
 79
     5
170
     0
171
     0
290
     0
174
     0
 93
        1
 44
0.0
173
     0
291
     1
 45
0.0
1001
ACAD
1000
AcDbSavedByObjectVersion
1070
     0
  0
DICTIONARYVAR
  5
DC
102
{ACAD_REACTORS
330
D9
102
}
330
D9
100
DictionaryVariables
280
     0
  1
2
  0
DICTIONARYVAR
  5
DD
102
{ACAD_REACTORS
330
D9
102
}
330
D9
100
DictionaryVariables
280
     0
  1
1
  0
DICTIONARY
  5
100
330
3D
100
AcDbDictionary
280
     1
281
     1
  3
ACAD_XREC_ROUNDTRIP
360
101
  0
DICTIONARY
  5
FE
330
3C
100
AcDbDictionary
280
     1
281
     1
  3
ACAD_XREC_ROUNDTRIP
360
FF
  0
DICTIONARY
  5
102
330
3E
100
AcDbDictionary
280
     1
281
     1
  3
ACAD_XREC_ROUNDTRIP
360
103
  0
DICTIONARY
  5
E6
330
2F
100
AcDbDictionary
280
     1
281
     1
  3
ACAD_XREC_ROUNDTRIP
360
E7
  0
DICTIONARY
  5
EA
330
31
100
AcDbDictionary
280
     1
281
     1
  3
ACAD_XREC_ROUNDTRIP
360
EB
  0
DICTIONARY
  5
E8
330
30
100
AcDbDictionary
280
     1
281
     1
  3
ACAD_XREC_ROUNDTRIP
360
E9
  0
DICTIONARY
  5
EC
330
32
100
AcDbDictionary
280
     1
281
     1
  3
ACAD_XREC_ROUNDTRIP
360
ED
  0
DICTIONARY
  5
F4
330
36
100
AcDbDictionary
280
     1
281
     1
  3
ACAD_XREC_ROUNDTRIP
360
F5
  0
DICTIONARY
  5
FC
330
3A
100
AcDbDictionary
280
     1
281
     1
  3
ACAD_XREC_ROUNDTRIP
360
FD
  0
DICTIONARY
  5
F0
330
34
100
AcDbDictionary
280
     1
281
     1
  3
ACAD_XREC_ROUNDTRIP
360
F1
  0
DICTIONARY
  5
F2
330
35
100
AcDbDictionary
280
     1
281
     1
  3
ACAD_XREC_ROUNDTRIP
360
F3
  0
DICTIONARY
  5
FA
330
39
100
AcDbDictionary
280
     1
281
     1
  3
ACAD_XREC_ROUNDTRIP
360
FB
  0
DICTIONARY
  5
DE
330
2B
100
AcDbDictionary
280
     1
281
     1
  3
ACAD_XREC_ROUNDTRIP
360
DF
  0
DICTIONARY
  5
E0
330
2C
100
AcDbDictionary
280
     1
281
     1
  3
ACAD_XREC_ROUNDTRIP
360
E1
  0
DICTIONARY
  5
E2
330
2D
100
AcDbDictionary
280
     1
281
     1
  3
ACAD_XREC_ROUNDTRIP
360
E3
  0
DICTIONARY
  5
E4
330
2E
100
AcDbDictionary
280
     1
281
     1
  3
ACAD_XREC_ROUNDTRIP
360
E5
  0
DICTIONARY
  5
F8
330
38
100
AcDbDictionary
280
     1
281
     1
  3
ACAD_XREC_ROUNDTRIP
360
F9
  0
DICTIONARY
  5
EE
330
33
100
AcDbDictionary
280
     1
281
     1
  3
ACAD_XREC_ROUNDTRIP
360
EF
  0
DICTIONARY
  5
F6
330
37
100
AcDbDictionary
280
     1
281
     1
  3
ACAD_XREC_ROUNDTRIP
360
F7
  0
XRECORD
  5
101
102
{ACAD_REACTORS
330
100
102
}
330
100
100
AcDbXrecord
280
     1
102
MATERIAL
148
0.0
149
0.0
149
0.0
 93
        0
 94
      127
282
     0
 72
     1
 77
     1
171
     1
175
     1
179
     1
273
     0
  0
XRECORD
  5
FF
102
{ACAD_REACTORS
330
FE
102
}
330
FE
100
AcDbXrecord
280
     1
102
MATERIAL
148
0.0
149
0.0
149
0.0
 93
        0
 94
      127
282
     0
 72
     1
 77
     1
171
     1
175
     1
179
     1
273
     0
  0
XRECORD
  5
103
102
{ACAD_REACTORS
330
102
102
}
330
102
100
AcDbXrecord
280
     1
102
MATERIAL
148
0.0
149
0.0
149
0.0
 93
        0
 94
      127
282
     0
 72
     1
 77
     1
171
     1
175
     1
179
     1
273
     0
  0
XRECORD
  5
E7
102
{ACAD_REACTORS
330
E6
102
}
330
E6
100
AcDbXrecord
280
     1
102
RTVSPropertyOp0
 70
     1
102
RTVSPropertyOp1
 70
     1
102
RTVSPropertyOp2
 70
     1
102
RTVSPropertyOp3
 70
     1
102
RTVSPropertyOp4
 70
     1
102
RTVSPropertyOp5
 70
     1
102
RTVSPropertyOp6
 70
     1
102
RTVSPropertyOp7
 70
     1
102
RTVSPropertyOp8
 70
     1
102
RTVSPropertyOp9
 70
     1
102
RTVSPropertyOp10
 70
     1
102
RTVSPropertyOp11
 70
     1
102
RTVSPropertyOp12
 70
     1
102
RTVSPropertyOp13
 70
     1
102
RTVSPropertyOp14
 70
     1
102
RTVSPropertyOp15
 70
     1
102
RTVSPropertyOp16
 70
     1
102
RTVSPropertyOp17
 70
     1
102
RTVSPropertyOp18
 70
     1
102
RTVSPropertyOp19
 70
     1
102
RTVSPropertyOp20
 70
     1
102
RTVSPropertyOp21
 70
     1
102
RTVSPropertyOp22
 70
     1
102
RTVSPropertyOp23
 70
     1
102
RTVSPropertyOp24
 70
     1
102
RTVSPropertyOp25
 70
     1
102
RTVSPropertyOp26
 70
     1
102
RTVSPropertyOp27
 70
     1
  0
XRECORD
  5
EB
102
{ACAD_REACTORS
330
EA
102
}
330
EA
100
AcDbXrecord
280
     1
102
RTVSPropertyOp0
 70
     1
102
RTVSPropertyOp1
 70
     1
102
RTVSPropertyOp2
 70
     1
102
RTVSPropertyOp3
 70
     1
102
RTVSPropertyOp4
 70
     1
102
RTVSPropertyOp5
 70
     1
102
RTVSPropertyOp6
 70
     1
102
RTVSPropertyOp7
 70
     1
102
RTVSPropertyOp8
 70
     1
102
RTVSPropertyOp9
 70
     1
102
RTVSPropertyOp10
 70
     1
102
RTVSPropertyOp11
 70
     1
102
RTVSPropertyOp12
 70
     1
102
RTVSPropertyOp13
 70
     1
102
RTVSPropertyOp14
 70
     1
102
RTVSPropertyOp15
 70
     1
102
RTVSPropertyOp16
 70
     1
102
RTVSPropertyOp17
 70
     1
102
RTVSPropertyOp18
 70
     1
102
RTVSPropertyOp19
 70
     1
102
RTVSPropertyOp20
 70
     1
102
RTVSPropertyOp21
 70
     1
102
RTVSPropertyOp22
 70
     1
102
RTVSPropertyOp23
 70
     1
102
RTVSPropertyOp24
 70
     1
102
RTVSPropertyOp25
 70
     1
102
RTVSPropertyOp26
 70
     1
102
RTVSPropertyOp27
 70
     1
  0
XRECORD
  5
E9
102
{ACAD_REACTORS
330
E8
102
}
330
E8
100
AcDbXrecord
280
     1
102
RTVSPropertyOp0
 70
     1
102
RTVSPropertyOp1
 70
     1
102
RTVSPropertyOp2
 70
     1
102
RTVSPropertyOp3
 70
     1
102
RTVSPropertyOp4
 70
     1
102
RTVSPropertyOp5
 70
     1
102
RTVSPropertyOp6
 70
     1
102
RTVSPropertyOp7
 70
     1
102
RTVSPropertyOp8
 70
     1
102
RTVSPropertyOp9
 70
     1
102
RTVSPropertyOp10
 70
     1
102
RTVSPropertyOp11
 70
     1
102
RTVSPropertyOp12
 70
     1
102
RTVSPropertyOp13
 70
     1
102
RTVSPropertyOp14
 70
     1
102
RTVSPropertyOp15
 70
     1
102
RTVSPropertyOp16
 70
     1
102
RTVSPropertyOp17
 70
     1
102
RTVSPropertyOp18
 70
     1
102
RTVSPropertyOp19
 70
     1
102
RTVSPropertyOp20
 70
     1
102
RTVSPropertyOp21
 70
     1
102
RTVSPropertyOp22
 70
     1
102
RTVSPropertyOp23
 70
     1
102
RTVSPropertyOp24
 70
     1
102
RTVSPropertyOp25
 70
     1
102
RTVSPropertyOp26
 70
     1
102
RTVSPropertyOp27
 70
     1
  0
XRECORD
  5
ED
102
{ACAD_REACTORS
330
EC
102
}
330
EC
100
AcDbXrecord
280
     1
102
RTVSPropertyOp0
 70
     1
102
RTVSPropertyOp1
 70
     1
102
RTVSPropertyOp2
 70
     1
102
RTVSPropertyOp3
 70
     1
102
RTVSPropertyOp4
 70
     1
102
RTVSPropertyOp5
 70
     1
102
RTVSPropertyOp6
 70
     1
102
RTVSPropertyOp7
 70
     1
102
RTVSPropertyOp8
 70
     1
102
RTVSPropertyOp9
 70
     1
102
RTVSPropertyOp10
 70
     1
102
RTVSPropertyOp11
 70
     1
102
RTVSPropertyOp12
 70
     1
102
RTVSPropertyOp13
 70
     1
102
RTVSPropertyOp14
 70
     1
102
RTVSPropertyOp15
 70
     1
102
RTVSPropertyOp16
 70
     1
102
RTVSPropertyOp17
 70
     1
102
RTVSPropertyOp18
 70
     1
102
RTVSPropertyOp19
 70
     1
102
RTVSPropertyOp20
 70
     1
102
RTVSPropertyOp21
 70
     1
102
RTVSPropertyOp22
 70
     1
102
RTVSPropertyOp23
 70
     1
102
RTVSPropertyOp24
 70
     1
102
RTVSPropertyOp25
 70
     1
102
RTVSPropertyOp26
 70
     1
102
RTVSPropertyOp27
 70
     1
  0
XRECORD
  5
F5
102
{ACAD_REACTORS
330
F4
102
}
330
F4
100
AcDbXrecord
280
     1
102
RTVSPropertyOp0
 70
     1
102
RTVSPropertyOp1
 70
     1
102
RTVSPropertyOp2
 70
     1
102
RTVSPropertyOp3
 70
     1
102
RTVSPropertyOp4
 70
     1
102
RTVSPropertyOp5
 70
     1
102
RTVSPropertyOp6
 70
     1
102
RTVSPropertyOp7
 70
     1
102
RTVSPropertyOp8
 70
     1
102
RTVSPropertyOp9
 70
     1
102
RTVSPropertyOp10
 70
     1
102
RTVSPropertyOp11
 70
     1
102
RTVSPropertyOp12
 70
     1
102
RTVSPropertyOp13
 70
     1
102
RTVSPropertyOp14
 70
     1
102
RTVSPropertyOp15
 70
     1
102
RTVSPropertyOp16
 70
     1
102
RTVSPropertyOp17
 70
     1
102
RTVSPropertyOp18
 70
     1
102
RTVSPropertyOp19
 70
     1
102
RTVSPropertyOp20
 70
     1
102
RTVSPropertyOp21
 70
     1
102
RTVSPropertyOp22
 70
     1
102
RTVSPropertyOp23
 70
     1
102
RTVSPropertyOp24
 70
     1
102
RTVSPropertyOp25
 70
     1
102
RTVSPropertyOp26
 70
     1
102
RTVSPropertyOp27
 70
     1
  0
XRECORD
  5
FD
102
{ACAD_REACTORS
330
FC
102
}
330
FC
100
AcDbXrecord
280
     1
102
RTVSPropertyOp0
 70
     1
102
RTVSPropertyOp1
 70
     1
102
RTVSPropertyOp2
 70
     1
102
RTVSPropertyOp3
 70
     1
102
RTVSPropertyOp4
 70
     1
102
RTVSPropertyOp5
 70
     1
102
RTVSPropertyOp6
 70
     1
102
RTVSPropertyOp7
 70
     1
102
RTVSPropertyOp8
 70
     1
102
RTVSPropertyOp9
 70
     1
102
RTVSPropertyOp10
 70
     1
102
RTVSPropertyOp11
 70
     1
102
RTVSPropertyOp12
 70
     1
102
RTVSPropertyOp13
 70
     1
102
RTVSPropertyOp14
 70
     1
102
RTVSPropertyOp15
 70
     1
102
RTVSPropertyOp16
 70
     1
102
RTVSPropertyOp17
 70
     1
102
RTVSPropertyOp18
 70
     1
102
RTVSPropertyOp19
 70
     1
102
RTVSPropertyOp20
 70
     1
102
RTVSPropertyOp21
 70
     1
102
RTVSPropertyOp22
 70
     1
102
RTVSPropertyOp23
 70
     1
102
RTVSPropertyOp24
 70
     1
102
RTVSPropertyOp25
 70
     1
102
RTVSPropertyOp26
 70
     1
102
RTVSPropertyOp27
 70
     1
  0
XRECORD
  5
F1
102
{ACAD_REACTORS
330
F0
102
}
330
F0
100
AcDbXrecord
280
     1
102
RTVSPropertyOp0
 70
     1
102
RTVSPropertyOp1
 70
     1
102
RTVSPropertyOp2
 70
     1
102
RTVSPropertyOp3
 70
     1
102
RTVSPropertyOp4
 70
     1
102
RTVSPropertyOp5
 70
     1
102
RTVSPropertyOp6
 70
     1
102
RTVSPropertyOp7
 70
     1
102
RTVSPropertyOp8
 70
     1
102
RTVSPropertyOp9
 70
     1
102
RTVSPropertyOp10
 70
     1
102
RTVSPropertyOp11
 70
     1
102
RTVSPropertyOp12
 70
     1
102
RTVSPropertyOp13
 70
     1
102
RTVSPropertyOp14
 70
     1
102
RTVSPropertyOp15
 70
     1
102
RTVSPropertyOp16
 70
     1
102
RTVSPropertyOp17
 70
     1
102
RTVSPropertyOp18
 70
     1
102
RTVSPropertyOp19
 70
     1
102
RTVSPropertyOp20
 70
     1
102
RTVSPropertyOp21
 70
     1
102
RTVSPropertyOp22
 70
     1
102
RTVSPropertyOp23
 70
     1
102
RTVSPropertyOp24
 70
     1
102
RTVSPropertyOp25
 70
     1
102
RTVSPropertyOp26
 70
     1
102
RTVSPropertyOp27
 70
     1
  0
XRECORD
  5
F3
102
{ACAD_REACTORS
330
F2
102
}
330
F2
100
AcDbXrecord
280
     1
102
RTVSPropertyOp0
 70
     1
102
RTVSPropertyOp1
 70
     1
102
RTVSPropertyOp2
 70
     1
102
RTVSPropertyOp3
 70
     1
102
RTVSPropertyOp4
 70
     1
102
RTVSPropertyOp5
 70
     1
102
RTVSPropertyOp6
 70
     1
102
RTVSPropertyOp7
 70
     1
102
RTVSPropertyOp8
 70
     1
102
RTVSPropertyOp9
 70
     1
102
RTVSPropertyOp10
 70
     1
102
RTVSPropertyOp11
 70
     1
102
RTVSPropertyOp12
 70
     1
102
RTVSPropertyOp13
 70
     1
102
RTVSPropertyOp14
 70
     1
102
RTVSPropertyOp15
 70
     1
102
RTVSPropertyOp16
 70
     1
102
RTVSPropertyOp17
 70
     1
102
RTVSPropertyOp18
 70
     1
102
RTVSPropertyOp19
 70
     1
102
RTVSPropertyOp20
 70
     1
102
RTVSPropertyOp21
 70
     1
102
RTVSPropertyOp22
 70
     1
102
RTVSPropertyOp23
 70
     1
102
RTVSPropertyOp24
 70
     1
102
RTVSPropertyOp25
 70
     1
102
RTVSPropertyOp26
 70
     1
102
RTVSPropertyOp27
 70
     1
  0
XRECORD
  5
FB
102
{ACAD_REACTORS
330
FA
102
}
330
FA
100
AcDbXrecord
280
     1
102
RTVSPropertyOp0
 70
     1
102
RTVSPropertyOp1
 70
     1
102
RTVSPropertyOp2
 70
     1
102
RTVSPropertyOp3
 70
     1
102
RTVSPropertyOp4
 70
     1
102
RTVSPropertyOp5
 70
     1
102
RTVSPropertyOp6
 70
     1
102
RTVSPropertyOp7
 70
     1
102
RTVSPropertyOp8
 70
     1
102
RTVSPropertyOp9
 70
     1
102
RTVSPropertyOp10
 70
     1
102
RTVSPropertyOp11
 70
     1
102
RTVSPropertyOp12
 70
     1
102
RTVSPropertyOp13
 70
     1
102
RTVSPropertyOp14
 70
     1
102
RTVSPropertyOp15
 70
     1
102
RTVSPropertyOp16
 70
     1
102
RTVSPropertyOp17
 70
     1
102
RTVSPropertyOp18
 70
     1
102
RTVSPropertyOp19
 70
     1
102
RTVSPropertyOp20
 70
     1
102
RTVSPropertyOp21
 70
     1
102
RTVSPropertyOp22
 70
     1
102
RTVSPropertyOp23
 70
     1
102
RTVSPropertyOp24
 70
     1
102
RTVSPropertyOp25
 70
     1
102
RTVSPropertyOp26
 70
     1
102
RTVSPropertyOp27
 70
     1
  0
XRECORD
  5
DF
102
{ACAD_REACTORS
330
DE
102
}
330
DE
100
AcDbXrecord
280
     1
102
RTVSPropertyOp0
 70
     1
102
RTVSPropertyOp1
 70
     1
102
RTVSPropertyOp2
 70
     1
102
RTVSPropertyOp3
 70
     1
102
RTVSPropertyOp4
 70
     1
102
RTVSPropertyOp5
 70
     1
102
RTVSPropertyOp6
 70
     1
102
RTVSPropertyOp7
 70
     1
102
RTVSPropertyOp8
 70
     1
102
RTVSPropertyOp9
 70
     1
102
RTVSPropertyOp10
 70
     1
102
RTVSPropertyOp11
 70
     1
102
RTVSPropertyOp12
 70
     1
102
RTVSPropertyOp13
 70
     1
102
RTVSPropertyOp14
 70
     1
102
RTVSPropertyOp15
 70
     1
102
RTVSPropertyOp16
 70
     1
102
RTVSPropertyOp17
 70
     1
102
RTVSPropertyOp18
 70
     1
102
RTVSPropertyOp19
 70
     1
102
RTVSPropertyOp20
 70
     1
102
RTVSPropertyOp21
 70
     1
102
RTVSPropertyOp22
 70
     1
102
RTVSPropertyOp23
 70
     1
102
RTVSPropertyOp24
 70
     1
102
RTVSPropertyOp25
 70
     1
102
RTVSPropertyOp26
 70
     1
102
RTVSPropertyOp27
 70
     1
  0
XRECORD
  5
E1
102
{ACAD_REACTORS
330
E0
102
}
330
E0
100
AcDbXrecord
280
     1
102
RTVSPropertyOp0
 70
     1
102
RTVSPropertyOp1
 70
     1
102
RTVSPropertyOp2
 70
     1
102
RTVSPropertyOp3
 70
     1
102
RTVSPropertyOp4
 70
     1
102
RTVSPropertyOp5
 70
     1
102
RTVSPropertyOp6
 70
     1
102
RTVSPropertyOp7
 70
     1
102
RTVSPropertyOp8
 70
     1
102
RTVSPropertyOp9
 70
     1
102
RTVSPropertyOp10
 70
     1
102
RTVSPropertyOp11
 70
     1
102
RTVSPropertyOp12
 70
     1
102
RTVSPropertyOp13
 70
     1
102
RTVSPropertyOp14
 70
     1
102
RTVSPropertyOp15
 70
     1
102
RTVSPropertyOp16
 70
     1
102
RTVSPropertyOp17
 70
     1
102
RTVSPropertyOp18
 70
     1
102
RTVSPropertyOp19
 70
     1
102
RTVSPropertyOp20
 70
     1
102
RTVSPropertyOp21
 70
     1
102
RTVSPropertyOp22
 70
     1
102
RTVSPropertyOp23
 70
     1
102
RTVSPropertyOp24
 70
     1
102
RTVSPropertyOp25
 70
     1
102
RTVSPropertyOp26
 70
     1
102
RTVSPropertyOp27
 70
     1
  0
XRECORD
  5
E3
102
{ACAD_REACTORS
330
E2
102
}
330
E2
100
AcDbXrecord
280
     1
102
RTVSPropertyOp0
 70
     1
102
RTVSPropertyOp1
 70
     1
102
RTVSPropertyOp2
 70
     1
102
RTVSPropertyOp3
 70
     1
102
RTVSPropertyOp4
 70
     1
102
RTVSPropertyOp5
 70
     1
102
RTVSPropertyOp6
 70
     1
102
RTVSPropertyOp7
 70
     1
102
RTVSPropertyOp8
 70
     1
102
RTVSPropertyOp9
 70
     1
102
RTVSPropertyOp10
 70
     1
102
RTVSPropertyOp11
 70
     1
102
RTVSPropertyOp12
 70
     1
102
RTVSPropertyOp13
 70
     1
102
RTVSPropertyOp14
 70
     1
102
RTVSPropertyOp15
 70
     1
102
RTVSPropertyOp16
 70
     1
102
RTVSPropertyOp17
 70
     1
102
RTVSPropertyOp18
 70
     1
102
RTVSPropertyOp19
 70
     1
102
RTVSPropertyOp20
 70
     1
102
RTVSPropertyOp21
 70
     1
102
RTVSPropertyOp22
 70
     1
102
RTVSPropertyOp23
 70
     1
102
RTVSPropertyOp24
 70
     1
102
RTVSPropertyOp25
 70
     1
102
RTVSPropertyOp26
 70
     1
102
RTVSPropertyOp27
 70
     1
  0
XRECORD
  5
E5
102
{ACAD_REACTORS
330
E4
102
}
330
E4
100
AcDbXrecord
280
     1
102
RTVSPropertyOp0
 70
     1
102
RTVSPropertyOp1
 70
     1
102
RTVSPropertyOp2
 70
     1
102
RTVSPropertyOp3
 70
     1
102
RTVSPropertyOp4
 70
     1
102
RTVSPropertyOp5
 70
     1
102
RTVSPropertyOp6
 70
     1
102
RTVSPropertyOp7
 70
     1
102
RTVSPropertyOp8
 70
     1
102
RTVSPropertyOp9
 70
     1
102
RTVSPropertyOp10
 70
     1
102
RTVSPropertyOp11
 70
     1
102
RTVSPropertyOp12
 70
     1
102
RTVSPropertyOp13
 70
     1
102
RTVSPropertyOp14
 70
     1
102
RTVSPropertyOp15
 70
     1
102
RTVSPropertyOp16
 70
     1
102
RTVSPropertyOp17
 70
     1
102
RTVSPropertyOp18
 70
     1
102
RTVSPropertyOp19
 70
     1
102
RTVSPropertyOp20
 70
     1
102
RTVSPropertyOp21
 70
     1
102
RTVSPropertyOp22
 70
     1
102
RTVSPropertyOp23
 70
     1
102
RTVSPropertyOp24
 70
     1
102
RTVSPropertyOp25
 70
     1
102
RTVSPropertyOp26
 70
     1
102
RTVSPropertyOp27
 70
     1
  0
XRECORD
  5
F9
102
{ACAD_REACTORS
330
F8
102
}
330
F8
100
AcDbXrecord
280
     1
102
RTVSPropertyOp0
 70
     1
102
RTVSPropertyOp1
 70
     1
102
RTVSPropertyOp2
 70
     1
102
RTVSPropertyOp3
 70
     1
102
RTVSPropertyOp4
 70
     1
102
RTVSPropertyOp5
 70
     1
102
RTVSPropertyOp6
 70
     1
102
RTVSPropertyOp7
 70
     1
102
RTVSPropertyOp8
 70
     1
102
RTVSPropertyOp9
 70
     1
102
RTVSPropertyOp10
 70
     1
102
RTVSPropertyOp11
 70
     1
102
RTVSPropertyOp12
 70
     1
102
RTVSPropertyOp13
 70
     1
102
RTVSPropertyOp14
 70
     1
102
RTVSPropertyOp15
 70
     1
102
RTVSPropertyOp16
 70
     1
102
RTVSPropertyOp17
 70
     1
102
RTVSPropertyOp18
 70
     1
102
RTVSPropertyOp19
 70
     1
102
RTVSPropertyOp20
 70
     1
102
RTVSPropertyOp21
 70
     1
102
RTVSPropertyOp22
 70
     1
102
RTVSPropertyOp23
 70
     1
102
RTVSPropertyOp24
 70
     1
102
RTVSPropertyOp25
 70
     1
102
RTVSPropertyOp26
 70
     1
102
RTVSPropertyOp27
 70
     1
  0
XRECORD
  5
EF
102
{ACAD_REACTORS
330
EE
102
}
330
EE
100
AcDbXrecord
280
     1
102
RTVSPropertyOp0
 70
     1
102
RTVSPropertyOp1
 70
     1
102
RTVSPropertyOp2
 70
     1
102
RTVSPropertyOp3
 70
     1
102
RTVSPropertyOp4
 70
     1
102
RTVSPropertyOp5
 70
     1
102
RTVSPropertyOp6
 70
     1
102
RTVSPropertyOp7
 70
     1
102
RTVSPropertyOp8
 70
     1
102
RTVSPropertyOp9
 70
     1
102
RTVSPropertyOp10
 70
     1
102
RTVSPropertyOp11
 70
     1
102
RTVSPropertyOp12
 70
     1
102
RTVSPropertyOp13
 70
     1
102
RTVSPropertyOp14
 70
     1
102
RTVSPropertyOp15
 70
     1
102
RTVSPropertyOp16
 70
     1
102
RTVSPropertyOp17
 70
     1
102
RTVSPropertyOp18
 70
     1
102
RTVSPropertyOp19
 70
     1
102
RTVSPropertyOp20
 70
     1
102
RTVSPropertyOp21
 70
     1
102
RTVSPropertyOp22
 70
     1
102
RTVSPropertyOp23
 70
     1
102
RTVSPropertyOp24
 70
     1
102
RTVSPropertyOp25
 70
     1
102
RTVSPropertyOp26
 70
     1
102
RTVSPropertyOp27
 70
     1
  0
XRECORD
  5
F7
102
{ACAD_REACTORS
330
F6
102
}
330
F6
100
AcDbXrecord
280
     1
102
RTVSPropertyOp0
 70
     1
102
RTVSPropertyOp1
 70
     1
102
RTVSPropertyOp2
 70
     1
102
RTVSPropertyOp3
 70
     1
102
RTVSPropertyOp4
 70
     1
102
RTVSPropertyOp5
 70
     1
102
RTVSPropertyOp6
 70
     1
102
RTVSPropertyOp7
 70
     1
102
RTVSPropertyOp8
 70
     1
102
RTVSPropertyOp9
 70
     1
102
RTVSPropertyOp10
 70
     1
102
RTVSPropertyOp11
 70
     1
102
RTVSPropertyOp12
 70
     1
102
RTVSPropertyOp13
 70
     1
102
RTVSPropertyOp14
 70
     1
102
RTVSPropertyOp15
 70
     1
102
RTVSPropertyOp16
 70
     1
102
RTVSPropertyOp17
 70
     1
102
RTVSPropertyOp18
 70
     1
102
RTVSPropertyOp19
 70
     1
102
RTVSPropertyOp20
 70
     1
102
RTVSPropertyOp21
 70
     1
102
RTVSPropertyOp22
 70
     1
102
RTVSPropertyOp23
 70
     1
102
RTVSPropertyOp24
 70
     1
102
RTVSPropertyOp25
 70
     1
102
RTVSPropertyOp26
 70
     1
102
RTVSPropertyOp27
 70
     1
  0
ENDSEC
  0
EOF
