  0
SECTION
  2
HEADER
  9
$ACADVER
  1
AC1015
  9
$ACADMAINTVER
 70
     6
  9
$DWGCODEPAGE
  3
ANSI_1250
  9
$INSBASE
 10
0.0
 20
0.0
 30
0.0
  9
$EXTMIN
 10
-57.4451
 20
-36.6356
 30
0.0
  9
$EXTMAX
 10
57.1622
 20
36.6855
 30
0.0
  9
$LIMMIN
 10
0.0
 20
0.0
  9
$LIMMAX
 10
12.0
 20
9.0
  9
$ORTHOMODE
 70
     0
  9
$REGENMODE
 70
     1
  9
$FILLMODE
 70
     1
  9
$QTEXTMODE
 70
     0
  9
$MIRRTEXT
 70
     1
  9
$LTSCALE
 40
1.0
  9
$ATTMODE
 70
     1
  9
$TEXTSIZE
 40
0.2
  9
$TRACEWID
 40
0.05
  9
$TEXTSTYLE
  7
Standard
  9
$CLAYER
  8
0
  9
$CELTYPE
  6
ByLayer
  9
$CECOLOR
 62
   256
  9
$CELTSCALE
 40
1.0
  9
$DISPSILH
 70
     0
  9
$DIMSCALE
 40
1.0
  9
$DIMASZ
 40
0.18
  9
$DIMEXO
 40
0.0625
  9
$DIMDLI
 40
0.38
  9
$DIMRND
 40
0.0
  9
$DIMDLE
 40
0.0
  9
$DIMEXE
 40
0.18
  9
$DIMTP
 40
0.0
  9
$DIMTM
 40
0.0
  9
$DIMTXT
 40
0.18
  9
$DIMCEN
 40
0.09
  9
$DIMTSZ
 40
0.0
  9
$DIMTOL
 70
     0
  9
$DIMLIM
 70
     0
  9
$DIMTIH
 70
     1
  9
$DIMTOH
 70
     1
  9
$DIMSE1
 70
     0
  9
$DIMSE2
 70
     0
  9
$DIMTAD
 70
     0
  9
$DIMZIN
 70
     0
  9
$DIMBLK
  1

  9
$DIMASO
 70
     1
  9
$DIMSHO
 70
     1
  9
$DIMPOST
  1

  9
$DIMAPOST
  1

  9
$DIMALT
 70
     0
  9
$DIMALTD
 70
     2
  9
$DIMALTF
 40
25.4
  9
$DIMLFAC
 40
1.0
  9
$DIMTOFL
 70
     0
  9
$DIMTVP
 40
0.0
  9
$DIMTIX
 70
     0
  9
$DIMSOXD
 70
     0
  9
$DIMSAH
 70
     0
  9
$DIMBLK1
  1

  9
$DIMBLK2
  1

  9
$DIMSTYLE
  2
Standard
  9
$DIMCLRD
 70
     0
  9
$DIMCLRE
 70
     0
  9
$DIMCLRT
 70
     0
  9
$DIMTFAC
 40
1.0
  9
$DIMGAP
 40
0.09
  9
$DIMJUST
 70
     0
  9
$DIMSD1
 70
     0
  9
$DIMSD2
 70
     0
  9
$DIMTOLJ
 70
     1
  9
$DIMTZIN
 70
     0
  9
$DIMALTZ
 70
     0
  9
$DIMALTTZ
 70
     0
  9
$DIMUPT
 70
     0
  9
$DIMDEC
 70
     4
  9
$DIMTDEC
 70
     4
  9
$DIMALTU
 70
     2
  9
$DIMALTTD
 70
     2
  9
$DIMTXSTY
  7
Standard
  9
$DIMAUNIT
 70
     0
  9
$DIMADEC
 70
     0
  9
$DIMALTRND
 40
0.0
  9
$DIMAZIN
 70
     0
  9
$DIMDSEP
 70
    46
  9
$DIMATFIT
 70
     3
  9
$DIMFRAC
 70
     0
  9
$DIMLDRBLK
  1

  9
$DIMLUNIT
 70
     2
  9
$DIMLWD
 70
    -2
  9
$DIMLWE
 70
    -2
  9
$DIMTMOVE
 70
     0
  9
$LUNITS
 70
     2
  9
$LUPREC
 70
     4
  9
$SKETCHINC
 40
0.1
  9
$FILLETRAD
 40
0.5
  9
$AUNITS
 70
     0
  9
$AUPREC
 70
     0
  9
$MENU
  1
.
  9
$ELEVATION
 40
0.0
  9
$PELEVATION
 40
0.0
  9
$THICKNESS
 40
0.0
  9
$LIMCHECK
 70
     0
  9
$CHAMFERA
 40
0.5
  9
$CHAMFERB
 40
0.5
  9
$CHAMFERC
 40
1.0
  9
$CHAMFERD
 40
0.0
  9
$SKPOLY
 70
     0
  9
$TDCREATE
 40
2457653.407480648
  9
$TDUCREATE
 40
2457653.324147315
  9
$TDUPDATE
 40
2457653.40748066
  9
$TDUUPDATE
 40
2457653.324147326
  9
$TDINDWG
 40
0.0000000116
  9
$TDUSRTIMER
 40
0.0000000116
  9
$USRTIMER
 70
     1
  9
$ANGBASE
 50
0.0
  9
$ANGDIR
 70
     0
  9
$PDMODE
 70
     0
  9
$PDSIZE
 40
0.0
  9
$PLINEWID
 40
0.0
  9
$SPLFRAME
 70
     0
  9
$SPLINETYPE
 70
     6
  9
$SPLINESEGS
 70
     8
  9
$HANDSEED
  5
B0
  9
$SURFTAB1
 70
     6
  9
$SURFTAB2
 70
     6
  9
$SURFTYPE
 70
     6
  9
$SURFU
 70
     6
  9
$SURFV
 70
     6
  9
$UCSBASE
  2

  9
$UCSNAME
  2

  9
$UCSORG
 10
0.0
 20
0.0
 30
0.0
  9
$UCSXDIR
 10
1.0
 20
0.0
 30
0.0
  9
$UCSYDIR
 10
0.0
 20
1.0
 30
0.0
  9
$UCSORTHOREF
  2

  9
$UCSORTHOVIEW
 70
     0
  9
$UCSORGTOP
 10
0.0
 20
0.0
 30
0.0
  9
$UCSORGBOTTOM
 10
0.0
 20
0.0
 30
0.0
  9
$UCSORGLEFT
 10
0.0
 20
0.0
 30
0.0
  9
$UCSORGRIGHT
 10
0.0
 20
0.0
 30
0.0
  9
$UCSORGFRONT
 10
0.0
 20
0.0
 30
0.0
  9
$UCSORGBACK
 10
0.0
 20
0.0
 30
0.0
  9
$PUCSBASE
  2

  9
$PUCSNAME
  2

  9
$PUCSORG
 10
0.0
 20
0.0
 30
0.0
  9
$PUCSXDIR
 10
1.0
 20
0.0
 30
0.0
  9
$PUCSYDIR
 10
0.0
 20
1.0
 30
0.0
  9
$PUCSORTHOREF
  2

  9
$PUCSORTHOVIEW
 70
     0
  9
$PUCSORGTOP
 10
0.0
 20
0.0
 30
0.0
  9
$PUCSORGBOTTOM
 10
0.0
 20
0.0
 30
0.0
  9
$PUCSORGLEFT
 10
0.0
 20
0.0
 30
0.0
  9
$PUCSORGRIGHT
 10
0.0
 20
0.0
 30
0.0
  9
$PUCSORGFRONT
 10
0.0
 20
0.0
 30
0.0
  9
$PUCSORGBACK
 10
0.0
 20
0.0
 30
0.0
  9
$USERI1
 70
     0
  9
$USERI2
 70
     0
  9
$USERI3
 70
     0
  9
$USERI4
 70
     0
  9
$USERI5
 70
     0
  9
$USERR1
 40
0.0
  9
$USERR2
 40
0.0
  9
$USERR3
 40
0.0
  9
$USERR4
 40
0.0
  9
$USERR5
 40
0.0
  9
$WORLDVIEW
 70
     1
  9
$SHADEDGE
 70
     3
  9
$SHADEDIF
 70
    70
  9
$TILEMODE
 70
     1
  9
$MAXACTVP
 70
    64
  9
$PINSBASE
 10
0.0
 20
0.0
 30
0.0
  9
$PLIMCHECK
 70
     0
  9
$PEXTMIN
 10
1.000000000000000E+20
 20
1.000000000000000E+20
 30
1.000000000000000E+20
  9
$PEXTMAX
 10
-1.000000000000000E+20
 20
-1.000000000000000E+20
 30
-1.000000000000000E+20
  9
$PLIMMIN
 10
0.0
 20
0.0
  9
$PLIMMAX
 10
12.0
 20
9.0
  9
$UNITMODE
 70
     0
  9
$VISRETAIN
 70
     1
  9
$PLINEGEN
 70
     0
  9
$PSLTSCALE
 70
     1
  9
$TREEDEPTH
 70
  3020
  9
$CMLSTYLE
  2
Standard
  9
$CMLJUST
 70
     0
  9
$CMLSCALE
 40
1.0
  9
$PROXYGRAPHICS
 70
     1
  9
$MEASUREMENT
 70
     0
  9
$CELWEIGHT
370
    -1
  9
$ENDCAPS
280
     0
  9
$JOINSTYLE
280
     0
  9
$LWDISPLAY
290
     0
  9
$INSUNITS
 70
     4
  9
$HYPERLINKBASE
  1

  9
$STYLESHEET
  1

  9
$XEDIT
290
     1
  9
$CEPSNTYPE
380
     0
  9
$PSTYLEMODE
290
     1
  9
$FINGERPRINTGUID
  2
{282150A7-5F5E-4C51-B0D9-3701446F1E5B}
  9
$VERSIONGUID
  2
{FAEB1C32-E019-11D5-929B-00C0DF256EC4}
  9
$EXTNAMES
290
     1
  9
$PSVPSCALE
 40
0.0
  9
$OLESTARTUP
290
     0
  0
ENDSEC
  0
SECTION
  2
CLASSES
  0
CLASS
  1
ACDBDICTIONARYWDFLT
  2
AcDbDictionaryWithDefault
  3
ObjectDBX Classes
 90
        0
280
     0
281
     0
  0
CLASS
  1
VISUALSTYLE
  2
AcDbVisualStyle
  3
ObjectDBX Classes
 90
     4095
280
     0
281
     0
  0
CLASS
  1
MATERIAL
  2
AcDbMaterial
  3
ObjectDBX Classes
 90
     1153
280
     0
281
     0
  0
CLASS
  1
DICTIONARYVAR
  2
AcDbDictionaryVar
  3
ObjectDBX Classes
 90
        0
280
     0
281
     0
  0
CLASS
  1
ACDBPLACEHOLDER
  2
AcDbPlaceHolder
  3
ObjectDBX Classes
 90
        0
280
     0
281
     0
  0
CLASS
  1
LAYOUT
  2
AcDbLayout
  3
ObjectDBX Classes
 90
        0
280
     0
281
     0
  0
ENDSEC
  0
SECTION
  2
TABLES
  0
TABLE
  2
VPORT
  5
8
330
0
100
AcDbSymbolTable
 70
     1
  0
VPORT
  5
29
330
8
100
AcDbSymbolTableRecord
100
AcDbViewportTableRecord
  2
*Active
 70
     0
 10
0.0
 20
0.0
 11
1.0
 21
1.0
 12
10.42990654205607
 22
4.5
 13
0.0
 23
0.0
 14
0.5
 24
0.5
 15
0.5
 25
0.5
 16
0.0
 26
0.0
 36
1.0
 17
0.0
 27
0.0
 37
0.0
 40
9.0
 41
1.972972972850329
 42
50.0
 43
0.0
 44
0.0
 50
0.0
 51
0.0
 71
     0
 72
   100
 73
     1
 74
     3
 75
     0
 76
     0
 77
     0
 78
     0
281
     0
 65
     1
110
0.0
120
0.0
130
0.0
111
1.0
121
0.0
131
0.0
112
0.0
122
1.0
132
0.0
 79
     0
146
0.0
  0
ENDTAB
  0
TABLE
  2
LTYPE
  5
5
330
0
100
AcDbSymbolTable
 70
     1
  0
LTYPE
  5
14
330
5
100
AcDbSymbolTableRecord
100
AcDbLinetypeTableRecord
  2
ByBlock
 70
     0
  3

 72
    65
 73
     0
 40
0.0
  0
LTYPE
  5
15
330
5
100
AcDbSymbolTableRecord
100
AcDbLinetypeTableRecord
  2
ByLayer
 70
     0
  3

 72
    65
 73
     0
 40
0.0
  0
LTYPE
  5
16
330
5
100
AcDbSymbolTableRecord
100
AcDbLinetypeTableRecord
  2
Continuous
 70
     0
  3
Solid line
 72
    65
 73
     0
 40
0.0
  0
ENDTAB
  0
TABLE
  2
LAYER
  5
2
330
0
100
AcDbSymbolTable
 70
     2
  0
LAYER
  5
10
330
2
100
AcDbSymbolTableRecord
100
AcDbLayerTableRecord
  2
0
 70
     0
 62
     7
  6
Continuous
370
    -3
390
F
  0
LAYER
  5
40
330
2
100
AcDbSymbolTableRecord
100
AcDbLayerTableRecord
  2
Ilustrace
 70
     0
 62
     7
  6
Continuous
370
    -3
390
F
  0
ENDTAB
  0
TABLE
  2
STYLE
  5
3
330
0
100
AcDbSymbolTable
 70
     1
  0
STYLE
  5
11
330
3
100
AcDbSymbolTableRecord
100
AcDbTextStyleTableRecord
  2
Standard
 70
     0
 40
0.0
 41
1.0
 50
0.0
 71
     0
 42
0.2
  3
txt
  4

  0
ENDTAB
  0
TABLE
  2
VIEW
  5
6
330
0
100
AcDbSymbolTable
 70
     0
  0
ENDTAB
  0
TABLE
  2
UCS
  5
7
330
0
100
AcDbSymbolTable
 70
     0
  0
ENDTAB
  0
TABLE
  2
APPID
  5
9
330
0
100
AcDbSymbolTable
 70
     2
  0
APPID
  5
12
330
9
100
AcDbSymbolTableRecord
100
AcDbRegAppTableRecord
  2
ACAD
 70
     0
  0
APPID
  5
3F
330
9
100
AcDbSymbolTableRecord
100
AcDbRegAppTableRecord
  2
ODA
 70
     0
  0
ENDTAB
  0
TABLE
  2
DIMSTYLE
  5
A
330
0
100
AcDbSymbolTable
 70
     1
100
AcDbDimStyleTable
  0
DIMSTYLE
105
27
330
A
100
AcDbSymbolTableRecord
100
AcDbDimStyleTableRecord
  2
Standard
 70
     0
340
11
  0
ENDTAB
  0
TABLE
  2
BLOCK_RECORD
  5
1
330
0
100
AcDbSymbolTable
 70
     1
  0
BLOCK_RECORD
  5
1F
330
1
100
AcDbSymbolTableRecord
100
AcDbBlockTableRecord
  2
*Model_Space
340
22
  0
BLOCK_RECORD
  5
1B
330
1
100
AcDbSymbolTableRecord
100
AcDbBlockTableRecord
  2
*Paper_Space
340
1E
  0
BLOCK_RECORD
  5
23
330
1
100
AcDbSymbolTableRecord
100
AcDbBlockTableRecord
  2
*Paper_Space0
340
26
  0
ENDTAB
  0
ENDSEC
  0
SECTION
  2
BLOCKS
  0
BLOCK
  5
20
330
1F
100
AcDbEntity
  8
0
100
AcDbBlockBegin
  2
*Model_Space
 70
     0
 10
0.0
 20
0.0
 30
0.0
  3
*Model_Space
  1

  0
ENDBLK
  5
21
330
1F
100
AcDbEntity
  8
0
100
AcDbBlockEnd
  0
BLOCK
  5
1C
330
1B
100
AcDbEntity
 67
     1
  8
0
100
AcDbBlockBegin
  2
*Paper_Space
 70
     0
 10
0.0
 20
0.0
 30
0.0
  3
*Paper_Space
  1

  0
ENDBLK
  5
1D
330
1B
100
AcDbEntity
 67
     1
  8
0
100
AcDbBlockEnd
  0
BLOCK
  5
24
330
23
100
AcDbEntity
  8
0
100
AcDbBlockBegin
  2
*Paper_Space0
 70
     0
 10
0.0
 20
0.0
 30
0.0
  3
*Paper_Space0
  1

  0
ENDBLK
  5
25
330
23
100
AcDbEntity
  8
0
100
AcDbBlockEnd
  0
ENDSEC
  0
SECTION
  2
ENTITIES
  0
SPLINE
  5
41
330
1F
100
AcDbEntity
  8
Ilustrace
 62
   250
370
    30
100
AcDbSpline
210
0.0
220
0.0
230
1.0
 70
    11
 71
     3
 72
    16
 73
    12
 74
     0
 42
0.0000000001
 43
0.0000000001
 40
0.0
 40
0.0
 40
0.0
 40
0.0
 40
0.25
 40
0.25
 40
0.25
 40
0.25
 40
0.5
 40
0.5
 40
0.5
 40
0.5
 40
1.0
 40
1.0
 40
1.0
 40
1.0
 10
-57.1041
 20
-20.0659
 30
0.0
 10
-57.1041
 20
-20.0659
 30
0.0
 10
51.6841
 20
-20.0877
 30
0.0
 10
51.6841
 20
-20.0877
 30
0.0
 10
51.6841
 20
-20.0877
 30
0.0
 10
51.6841
 20
-20.0877
 30
0.0
 10
-2.688
 20
34.2626
 30
0.0
 10
-2.688
 20
34.2626
 30
0.0
 10
-2.688
 20
34.2626
 30
0.0
 10
-2.688
 20
34.2626
 30
0.0
 10
-57.1041
 20
-20.0659
 30
0.0
 10
-57.1041
 20
-20.0659
 30
0.0
  0
SPLINE
  5
42
330
1F
100
AcDbEntity
  8
Ilustrace
 62
   250
370
    30
100
AcDbSpline
210
0.0
220
0.0
230
1.0
 70
    11
 71
     3
 72
    20
 73
    16
 74
     0
 42
0.0000000001
 43
0.0000000001
 40
0.0
 40
0.0
 40
0.0
 40
0.0
 40
0.2
 40
0.2
 40
0.2
 40
0.2
 40
0.4
 40
0.4
 40
0.4
 40
0.4
 40
0.6
 40
0.6
 40
0.6
 40
0.6
 40
1.0
 40
1.0
 40
1.0
 40
1.0
 10
-5.3434
 20
24.2531
 30
0.0
 10
-5.3434
 20
24.2531
 30
0.0
 10
-3.6327
 20
25.9617
 30
0.0
 10
-3.6327
 20
25.9617
 30
0.0
 10
-3.6327
 20
25.9617
 30
0.0
 10
-3.6327
 20
25.9617
 30
0.0
 10
-2.7349
 20
25.9617
 30
0.0
 10
-2.7349
 20
25.9617
 30
0.0
 10
-2.7349
 20
25.9617
 30
0.0
 10
-2.7349
 20
25.9617
 30
0.0
 10
-2.7349
 20
24.2531
 30
0.0
 10
-2.7349
 20
24.2531
 30
0.0
 10
-2.7349
 20
24.2531
 30
0.0
 10
-2.7349
 20
24.2531
 30
0.0
 10
-5.3434
 20
24.2531
 30
0.0
 10
-5.3434
 20
24.2531
 30
0.0
  0
SPLINE
  5
43
330
1F
100
AcDbEntity
  8
Ilustrace
 62
   250
370
    30
100
AcDbSpline
210
0.0
220
0.0
230
1.0
 70
    11
 71
     3
 72
    20
 73
    16
 74
     0
 42
0.0000000001
 43
0.0000000001
 40
0.0
 40
0.0
 40
0.0
 40
0.0
 40
0.2
 40
0.2
 40
0.2
 40
0.2
 40
0.4
 40
0.4
 40
0.4
 40
0.4
 40
0.6
 40
0.6
 40
0.6
 40
0.6
 40
1.0
 40
1.0
 40
1.0
 40
1.0
 10
-2.7349
 20
23.3565
 30
0.0
 10
-2.7349
 20
23.3565
 30
0.0
 10
-2.7349
 20
21.6475
 30
0.0
 10
-2.7349
 20
21.6475
 30
0.0
 10
-2.7349
 20
21.6475
 30
0.0
 10
-2.7349
 20
21.6475
 30
0.0
 10
2.4789
 20
21.6475
 30
0.0
 10
2.4789
 20
21.6475
 30
0.0
 10
2.4789
 20
21.6475
 30
0.0
 10
2.4789
 20
21.6475
 30
0.0
 10
0.7698
 20
23.3565
 30
0.0
 10
0.7698
 20
23.3565
 30
0.0
 10
0.7698
 20
23.3565
 30
0.0
 10
0.7698
 20
23.3565
 30
0.0
 10
-2.7349
 20
23.3565
 30
0.0
 10
-2.7349
 20
23.3565
 30
0.0
  0
SPLINE
  5
44
330
1F
100
AcDbEntity
  8
Ilustrace
 62
   250
370
    30
100
AcDbSpline
210
0.0
220
0.0
230
1.0
 70
    11
 71
     3
 72
    20
 73
    16
 74
     0
 42
0.0000000001
 43
0.0000000001
 40
0.0
 40
0.0
 40
0.0
 40
0.0
 40
0.2
 40
0.2
 40
0.2
 40
0.2
 40
0.4
 40
0.4
 40
0.4
 40
0.4
 40
0.6
 40
0.6
 40
0.6
 40
0.6
 40
1.0
 40
1.0
 40
1.0
 40
1.0
 10
-8.8497
 20
20.748
 30
0.0
 10
-8.8497
 20
20.748
 30
0.0
 10
-10.5584
 20
19.0393
 30
0.0
 10
-10.5584
 20
19.0393
 30
0.0
 10
-10.5584
 20
19.0393
 30
0.0
 10
-10.5584
 20
19.0393
 30
0.0
 10
-2.7349
 20
19.0393
 30
0.0
 10
-2.7349
 20
19.0393
 30
0.0
 10
-2.7349
 20
19.0393
 30
0.0
 10
-2.7349
 20
19.0393
 30
0.0
 10
-2.7349
 20
20.748
 30
0.0
 10
-2.7349
 20
20.748
 30
0.0
 10
-2.7349
 20
20.748
 30
0.0
 10
-2.7349
 20
20.748
 30
0.0
 10
-8.8497
 20
20.748
 30
0.0
 10
-8.8497
 20
20.748
 30
0.0
  0
SPLINE
  5
45
330
1F
100
AcDbEntity
  8
Ilustrace
 62
   250
370
    30
100
AcDbSpline
210
0.0
220
0.0
230
1.0
 70
    11
 71
     3
 72
    36
 73
    32
 74
     0
 42
0.0000000001
 43
0.0000000001
 40
0.0
 40
0.0
 40
0.0
 40
0.0
 40
0.1111111111111111
 40
0.1111111111111111
 40
0.1111111111111111
 40
0.1111111111111111
 40
0.2222222222222222
 40
0.2222222222222222
 40
0.2222222222222222
 40
0.2222222222222222
 40
0.3333333333333333
 40
0.3333333333333333
 40
0.3333333333333333
 40
0.3333333333333333
 40
0.4444444444444444
 40
0.4444444444444444
 40
0.4444444444444444
 40
0.4444444444444444
 40
0.5555555555555556
 40
0.5555555555555556
 40
0.5555555555555556
 40
0.5555555555555556
 40
0.6666666666666666
 40
0.6666666666666666
 40
0.6666666666666666
 40
0.6666666666666666
 40
0.7777777777777778
 40
0.7777777777777778
 40
0.7777777777777778
 40
0.7777777777777778
 40
1.0
 40
1.0
 40
1.0
 40
1.0
 10
-2.7349
 20
18.1399
 30
0.0
 10
-2.7349
 20
18.1399
 30
0.0
 10
-2.7349
 20
16.4308
 30
0.0
 10
-2.7349
 20
16.4308
 30
0.0
 10
-2.7349
 20
16.4308
 30
0.0
 10
-2.7349
 20
16.4308
 30
0.0
 10
7.6955
 20
16.4308
 30
0.0
 10
7.6955
 20
16.4308
 30
0.0
 10
7.6955
 20
16.4308
 30
0.0
 10
7.6955
 20
16.4308
 30
0.0
 10
7.2918
 20
16.835
 30
0.0
 10
7.2918
 20
16.835
 30
0.0
 10
7.2918
 20
16.835
 30
0.0
 10
7.2918
 20
16.835
 30
0.0
 10
6.3906
 20
17.7386
 30
0.0
 10
6.3906
 20
17.7386
 30
0.0
 10
6.3906
 20
17.7386
 30
0.0
 10
6.3906
 20
17.7386
 30
0.0
 10
5.9869
 20
18.1399
 30
0.0
 10
5.9869
 20
18.1399
 30
0.0
 10
5.9869
 20
18.1399
 30
0.0
 10
5.9869
 20
18.1399
 30
0.0
 10
5.4176
 20
18.1399
 30
0.0
 10
5.4176
 20
18.1399
 30
0.0
 10
5.4176
 20
18.1399
 30
0.0
 10
5.4176
 20
18.1399
 30
0.0
 10
-2.1643
 20
18.1399
 30
0.0
 10
-2.1643
 20
18.1399
 30
0.0
 10
-2.1643
 20
18.1399
 30
0.0
 10
-2.1643
 20
18.1399
 30
0.0
 10
-2.7349
 20
18.1399
 30
0.0
 10
-2.7349
 20
18.1399
 30
0.0
  0
SPLINE
  5
46
330
1F
100
AcDbEntity
  8
Ilustrace
 62
   250
370
    30
100
AcDbSpline
210
0.0
220
0.0
230
1.0
 70
    11
 71
     3
 72
    20
 73
    16
 74
     0
 42
0.0000000001
 43
0.0000000001
 40
0.0
 40
0.0
 40
0.0
 40
0.0
 40
0.2
 40
0.2
 40
0.2
 40
0.2
 40
0.4
 40
0.4
 40
0.4
 40
0.4
 40
0.6
 40
0.6
 40
0.6
 40
0.6
 40
1.0
 40
1.0
 40
1.0
 40
1.0
 10
-14.0635
 20
15.5313
 30
0.0
 10
-14.0635
 20
15.5313
 30
0.0
 10
-15.7725
 20
13.8223
 30
0.0
 10
-15.7725
 20
13.8223
 30
0.0
 10
-15.7725
 20
13.8223
 30
0.0
 10
-15.7725
 20
13.8223
 30
0.0
 10
-2.7349
 20
13.8223
 30
0.0
 10
-2.7349
 20
13.8223
 30
0.0
 10
-2.7349
 20
13.8223
 30
0.0
 10
-2.7349
 20
13.8223
 30
0.0
 10
-2.7349
 20
15.5313
 30
0.0
 10
-2.7349
 20
15.5313
 30
0.0
 10
-2.7349
 20
15.5313
 30
0.0
 10
-6.5095
 20
15.5313
 30
0.0
 10
-10.2859
 20
15.5313
 30
0.0
 10
-14.0635
 20
15.5313
 30
0.0
  0
SPLINE
  5
47
330
1F
100
AcDbEntity
  8
Ilustrace
 62
   250
370
    30
100
AcDbSpline
210
0.0
220
0.0
230
1.0
 70
    11
 71
     3
 72
    20
 73
    16
 74
     0
 42
0.0000000001
 43
0.0000000001
 40
0.0
 40
0.0
 40
0.0
 40
0.0
 40
0.2
 40
0.2
 40
0.2
 40
0.2
 40
0.4
 40
0.4
 40
0.4
 40
0.4
 40
0.6
 40
0.6
 40
0.6
 40
0.6
 40
1.0
 40
1.0
 40
1.0
 40
1.0
 10
11.2023
 20
12.9257
 30
0.0
 10
11.2023
 20
12.9257
 30
0.0
 10
-2.7349
 20
12.9257
 30
0.0
 10
-2.7349
 20
12.9257
 30
0.0
 10
-2.7349
 20
12.9257
 30
0.0
 10
-2.7349
 20
12.9257
 30
0.0
 10
-2.7349
 20
11.2171
 30
0.0
 10
-2.7349
 20
11.2171
 30
0.0
 10
-2.7349
 20
11.2171
 30
0.0
 10
-2.7349
 20
11.2171
 30
0.0
 10
12.9126
 20
11.2171
 30
0.0
 10
12.9126
 20
11.2171
 30
0.0
 10
12.9126
 20
11.2171
 30
0.0
 10
12.9126
 20
11.2171
 30
0.0
 10
11.2023
 20
12.9257
 30
0.0
 10
11.2023
 20
12.9257
 30
0.0
  0
SPLINE
  5
48
330
1F
100
AcDbEntity
  8
Ilustrace
 62
   250
370
    30
100
AcDbSpline
210
0.0
220
0.0
230
1.0
 70
    11
 71
     3
 72
    28
 73
    24
 74
     0
 42
0.0000000001
 43
0.0000000001
 40
0.0
 40
0.0
 40
0.0
 40
0.0
 40
0.1428571428571428
 40
0.1428571428571428
 40
0.1428571428571428
 40
0.1428571428571428
 40
0.2857142857142857
 40
0.2857142857142857
 40
0.2857142857142857
 40
0.2857142857142857
 40
0.4285714285714285
 40
0.4285714285714285
 40
0.4285714285714285
 40
0.4285714285714285
 40
0.5714285714285714
 40
0.5714285714285714
 40
0.5714285714285714
 40
0.5714285714285714
 40
0.7142857142857143
 40
0.7142857142857143
 40
0.7142857142857143
 40
0.7142857142857143
 40
1.0
 40
1.0
 40
1.0
 40
1.0
 10
-20.9892
 20
8.6085
 30
0.0
 10
-20.9892
 20
8.6085
 30
0.0
 10
-19.2801
 20
10.3159
 30
0.0
 10
-19.2801
 20
10.3159
 30
0.0
 10
-19.2801
 20
10.3159
 30
0.0
 10
-19.2801
 20
10.3159
 30
0.0
 10
-18.7096
 20
10.3159
 30
0.0
 10
-18.7096
 20
10.3159
 30
0.0
 10
-18.7096
 20
10.3159
 30
0.0
 10
-18.7096
 20
10.3159
 30
0.0
 10
-3.3054
 20
10.3159
 30
0.0
 10
-3.3054
 20
10.3159
 30
0.0
 10
-3.3054
 20
10.3159
 30
0.0
 10
-3.3054
 20
10.3159
 30
0.0
 10
-2.7349
 20
10.3159
 30
0.0
 10
-2.7349
 20
10.3159
 30
0.0
 10
-2.7349
 20
10.3159
 30
0.0
 10
-2.7349
 20
10.3159
 30
0.0
 10
-2.7349
 20
8.6085
 30
0.0
 10
-2.7349
 20
8.6085
 30
0.0
 10
-2.7349
 20
8.6085
 30
0.0
 10
-2.7349
 20
8.6085
 30
0.0
 10
-20.9892
 20
8.6085
 30
0.0
 10
-20.9892
 20
8.6085
 30
0.0
  0
SPLINE
  5
49
330
1F
100
AcDbEntity
  8
Ilustrace
 62
   250
370
    30
100
AcDbSpline
210
0.0
220
0.0
230
1.0
 70
    11
 71
     3
 72
    28
 73
    24
 74
     0
 42
0.0000000001
 43
0.0000000001
 40
0.0
 40
0.0
 40
0.0
 40
0.0
 40
0.1428571428571428
 40
0.1428571428571428
 40
0.1428571428571428
 40
0.1428571428571428
 40
0.2857142857142857
 40
0.2857142857142857
 40
0.2857142857142857
 40
0.2857142857142857
 40
0.4285714285714285
 40
0.4285714285714285
 40
0.4285714285714285
 40
0.4285714285714285
 40
0.5714285714285714
 40
0.5714285714285714
 40
0.5714285714285714
 40
0.5714285714285714
 40
0.7142857142857143
 40
0.7142857142857143
 40
0.7142857142857143
 40
0.7142857142857143
 40
1.0
 40
1.0
 40
1.0
 40
1.0
 10
-2.7349
 20
5.1022
 30
0.0
 10
-2.7349
 20
5.1022
 30
0.0
 10
-2.7349
 20
3.3919
 30
0.0
 10
-2.7349
 20
3.3919
 30
0.0
 10
-2.7349
 20
3.3919
 30
0.0
 10
-2.7349
 20
3.3919
 30
0.0
 10
-26.2029
 20
3.3919
 30
0.0
 10
-26.2029
 20
3.3919
 30
0.0
 10
-26.2029
 20
3.3919
 30
0.0
 10
-26.2029
 20
3.3919
 30
0.0
 10
-24.4938
 20
5.1022
 30
0.0
 10
-24.4938
 20
5.1022
 30
0.0
 10
-24.4938
 20
5.1022
 30
0.0
 10
-24.4938
 20
5.1022
 30
0.0
 10
-23.9233
 20
5.1022
 30
0.0
 10
-23.9233
 20
5.1022
 30
0.0
 10
-23.9233
 20
5.1022
 30
0.0
 10
-23.9233
 20
5.1022
 30
0.0
 10
-3.3054
 20
5.1022
 30
0.0
 10
-3.3054
 20
5.1022
 30
0.0
 10
-3.3054
 20
5.1022
 30
0.0
 10
-3.3054
 20
5.1022
 30
0.0
 10
-2.7349
 20
5.1022
 30
0.0
 10
-2.7349
 20
5.1022
 30
0.0
  0
SPLINE
  5
4A
330
1F
100
AcDbEntity
  8
Ilustrace
 62
   250
370
    30
100
AcDbSpline
210
0.0
220
0.0
230
1.0
 70
    11
 71
     3
 72
    36
 73
    32
 74
     0
 42
0.0000000001
 43
0.0000000001
 40
0.0
 40
0.0
 40
0.0
 40
0.0
 40
0.1111111111111111
 40
0.1111111111111111
 40
0.1111111111111111
 40
0.1111111111111111
 40
0.2222222222222222
 40
0.2222222222222222
 40
0.2222222222222222
 40
0.2222222222222222
 40
0.3333333333333333
 40
0.3333333333333333
 40
0.3333333333333333
 40
0.3333333333333333
 40
0.4444444444444444
 40
0.4444444444444444
 40
0.4444444444444444
 40
0.4444444444444444
 40
0.5555555555555556
 40
0.5555555555555556
 40
0.5555555555555556
 40
0.5555555555555556
 40
0.6666666666666666
 40
0.6666666666666666
 40
0.6666666666666666
 40
0.6666666666666666
 40
0.7777777777777778
 40
0.7777777777777778
 40
0.7777777777777778
 40
0.7777777777777778
 40
1.0
 40
1.0
 40
1.0
 40
1.0
 10
18.0686
 20
5.9738
 30
0.0
 10
18.0686
 20
5.9738
 30
0.0
 10
17.3338
 20
6.7842
 30
0.0
 10
17.3338
 20
6.7842
 30
0.0
 10
17.3338
 20
6.7842
 30
0.0
 10
17.3338
 20
6.7842
 30
0.0
 10
16.8602
 20
7.2695
 30
0.0
 10
16.8602
 20
7.2695
 30
0.0
 10
16.8602
 20
7.2695
 30
0.0
 10
16.8602
 20
7.2695
 30
0.0
 10
16.3486
 20
7.6924
 30
0.0
 10
16.3486
 20
7.6924
 30
0.0
 10
16.3486
 20
7.6924
 30
0.0
 10
16.3486
 20
7.6924
 30
0.0
 10
15.348
 20
7.6812
 30
0.0
 10
15.348
 20
7.6812
 30
0.0
 10
15.348
 20
7.6812
 30
0.0
 10
15.348
 20
7.6812
 30
0.0
 10
-2.1347
 20
7.626
 30
0.0
 10
-2.1347
 20
7.626
 30
0.0
 10
-2.1347
 20
7.626
 30
0.0
 10
-2.1347
 20
7.626
 30
0.0
 10
-2.7053
 20
7.626
 30
0.0
 10
-2.7053
 20
7.626
 30
0.0
 10
-2.7053
 20
7.626
 30
0.0
 10
-2.7053
 20
7.626
 30
0.0
 10
-2.7053
 20
5.9186
 30
0.0
 10
-2.7053
 20
5.9186
 30
0.0
 10
-2.7053
 20
5.9186
 30
0.0
 10
-2.7053
 20
5.9186
 30
0.0
 10
18.0686
 20
5.9738
 30
0.0
 10
18.0686
 20
5.9738
 30
0.0
  0
SPLINE
  5
4B
330
1F
100
AcDbEntity
  8
Ilustrace
 62
   250
370
    30
100
AcDbSpline
210
0.0
220
0.0
230
1.0
 70
    11
 71
     3
 72
    36
 73
    32
 74
     0
 42
0.0000000001
 43
0.0000000001
 40
0.0
 40
0.0
 40
0.0
 40
0.0
 40
0.1111111111111111
 40
0.1111111111111111
 40
0.1111111111111111
 40
0.1111111111111111
 40
0.2222222222222222
 40
0.2222222222222222
 40
0.2222222222222222
 40
0.2222222222222222
 40
0.3333333333333333
 40
0.3333333333333333
 40
0.3333333333333333
 40
0.3333333333333333
 40
0.4444444444444444
 40
0.4444444444444444
 40
0.4444444444444444
 40
0.4444444444444444
 40
0.5555555555555556
 40
0.5555555555555556
 40
0.5555555555555556
 40
0.5555555555555556
 40
0.6666666666666666
 40
0.6666666666666666
 40
0.6666666666666666
 40
0.6666666666666666
 40
0.7777777777777778
 40
0.7777777777777778
 40
0.7777777777777778
 40
0.7777777777777778
 40
1.0
 40
1.0
 40
1.0
 40
1.0
 10
23.3417
 20
0.7863
 30
0.0
 10
23.3417
 20
0.7863
 30
0.0
 10
22.9375
 20
1.1888
 30
0.0
 10
22.9375
 20
1.1888
 30
0.0
 10
22.9375
 20
1.1888
 30
0.0
 10
22.9375
 20
1.1888
 30
0.0
 10
22.0339
 20
2.0929
 30
0.0
 10
22.0339
 20
2.0929
 30
0.0
 10
22.0339
 20
2.0929
 30
0.0
 10
22.0339
 20
2.0929
 30
0.0
 10
21.6326
 20
2.4937
 30
0.0
 10
21.6326
 20
2.4937
 30
0.0
 10
21.6326
 20
2.4937
 30
0.0
 10
21.6326
 20
2.4937
 30
0.0
 10
21.0621
 20
2.4937
 30
0.0
 10
21.0621
 20
2.4937
 30
0.0
 10
21.0621
 20
2.4937
 30
0.0
 10
21.0621
 20
2.4937
 30
0.0
 10
-2.1643
 20
2.4937
 30
0.0
 10
-2.1643
 20
2.4937
 30
0.0
 10
-2.1643
 20
2.4937
 30
0.0
 10
-2.1643
 20
2.4937
 30
0.0
 10
-2.7349
 20
2.4937
 30
0.0
 10
-2.7349
 20
2.4937
 30
0.0
 10
-2.7349
 20
2.4937
 30
0.0
 10
-2.7349
 20
2.4937
 30
0.0
 10
-2.7349
 20
0.7863
 30
0.0
 10
-2.7349
 20
0.7863
 30
0.0
 10
-2.7349
 20
0.7863
 30
0.0
 10
-2.7349
 20
0.7863
 30
0.0
 10
23.3417
 20
0.7863
 30
0.0
 10
23.3417
 20
0.7863
 30
0.0
  0
SPLINE
  5
4C
330
1F
100
AcDbEntity
  8
Ilustrace
 62
   250
370
    30
100
AcDbSpline
210
0.0
220
0.0
230
1.0
 70
    11
 71
     3
 72
    20
 73
    16
 74
     0
 42
0.0000000001
 43
0.0000000001
 40
0.0
 40
0.0
 40
0.0
 40
0.0
 40
0.2
 40
0.2
 40
0.2
 40
0.2
 40
0.4
 40
0.4
 40
0.4
 40
0.4
 40
0.6
 40
0.6
 40
0.6
 40
0.6
 40
1.0
 40
1.0
 40
1.0
 40
1.0
 10
-29.7092
 20
-0.1115
 30
0.0
 10
-29.7092
 20
-0.1115
 30
0.0
 10
-2.7349
 20
-0.1115
 30
0.0
 10
-2.7349
 20
-0.1115
 30
0.0
 10
-2.7349
 20
-0.1115
 30
0.0
 10
-2.7349
 20
-0.1115
 30
0.0
 10
-2.7349
 20
-1.8235
 30
0.0
 10
-2.7349
 20
-1.8235
 30
0.0
 10
-2.7349
 20
-1.8235
 30
0.0
 10
-2.7349
 20
-1.8235
 30
0.0
 10
-31.4195
 20
-1.8235
 30
0.0
 10
-31.4195
 20
-1.8235
 30
0.0
 10
-31.4195
 20
-1.8235
 30
0.0
 10
-31.4195
 20
-1.8235
 30
0.0
 10
-29.7092
 20
-0.1115
 30
0.0
 10
-29.7092
 20
-0.1115
 30
0.0
  0
SPLINE
  5
4D
330
1F
100
AcDbEntity
  8
Ilustrace
 62
   250
370
    30
100
AcDbSpline
210
0.0
220
0.0
230
1.0
 70
    11
 71
     3
 72
    36
 73
    32
 74
     0
 42
0.0000000001
 43
0.0000000001
 40
0.0
 40
0.0
 40
0.0
 40
0.0
 40
0.1111111111111111
 40
0.1111111111111111
 40
0.1111111111111111
 40
0.1111111111111111
 40
0.2222222222222222
 40
0.2222222222222222
 40
0.2222222222222222
 40
0.2222222222222222
 40
0.3333333333333333
 40
0.3333333333333333
 40
0.3333333333333333
 40
0.3333333333333333
 40
0.4444444444444444
 40
0.4444444444444444
 40
0.4444444444444444
 40
0.4444444444444444
 40
0.5555555555555556
 40
0.5555555555555556
 40
0.5555555555555556
 40
0.5555555555555556
 40
0.6666666666666666
 40
0.6666666666666666
 40
0.6666666666666666
 40
0.6666666666666666
 40
0.7777777777777778
 40
0.7777777777777778
 40
0.7777777777777778
 40
0.7777777777777778
 40
1.0
 40
1.0
 40
1.0
 40
1.0
 10
-2.7349
 20
-2.72
 30
0.0
 10
-2.7349
 20
-2.72
 30
0.0
 10
-2.7349
 20
-4.4291
 30
0.0
 10
-2.7349
 20
-4.4291
 30
0.0
 10
-2.7349
 20
-4.4291
 30
0.0
 10
-2.7349
 20
-4.4291
 30
0.0
 10
28.5554
 20
-4.4291
 30
0.0
 10
28.5554
 20
-4.4291
 30
0.0
 10
28.5554
 20
-4.4291
 30
0.0
 10
28.5554
 20
-4.4291
 30
0.0
 10
28.1542
 20
-4.0279
 30
0.0
 10
28.1542
 20
-4.0279
 30
0.0
 10
28.1542
 20
-4.0279
 30
0.0
 10
28.1542
 20
-4.0279
 30
0.0
 10
27.2505
 20
-3.1238
 30
0.0
 10
27.2505
 20
-3.1238
 30
0.0
 10
27.2505
 20
-3.1238
 30
0.0
 10
27.2505
 20
-3.1238
 30
0.0
 10
26.8464
 20
-2.72
 30
0.0
 10
26.8464
 20
-2.72
 30
0.0
 10
26.8464
 20
-2.72
 30
0.0
 10
26.8464
 20
-2.72
 30
0.0
 10
26.2788
 20
-2.72
 30
0.0
 10
26.2788
 20
-2.72
 30
0.0
 10
26.2788
 20
-2.72
 30
0.0
 10
26.2788
 20
-2.72
 30
0.0
 10
-2.1643
 20
-2.72
 30
0.0
 10
-2.1643
 20
-2.72
 30
0.0
 10
-2.1643
 20
-2.72
 30
0.0
 10
-2.1643
 20
-2.72
 30
0.0
 10
-2.7349
 20
-2.72
 30
0.0
 10
-2.7349
 20
-2.72
 30
0.0
  0
SPLINE
  5
4E
330
1F
100
AcDbEntity
  8
Ilustrace
 62
   250
370
    30
100
AcDbSpline
210
0.0
220
0.0
230
1.0
 70
    11
 71
     3
 72
    28
 73
    24
 74
     0
 42
0.0000000001
 43
0.0000000001
 40
0.0
 40
0.0
 40
0.0
 40
0.0
 40
0.1428571428571428
 40
0.1428571428571428
 40
0.1428571428571428
 40
0.1428571428571428
 40
0.2857142857142857
 40
0.2857142857142857
 40
0.2857142857142857
 40
0.2857142857142857
 40
0.4285714285714285
 40
0.4285714285714285
 40
0.4285714285714285
 40
0.4285714285714285
 40
0.5714285714285714
 40
0.5714285714285714
 40
0.5714285714285714
 40
0.5714285714285714
 40
0.7142857142857143
 40
0.7142857142857143
 40
0.7142857142857143
 40
0.7142857142857143
 40
1.0
 40
1.0
 40
1.0
 40
1.0
 10
-2.7349
 20
-5.3282
 30
0.0
 10
-2.7349
 20
-5.3282
 30
0.0
 10
-2.7349
 20
-7.0372
 30
0.0
 10
-2.7349
 20
-7.0372
 30
0.0
 10
-2.7349
 20
-7.0372
 30
0.0
 10
-2.7349
 20
-7.0372
 30
0.0
 10
-36.6349
 20
-7.0372
 30
0.0
 10
-36.6349
 20
-7.0372
 30
0.0
 10
-36.6349
 20
-7.0372
 30
0.0
 10
-36.6349
 20
-7.0372
 30
0.0
 10
-34.923
 20
-5.3282
 30
0.0
 10
-34.923
 20
-5.3282
 30
0.0
 10
-34.923
 20
-5.3282
 30
0.0
 10
-34.923
 20
-5.3282
 30
0.0
 10
-34.3554
 20
-5.3282
 30
0.0
 10
-34.3554
 20
-5.3282
 30
0.0
 10
-34.3554
 20
-5.3282
 30
0.0
 10
-34.3554
 20
-5.3282
 30
0.0
 10
-3.3054
 20
-5.3282
 30
0.0
 10
-3.3054
 20
-5.3282
 30
0.0
 10
-3.3054
 20
-5.3282
 30
0.0
 10
-3.3054
 20
-5.3282
 30
0.0
 10
-2.7349
 20
-5.3282
 30
0.0
 10
-2.7349
 20
-5.3282
 30
0.0
  0
SPLINE
  5
4F
330
1F
100
AcDbEntity
  8
Ilustrace
 62
   250
370
    30
100
AcDbSpline
210
0.0
220
0.0
230
1.0
 70
    11
 71
     3
 72
    36
 73
    32
 74
     0
 42
0.0000000001
 43
0.0000000001
 40
0.0
 40
0.0
 40
0.0
 40
0.0
 40
0.1111111111111111
 40
0.1111111111111111
 40
0.1111111111111111
 40
0.1111111111111111
 40
0.2222222222222222
 40
0.2222222222222222
 40
0.2222222222222222
 40
0.2222222222222222
 40
0.3333333333333333
 40
0.3333333333333333
 40
0.3333333333333333
 40
0.3333333333333333
 40
0.4444444444444444
 40
0.4444444444444444
 40
0.4444444444444444
 40
0.4444444444444444
 40
0.5555555555555556
 40
0.5555555555555556
 40
0.5555555555555556
 40
0.5555555555555556
 40
0.6666666666666666
 40
0.6666666666666666
 40
0.6666666666666666
 40
0.6666666666666666
 40
0.7777777777777778
 40
0.7777777777777778
 40
0.7777777777777778
 40
0.7777777777777778
 40
1.0
 40
1.0
 40
1.0
 40
1.0
 10
33.7721
 20
-9.6458
 30
0.0
 10
33.7721
 20
-9.6458
 30
0.0
 10
33.3683
 20
-9.2416
 30
0.0
 10
33.3683
 20
-9.2416
 30
0.0
 10
33.3683
 20
-9.2416
 30
0.0
 10
33.3683
 20
-9.2416
 30
0.0
 10
32.4643
 20
-8.3379
 30
0.0
 10
32.4643
 20
-8.3379
 30
0.0
 10
32.4643
 20
-8.3379
 30
0.0
 10
32.4643
 20
-8.3379
 30
0.0
 10
32.0634
 20
-7.9367
 30
0.0
 10
32.0634
 20
-7.9367
 30
0.0
 10
32.0634
 20
-7.9367
 30
0.0
 10
32.0634
 20
-7.9367
 30
0.0
 10
31.4942
 20
-7.9367
 30
0.0
 10
31.4942
 20
-7.9367
 30
0.0
 10
31.4942
 20
-7.9367
 30
0.0
 10
31.4942
 20
-7.9367
 30
0.0
 10
-2.1643
 20
-7.9367
 30
0.0
 10
-2.1643
 20
-7.9367
 30
0.0
 10
-2.1643
 20
-7.9367
 30
0.0
 10
-2.1643
 20
-7.9367
 30
0.0
 10
-2.7349
 20
-7.9367
 30
0.0
 10
-2.7349
 20
-7.9367
 30
0.0
 10
-2.7349
 20
-7.9367
 30
0.0
 10
-2.7349
 20
-7.9367
 30
0.0
 10
-2.7349
 20
-9.6458
 30
0.0
 10
-2.7349
 20
-9.6458
 30
0.0
 10
-2.7349
 20
-9.6458
 30
0.0
 10
-2.7349
 20
-9.6458
 30
0.0
 10
33.7721
 20
-9.6458
 30
0.0
 10
33.7721
 20
-9.6458
 30
0.0
  0
SPLINE
  5
50
330
1F
100
AcDbEntity
  8
Ilustrace
 62
   250
370
    30
100
AcDbSpline
210
0.0
220
0.0
230
1.0
 70
    11
 71
     3
 72
    36
 73
    32
 74
     0
 42
0.0000000001
 43
0.0000000001
 40
0.0
 40
0.0
 40
0.0
 40
0.0
 40
0.1111111111111111
 40
0.1111111111111111
 40
0.1111111111111111
 40
0.1111111111111111
 40
0.2222222222222222
 40
0.2222222222222222
 40
0.2222222222222222
 40
0.2222222222222222
 40
0.3333333333333333
 40
0.3333333333333333
 40
0.3333333333333333
 40
0.3333333333333333
 40
0.4444444444444444
 40
0.4444444444444444
 40
0.4444444444444444
 40
0.4444444444444444
 40
0.5555555555555556
 40
0.5555555555555556
 40
0.5555555555555556
 40
0.5555555555555556
 40
0.6666666666666666
 40
0.6666666666666666
 40
0.6666666666666666
 40
0.6666666666666666
 40
0.7777777777777778
 40
0.7777777777777778
 40
0.7777777777777778
 40
0.7777777777777778
 40
1.0
 40
1.0
 40
1.0
 40
1.0
 10
-2.7349
 20
-13.1504
 30
0.0
 10
-2.7349
 20
-13.1504
 30
0.0
 10
-2.7349
 20
-14.8595
 30
0.0
 10
-2.7349
 20
-14.8595
 30
0.0
 10
-2.7349
 20
-14.8595
 30
0.0
 10
-2.7349
 20
-14.8595
 30
0.0
 10
38.9858
 20
-14.8595
 30
0.0
 10
38.9858
 20
-14.8595
 30
0.0
 10
38.9858
 20
-14.8595
 30
0.0
 10
38.9858
 20
-14.8595
 30
0.0
 10
38.5833
 20
-14.4586
 30
0.0
 10
38.5833
 20
-14.4586
 30
0.0
 10
38.5833
 20
-14.4586
 30
0.0
 10
38.5833
 20
-14.4586
 30
0.0
 10
37.6797
 20
-13.5546
 30
0.0
 10
37.6797
 20
-13.5546
 30
0.0
 10
37.6797
 20
-13.5546
 30
0.0
 10
37.6797
 20
-13.5546
 30
0.0
 10
37.2784
 20
-13.1504
 30
0.0
 10
37.2784
 20
-13.1504
 30
0.0
 10
37.2784
 20
-13.1504
 30
0.0
 10
37.2784
 20
-13.1504
 30
0.0
 10
36.7079
 20
-13.1504
 30
0.0
 10
36.7079
 20
-13.1504
 30
0.0
 10
36.7079
 20
-13.1504
 30
0.0
 10
36.7079
 20
-13.1504
 30
0.0
 10
-2.1643
 20
-13.1504
 30
0.0
 10
-2.1643
 20
-13.1504
 30
0.0
 10
-2.1643
 20
-13.1504
 30
0.0
 10
-2.1643
 20
-13.1504
 30
0.0
 10
-2.7349
 20
-13.1504
 30
0.0
 10
-2.7349
 20
-13.1504
 30
0.0
  0
SPLINE
  5
51
330
1F
100
AcDbEntity
  8
Ilustrace
 62
   250
370
    30
100
AcDbSpline
210
0.0
220
0.0
230
1.0
 70
    11
 71
     3
 72
    28
 73
    24
 74
     0
 42
0.0000000001
 43
0.0000000001
 40
0.0
 40
0.0
 40
0.0
 40
0.0
 40
0.1428571428571428
 40
0.1428571428571428
 40
0.1428571428571428
 40
0.1428571428571428
 40
0.2857142857142857
 40
0.2857142857142857
 40
0.2857142857142857
 40
0.2857142857142857
 40
0.4285714285714285
 40
0.4285714285714285
 40
0.4285714285714285
 40
0.4285714285714285
 40
0.5714285714285714
 40
0.5714285714285714
 40
0.5714285714285714
 40
0.5714285714285714
 40
0.7142857142857143
 40
0.7142857142857143
 40
0.7142857142857143
 40
0.7142857142857143
 40
1.0
 40
1.0
 40
1.0
 40
1.0
 10
-2.7349
 20
-10.5423
 30
0.0
 10
-2.7349
 20
-10.5423
 30
0.0
 10
-2.7349
 20
-12.2539
 30
0.0
 10
-2.7349
 20
-12.2539
 30
0.0
 10
-2.7349
 20
-12.2539
 30
0.0
 10
-2.7349
 20
-12.2539
 30
0.0
 10
-41.8487
 20
-12.2539
 30
0.0
 10
-41.8487
 20
-12.2539
 30
0.0
 10
-41.8487
 20
-12.2539
 30
0.0
 10
-41.8487
 20
-12.2539
 30
0.0
 10
-40.14
 20
-10.5423
 30
0.0
 10
-40.14
 20
-10.5423
 30
0.0
 10
-40.14
 20
-10.5423
 30
0.0
 10
-40.14
 20
-10.5423
 30
0.0
 10
-39.5691
 20
-10.5423
 30
0.0
 10
-39.5691
 20
-10.5423
 30
0.0
 10
-39.5691
 20
-10.5423
 30
0.0
 10
-39.5691
 20
-10.5423
 30
0.0
 10
-3.3054
 20
-10.5423
 30
0.0
 10
-3.3054
 20
-10.5423
 30
0.0
 10
-3.3054
 20
-10.5423
 30
0.0
 10
-3.3054
 20
-10.5423
 30
0.0
 10
-2.7349
 20
-10.5423
 30
0.0
 10
-2.7349
 20
-10.5423
 30
0.0
  0
SPLINE
  5
52
330
1F
100
AcDbEntity
  8
Ilustrace
 62
   250
370
    15
100
AcDbSpline
210
0.0
220
0.0
230
1.0
 70
    24
 71
     3
 72
     8
 73
     4
 74
     0
 42
0.0000000001
 43
0.0000000001
 40
0.0
 40
0.0
 40
0.0
 40
0.0
 40
1.0
 40
1.0
 40
1.0
 40
1.0
 10
51.6717
 20
-26.9053
 30
0.0
 10
51.6717
 20
-26.9053
 30
0.0
 10
51.6717
 20
-20.7869
 30
0.0
 10
51.6717
 20
-20.7869
 30
0.0
  0
SPLINE
  5
53
330
1F
100
AcDbEntity
  8
Ilustrace
 62
   250
370
    15
100
AcDbSpline
210
0.0
220
0.0
230
1.0
 70
    24
 71
     3
 72
     8
 73
     4
 74
     0
 42
0.0000000001
 43
0.0000000001
 40
0.0
 40
0.0
 40
0.0
 40
0.0
 40
1.0
 40
1.0
 40
1.0
 40
1.0
 10
52.1228
 20
-19.8454
 30
0.0
 10
52.1228
 20
-19.8454
 30
0.0
 10
54.2815
 20
-17.6867
 30
0.0
 10
54.2815
 20
-17.6867
 30
0.0
  0
SPLINE
  5
54
330
1F
100
AcDbEntity
  8
Ilustrace
 62
   250
370
    15
100
AcDbSpline
210
0.0
220
0.0
230
1.0
 70
    24
 71
     3
 72
     8
 73
     4
 74
     0
 42
0.0000000001
 43
0.0000000001
 40
0.0
 40
0.0
 40
0.0
 40
0.0
 40
1.0
 40
1.0
 40
1.0
 40
1.0
 10
-56.2561
 20
-26.3443
 30
0.0
 10
-56.2561
 20
-26.3443
 30
0.0
 10
50.9301
 20
-26.3443
 30
0.0
 10
50.9301
 20
-26.3443
 30
0.0
  0
SPLINE
  5
55
330
1F
100
AcDbEntity
  8
Ilustrace
 62
   250
370
    15
100
AcDbSpline
210
0.0
220
0.0
230
1.0
 70
    24
 71
     3
 72
     8
 73
     4
 74
     0
 42
0.0000000001
 43
0.0000000001
 40
0.0
 40
0.0
 40
0.0
 40
0.0
 40
1.0
 40
1.0
 40
1.0
 40
1.0
 10
-0.0159
 20
35.8763
 30
0.0
 10
-0.0159
 20
35.8763
 30
0.0
 10
53.3902
 20
-17.5298
 30
0.0
 10
53.3902
 20
-17.5298
 30
0.0
  0
SPLINE
  5
56
330
1F
100
AcDbEntity
  8
Ilustrace
 62
   250
100
AcDbSpline
210
0.0
220
0.0
230
1.0
 70
    11
 71
     3
 72
   196
 73
   192
 74
     0
 42
0.0000000001
 43
0.0000000001
 40
0.0
 40
0.0
 40
0.0
 40
0.0
 40
0.0204081632653061
 40
0.0204081632653061
 40
0.0204081632653061
 40
0.0204081632653061
 40
0.0408163265306122
 40
0.0408163265306122
 40
0.0408163265306122
 40
0.0408163265306122
 40
0.0612244897959184
 40
0.0612244897959184
 40
0.0612244897959184
 40
0.0612244897959184
 40
0.0816326530612245
 40
0.0816326530612245
 40
0.0816326530612245
 40
0.0816326530612245
 40
0.1020408163265306
 40
0.1020408163265306
 40
0.1020408163265306
 40
0.1020408163265306
 40
0.1224489795918367
 40
0.1224489795918367
 40
0.1224489795918367
 40
0.1224489795918367
 40
0.1428571428571428
 40
0.1428571428571428
 40
0.1428571428571428
 40
0.1428571428571428
 40
0.163265306122449
 40
0.163265306122449
 40
0.163265306122449
 40
0.163265306122449
 40
0.1836734693877551
 40
0.1836734693877551
 40
0.1836734693877551
 40
0.1836734693877551
 40
0.2040816326530612
 40
0.2040816326530612
 40
0.2040816326530612
 40
0.2040816326530612
 40
0.2244897959183673
 40
0.2244897959183673
 40
0.2244897959183673
 40
0.2244897959183673
 40
0.2448979591836735
 40
0.2448979591836735
 40
0.2448979591836735
 40
0.2448979591836735
 40
0.2653061224489796
 40
0.2653061224489796
 40
0.2653061224489796
 40
0.2653061224489796
 40
0.2857142857142857
 40
0.2857142857142857
 40
0.2857142857142857
 40
0.2857142857142857
 40
0.3061224489795918
 40
0.3061224489795918
 40
0.3061224489795918
 40
0.3061224489795918
 40
0.3265306122448979
 40
0.3265306122448979
 40
0.3265306122448979
 40
0.3265306122448979
 40
0.3469387755102041
 40
0.3469387755102041
 40
0.3469387755102041
 40
0.3469387755102041
 40
0.3673469387755102
 40
0.3673469387755102
 40
0.3673469387755102
 40
0.3673469387755102
 40
0.3877551020408163
 40
0.3877551020408163
 40
0.3877551020408163
 40
0.3877551020408163
 40
0.4081632653061225
 40
0.4081632653061225
 40
0.4081632653061225
 40
0.4081632653061225
 40
0.4285714285714285
 40
0.4285714285714285
 40
0.4285714285714285
 40
0.4285714285714285
 40
0.4489795918367347
 40
0.4489795918367347
 40
0.4489795918367347
 40
0.4489795918367347
 40
0.4693877551020408
 40
0.4693877551020408
 40
0.4693877551020408
 40
0.4693877551020408
 40
0.4897959183673469
 40
0.4897959183673469
 40
0.4897959183673469
 40
0.4897959183673469
 40
0.5102040816326531
 40
0.5102040816326531
 40
0.5102040816326531
 40
0.5102040816326531
 40
0.5306122448979592
 40
0.5306122448979592
 40
0.5306122448979592
 40
0.5306122448979592
 40
0.5510204081632653
 40
0.5510204081632653
 40
0.5510204081632653
 40
0.5510204081632653
 40
0.5714285714285714
 40
0.5714285714285714
 40
0.5714285714285714
 40
0.5714285714285714
 40
0.5918367346938775
 40
0.5918367346938775
 40
0.5918367346938775
 40
0.5918367346938775
 40
0.6122448979591837
 40
0.6122448979591837
 40
0.6122448979591837
 40
0.6122448979591837
 40
0.6326530612244898
 40
0.6326530612244898
 40
0.6326530612244898
 40
0.6326530612244898
 40
0.6530612244897959
 40
0.6530612244897959
 40
0.6530612244897959
 40
0.6530612244897959
 40
0.673469387755102
 40
0.673469387755102
 40
0.673469387755102
 40
0.673469387755102
 40
0.6938775510204082
 40
0.6938775510204082
 40
0.6938775510204082
 40
0.6938775510204082
 40
0.7142857142857143
 40
0.7142857142857143
 40
0.7142857142857143
 40
0.7142857142857143
 40
0.7346938775510204
 40
0.7346938775510204
 40
0.7346938775510204
 40
0.7346938775510204
 40
0.7551020408163265
 40
0.7551020408163265
 40
0.7551020408163265
 40
0.7551020408163265
 40
0.7755102040816326
 40
0.7755102040816326
 40
0.7755102040816326
 40
0.7755102040816326
 40
0.7959183673469388
 40
0.7959183673469388
 40
0.7959183673469388
 40
0.7959183673469388
 40
0.8163265306122449
 40
0.8163265306122449
 40
0.8163265306122449
 40
0.8163265306122449
 40
0.8367346938775511
 40
0.8367346938775511
 40
0.8367346938775511
 40
0.8367346938775511
 40
0.8571428571428571
 40
0.8571428571428571
 40
0.8571428571428571
 40
0.8571428571428571
 40
0.8775510204081632
 40
0.8775510204081632
 40
0.8775510204081632
 40
0.8775510204081632
 40
0.8979591836734694
 40
0.8979591836734694
 40
0.8979591836734694
 40
0.8979591836734694
 40
0.9183673469387755
 40
0.9183673469387755
 40
0.9183673469387755
 40
0.9183673469387755
 40
0.9387755102040817
 40
0.9387755102040817
 40
0.9387755102040817
 40
0.9387755102040817
 40
0.9591836734693877
 40
0.9591836734693877
 40
0.9591836734693877
 40
0.9591836734693877
 40
1.0
 40
1.0
 40
1.0
 40
1.0
 10
-7.5683
 20
-25.4413
 30
0.0
 10
-7.5072
 20
-25.4818
 30
0.0
 10
-7.4282
 20
-25.5204
 30
0.0
 10
-7.3322
 20
-25.558
 30
0.0
 10
-7.3322
 20
-25.558
 30
0.0
 10
-7.2363
 20
-25.5956
 30
0.0
 10
-7.1271
 20
-25.6267
 30
0.0
 10
-7.0048
 20
-25.6521
 30
0.0
 10
-7.0048
 20
-25.6521
 30
0.0
 10
-6.8825
 20
-25.6765
 30
0.0
 10
-6.7527
 20
-25.6887
 30
0.0
 10
-6.6144
 20
-25.6897
 30
0.0
 10
-6.6144
 20
-25.6897
 30
0.0
 10
-6.3952
 20
-25.6887
 30
0.0
 10
-6.2024
 20
-25.6586
 30
0.0
 10
-6.0359
 20
-25.6003
 30
0.0
 10
-6.0359
 20
-25.6003
 30
0.0
 10
-5.8694
 20
-25.542
 30
0.0
 10
-5.7301
 20
-25.4611
 30
0.0
 10
-5.6173
 20
-25.3595
 30
0.0
 10
-5.6173
 20
-25.3595
 30
0.0
 10
-5.5044
 20
-25.2579
 30
0.0
 10
-5.4197
 20
-25.1403
 30
0.0
 10
-5.3623
 20
-25.0086
 30
0.0
 10
-5.3623
 20
-25.0086
 30
0.0
 10
-5.3059
 20
-24.8769
 30
0.0
 10
-5.2767
 20
-24.7367
 30
0.0
 10
-5.2767
 20
-24.589
 30
0.0
 10
-5.2767
 20
-24.589
 30
0.0
 10
-5.2786
 20
-24.4601
 30
0.0
 10
-5.3012
 20
-24.3435
 30
0.0
 10
-5.3435
 20
-24.2381
 30
0.0
 10
-5.3435
 20
-24.2381
 30
0.0
 10
-5.3858
 20
-24.1318
 30
0.0
 10
-5.4442
 20
-24.0396
 30
0.0
 10
-5.5185
 20
-23.9597
 30
0.0
 10
-5.5185
 20
-23.9597
 30
0.0
 10
-5.5928
 20
-23.8797
 30
0.0
 10
-5.6793
 20
-23.8139
 30
0.0
 10
-5.7772
 20
-23.7621
 30
0.0
 10
-5.7772
 20
-23.7621
 30
0.0
 10
-5.876
 20
-23.7104
 30
0.0
 10
-5.9813
 20
-23.6737
 30
0.0
 10
-6.0951
 20
-23.6521
 30
0.0
 10
-6.0951
 20
-23.6521
 30
0.0
 10
-6.0951
 20
-23.6521
 30
0.0
 10
-6.0951
 20
-23.6408
 30
0.0
 10
-6.0951
 20
-23.6408
 30
0.0
 10
-6.0951
 20
-23.6408
 30
0.0
 10
-5.9465
 20
-23.5853
 30
0.0
 10
-5.8214
 20
-23.5147
 30
0.0
 10
-5.7217
 20
-23.4282
 30
0.0
 10
-5.7217
 20
-23.4282
 30
0.0
 10
-5.621
 20
-23.3416
 30
0.0
 10
-5.5448
 20
-23.2419
 30
0.0
 10
-5.494
 20
-23.1309
 30
0.0
 10
-5.494
 20
-23.1309
 30
0.0
 10
-5.4432
 20
-23.0199
 30
0.0
 10
-5.4178
 20
-22.9004
 30
0.0
 10
-5.4178
 20
-22.7715
 30
0.0
 10
-5.4178
 20
-22.7715
 30
0.0
 10
-5.4178
 20
-22.6586
 30
0.0
 10
-5.4385
 20
-22.5505
 30
0.0
 10
-5.4799
 20
-22.447
 30
0.0
 10
-5.4799
 20
-22.447
 30
0.0
 10
-5.5222
 20
-22.3426
 30
0.0
 10
-5.5862
 20
-22.2494
 30
0.0
 10
-5.6718
 20
-22.1666
 30
0.0
 10
-5.6718
 20
-22.1666
 30
0.0
 10
-5.7574
 20
-22.0839
 30
0.0
 10
-5.8665
 20
-22.0189
 30
0.0
 10
-5.9992
 20
-21.971
 30
0.0
 10
-5.9992
 20
-21.971
 30
0.0
 10
-6.1309
 20
-21.9221
 30
0.0
 10
-6.2871
 20
-21.8976
 30
0.0
 10
-6.4677
 20
-21.8967
 30
0.0
 10
-6.4677
 20
-21.8967
 30
0.0
 10
-6.6003
 20
-21.8976
 30
0.0
 10
-6.7273
 20
-21.9117
 30
0.0
 10
-6.8496
 20
-21.938
 30
0.0
 10
-6.8496
 20
-21.938
 30
0.0
 10
-6.9719
 20
-21.9653
 30
0.0
 10
-7.0829
 20
-22.0001
 30
0.0
 10
-7.1826
 20
-22.0425
 30
0.0
 10
-7.1826
 20
-22.0425
 30
0.0
 10
-7.2824
 20
-22.0857
 30
0.0
 10
-7.3661
 20
-22.1309
 30
0.0
 10
-7.4329
 20
-22.1789
 30
0.0
 10
-7.4329
 20
-22.1789
 30
0.0
 10
-7.4329
 20
-22.1789
 30
0.0
 10
-7.2974
 20
-22.5401
 30
0.0
 10
-7.2974
 20
-22.5401
 30
0.0
 10
-7.2974
 20
-22.5401
 30
0.0
 10
-7.2438
 20
-22.5015
 30
0.0
 10
-7.1789
 20
-22.4639
 30
0.0
 10
-7.1017
 20
-22.4272
 30
0.0
 10
-7.1017
 20
-22.4272
 30
0.0
 10
-7.0255
 20
-22.3896
 30
0.0
 10
-6.9409
 20
-22.3595
 30
0.0
 10
-6.8487
 20
-22.335
 30
0.0
 10
-6.8487
 20
-22.335
 30
0.0
 10
-6.7574
 20
-22.3106
 30
0.0
 10
-6.6624
 20
-22.2983
 30
0.0
 10
-6.5636
 20
-22.2974
 30
0.0
 10
-6.5636
 20
-22.2974
 30
0.0
 10
-6.4112
 20
-22.2983
 30
0.0
 10
-6.288
 20
-22.3247
 30
0.0
 10
-6.1939
 20
-22.3755
 30
0.0
 10
-6.1939
 20
-22.3755
 30
0.0
 10
-6.0989
 20
-22.4263
 30
0.0
 10
-6.0293
 20
-22.4931
 30
0.0
 10
-5.9851
 20
-22.5768
 30
0.0
 10
-5.9851
 20
-22.5768
 30
0.0
 10
-5.9409
 20
-22.6596
 30
0.0
 10
-5.9192
 20
-22.7508
 30
0.0
 10
-5.9202
 20
-22.8506
 30
0.0
 10
-5.9202
 20
-22.8506
 30
0.0
 10
-5.9211
 20
-22.9587
 30
0.0
 10
-5.9475
 20
-23.0528
 30
0.0
 10
-5.9973
 20
-23.1309
 30
0.0
 10
-5.9973
 20
-23.1309
 30
0.0
 10
-6.0472
 20
-23.209
 30
0.0
 10
-6.113
 20
-23.2739
 30
0.0
 10
-6.1939
 20
-23.3237
 30
0.0
 10
-6.1939
 20
-23.3237
 30
0.0
 10
-6.2748
 20
-23.3745
 30
0.0
 10
-6.3633
 20
-23.4112
 30
0.0
 10
-6.4583
 20
-23.4357
 30
0.0
 10
-6.4583
 20
-23.4357
 30
0.0
 10
-6.5533
 20
-23.4592
 30
0.0
 10
-6.6464
 20
-23.4714
 30
0.0
 10
-6.7386
 20
-23.4714
 30
0.0
 10
-6.7386
 20
-23.4714
 30
0.0
 10
-6.7386
 20
-23.4714
 30
0.0
 10
-7.0152
 20
-23.4714
 30
0.0
 10
-7.0152
 20
-23.4714
 30
0.0
 10
-7.0152
 20
-23.4714
 30
0.0
 10
-7.0152
 20
-23.4714
 30
0.0
 10
-7.0152
 20
-23.844
 30
0.0
 10
-7.0152
 20
-23.844
 30
0.0
 10
-7.0152
 20
-23.844
 30
0.0
 10
-7.0152
 20
-23.844
 30
0.0
 10
-6.7386
 20
-23.844
 30
0.0
 10
-6.7386
 20
-23.844
 30
0.0
 10
-6.7386
 20
-23.844
 30
0.0
 10
-6.6173
 20
-23.844
 30
0.0
 10
-6.5006
 20
-23.8581
 30
0.0
 10
-6.3887
 20
-23.8863
 30
0.0
 10
-6.3887
 20
-23.8863
 30
0.0
 10
-6.2767
 20
-23.9145
 30
0.0
 10
-6.176
 20
-23.9587
 30
0.0
 10
-6.0867
 20
-24.018
 30
0.0
 10
-6.0867
 20
-24.018
 30
0.0
 10
-5.9973
 20
-24.0773
 30
0.0
 10
-5.9258
 20
-24.1535
 30
0.0
 10
-5.8731
 20
-24.2466
 30
0.0
 10
-5.8731
 20
-24.2466
 30
0.0
 10
-5.8205
 20
-24.3388
 30
0.0
 10
-5.7932
 20
-24.4498
 30
0.0
 10
-5.7903
 20
-24.5777
 30
0.0
 10
-5.7903
 20
-24.5777
 30
0.0
 10
-5.7885
 20
-24.6568
 30
0.0
 10
-5.8007
 20
-24.7377
 30
0.0
 10
-5.8289
 20
-24.8195
 30
0.0
 10
-5.8289
 20
-24.8195
 30
0.0
 10
-5.8562
 20
-24.9023
 30
0.0
 10
-5.9023
 20
-24.9794
 30
0.0
 10
-5.9663
 20
-25.05
 30
0.0
 10
-5.9663
 20
-25.05
 30
0.0
 10
-6.0302
 20
-25.1205
 30
0.0
 10
-6.1158
 20
-25.1779
 30
0.0
 10
-6.2231
 20
-25.2212
 30
0.0
 10
-6.2231
 20
-25.2212
 30
0.0
 10
-6.3303
 20
-25.2654
 30
0.0
 10
-6.462
 20
-25.288
 30
0.0
 10
-6.6201
 20
-25.2889
 30
0.0
 10
-6.6201
 20
-25.2889
 30
0.0
 10
-6.7377
 20
-25.288
 30
0.0
 10
-6.8496
 20
-25.2748
 30
0.0
 10
-6.955
 20
-25.2494
 30
0.0
 10
-6.955
 20
-25.2494
 30
0.0
 10
-7.0603
 20
-25.224
 30
0.0
 10
-7.1544
 20
-25.1939
 30
0.0
 10
-7.2372
 20
-25.1591
 30
0.0
 10
-7.2372
 20
-25.1591
 30
0.0
 10
-7.32
 20
-25.1243
 30
0.0
 10
-7.3849
 20
-25.0923
 30
0.0
 10
-7.4329
 20
-25.0632
 30
0.0
 10
-7.4329
 20
-25.0632
 30
0.0
 10
-7.4329
 20
-25.0632
 30
0.0
 10
-7.5683
 20
-25.4413
 30
0.0
 10
-7.5683
 20
-25.4413
 30
0.0
  0
SPLINE
  5
57
330
1F
100
AcDbEntity
  8
Ilustrace
 62
   250
100
AcDbSpline
210
0.0
220
0.0
230
1.0
 70
    11
 71
     3
 72
   124
 73
   120
 74
     0
 42
0.0000000001
 43
0.0000000001
 40
0.0
 40
0.0
 40
0.0
 40
0.0
 40
0.032258064516129
 40
0.032258064516129
 40
0.032258064516129
 40
0.032258064516129
 40
0.0645161290322581
 40
0.0645161290322581
 40
0.0645161290322581
 40
0.0645161290322581
 40
0.0967741935483871
 40
0.0967741935483871
 40
0.0967741935483871
 40
0.0967741935483871
 40
0.1290322580645161
 40
0.1290322580645161
 40
0.1290322580645161
 40
0.1290322580645161
 40
0.1612903225806452
 40
0.1612903225806452
 40
0.1612903225806452
 40
0.1612903225806452
 40
0.1935483870967742
 40
0.1935483870967742
 40
0.1935483870967742
 40
0.1935483870967742
 40
0.2258064516129032
 40
0.2258064516129032
 40
0.2258064516129032
 40
0.2258064516129032
 40
0.2580645161290323
 40
0.2580645161290323
 40
0.2580645161290323
 40
0.2580645161290323
 40
0.2903225806451613
 40
0.2903225806451613
 40
0.2903225806451613
 40
0.2903225806451613
 40
0.3225806451612903
 40
0.3225806451612903
 40
0.3225806451612903
 40
0.3225806451612903
 40
0.3548387096774194
 40
0.3548387096774194
 40
0.3548387096774194
 40
0.3548387096774194
 40
0.3870967741935484
 40
0.3870967741935484
 40
0.3870967741935484
 40
0.3870967741935484
 40
0.4193548387096774
 40
0.4193548387096774
 40
0.4193548387096774
 40
0.4193548387096774
 40
0.4516129032258064
 40
0.4516129032258064
 40
0.4516129032258064
 40
0.4516129032258064
 40
0.4838709677419355
 40
0.4838709677419355
 40
0.4838709677419355
 40
0.4838709677419355
 40
0.5161290322580645
 40
0.5161290322580645
 40
0.5161290322580645
 40
0.5161290322580645
 40
0.5483870967741935
 40
0.5483870967741935
 40
0.5483870967741935
 40
0.5483870967741935
 40
0.5806451612903226
 40
0.5806451612903226
 40
0.5806451612903226
 40
0.5806451612903226
 40
0.6129032258064516
 40
0.6129032258064516
 40
0.6129032258064516
 40
0.6129032258064516
 40
0.6451612903225806
 40
0.6451612903225806
 40
0.6451612903225806
 40
0.6451612903225806
 40
0.6774193548387096
 40
0.6774193548387096
 40
0.6774193548387096
 40
0.6774193548387096
 40
0.7096774193548387
 40
0.7096774193548387
 40
0.7096774193548387
 40
0.7096774193548387
 40
0.7419354838709677
 40
0.7419354838709677
 40
0.7419354838709677
 40
0.7419354838709677
 40
0.7741935483870968
 40
0.7741935483870968
 40
0.7741935483870968
 40
0.7741935483870968
 40
0.8064516129032258
 40
0.8064516129032258
 40
0.8064516129032258
 40
0.8064516129032258
 40
0.8387096774193549
 40
0.8387096774193549
 40
0.8387096774193549
 40
0.8387096774193549
 40
0.8709677419354839
 40
0.8709677419354839
 40
0.8709677419354839
 40
0.8709677419354839
 40
0.9032258064516129
 40
0.9032258064516129
 40
0.9032258064516129
 40
0.9032258064516129
 40
0.9354838709677419
 40
0.9354838709677419
 40
0.9354838709677419
 40
0.9354838709677419
 40
1.0
 40
1.0
 40
1.0
 40
1.0
 10
-3.9728
 20
-23.7141
 30
0.0
 10
-4.1243
 20
-23.7781
 30
0.0
 10
-4.2541
 20
-23.8581
 30
0.0
 10
-4.3623
 20
-23.9522
 30
0.0
 10
-4.3623
 20
-23.9522
 30
0.0
 10
-4.4705
 20
-24.0472
 30
0.0
 10
-4.5542
 20
-24.1572
 30
0.0
 10
-4.6125
 20
-24.2824
 30
0.0
 10
-4.6125
 20
-24.2824
 30
0.0
 10
-4.6709
 20
-24.4075
 30
0.0
 10
-4.7
 20
-24.5476
 30
0.0
 10
-4.701
 20
-24.7019
 30
0.0
 10
-4.701
 20
-24.7019
 30
0.0
 10
-4.7
 20
-24.8374
 30
0.0
 10
-4.6727
 20
-24.9634
 30
0.0
 10
-4.6163
 20
-25.0829
 30
0.0
 10
-4.6163
 20
-25.0829
 30
0.0
 10
-4.5608
 20
-25.2014
 30
0.0
 10
-4.4799
 20
-25.3059
 30
0.0
 10
-4.3736
 20
-25.3971
 30
0.0
 10
-4.3736
 20
-25.3971
 30
0.0
 10
-4.2673
 20
-25.4874
 30
0.0
 10
-4.1384
 20
-25.5589
 30
0.0
 10
-3.9869
 20
-25.6107
 30
0.0
 10
-3.9869
 20
-25.6107
 30
0.0
 10
-3.8345
 20
-25.6624
 30
0.0
 10
-3.6624
 20
-25.6887
 30
0.0
 10
-3.4705
 20
-25.6897
 30
0.0
 10
-3.4705
 20
-25.6897
 30
0.0
 10
-3.2946
 20
-25.6887
 30
0.0
 10
-3.1309
 20
-25.6633
 30
0.0
 10
-2.9804
 20
-25.6135
 30
0.0
 10
-2.9804
 20
-25.6135
 30
0.0
 10
-2.8298
 20
-25.5636
 30
0.0
 10
-2.6972
 20
-25.4912
 30
0.0
 10
-2.5843
 20
-25.3971
 30
0.0
 10
-2.5843
 20
-25.3971
 30
0.0
 10
-2.4714
 20
-25.304
 30
0.0
 10
-2.383
 20
-25.192
 30
0.0
 10
-2.32
 20
-25.0613
 30
0.0
 10
-2.32
 20
-25.0613
 30
0.0
 10
-2.256
 20
-24.9305
 30
0.0
 10
-2.224
 20
-24.7847
 30
0.0
 10
-2.2231
 20
-24.6229
 30
0.0
 10
-2.2231
 20
-24.6229
 30
0.0
 10
-2.224
 20
-24.4761
 30
0.0
 10
-2.2541
 20
-24.3426
 30
0.0
 10
-2.3134
 20
-24.2212
 30
0.0
 10
-2.3134
 20
-24.2212
 30
0.0
 10
-2.3726
 20
-24.1008
 30
0.0
 10
-2.4573
 20
-23.9945
 30
0.0
 10
-2.5674
 20
-23.9032
 30
0.0
 10
-2.5674
 20
-23.9032
 30
0.0
 10
-2.6774
 20
-23.811
 30
0.0
 10
-2.8091
 20
-23.7348
 30
0.0
 10
-2.9625
 20
-23.6746
 30
0.0
 10
-2.9625
 20
-23.6746
 30
0.0
 10
-2.9625
 20
-23.6746
 30
0.0
 10
-2.9625
 20
-23.6577
 30
0.0
 10
-2.9625
 20
-23.6577
 30
0.0
 10
-2.9625
 20
-23.6577
 30
0.0
 10
-2.8129
 20
-23.5871
 30
0.0
 10
-2.6934
 20
-23.5053
 30
0.0
 10
-2.6041
 20
-23.4112
 30
0.0
 10
-2.6041
 20
-23.4112
 30
0.0
 10
-2.5147
 20
-23.3181
 30
0.0
 10
-2.4498
 20
-23.2184
 30
0.0
 10
-2.4103
 20
-23.114
 30
0.0
 10
-2.4103
 20
-23.114
 30
0.0
 10
-2.3717
 20
-23.0086
 30
0.0
 10
-2.3519
 20
-22.9042
 30
0.0
 10
-2.3529
 20
-22.7998
 30
0.0
 10
-2.3529
 20
-22.7998
 30
0.0
 10
-2.3529
 20
-22.6831
 30
0.0
 10
-2.3755
 20
-22.5702
 30
0.0
 10
-2.4206
 20
-22.463
 30
0.0
 10
-2.4206
 20
-22.463
 30
0.0
 10
-2.4658
 20
-22.3557
 30
0.0
 10
-2.5326
 20
-22.2598
 30
0.0
 10
-2.6219
 20
-22.1742
 30
0.0
 10
-2.6219
 20
-22.1742
 30
0.0
 10
-2.7122
 20
-22.0895
 30
0.0
 10
-2.8242
 20
-22.0218
 30
0.0
 10
-2.9578
 20
-21.9729
 30
0.0
 10
-2.9578
 20
-21.9729
 30
0.0
 10
-3.0914
 20
-21.923
 30
0.0
 10
-3.2475
 20
-21.8976
 30
0.0
 10
-3.4253
 20
-21.8967
 30
0.0
 10
-3.4253
 20
-21.8967
 30
0.0
 10
-3.5881
 20
-21.8976
 30
0.0
 10
-3.7395
 20
-21.9211
 30
0.0
 10
-3.8769
 20
-21.9672
 30
0.0
 10
-3.8769
 20
-21.9672
 30
0.0
 10
-4.0152
 20
-22.0142
 30
0.0
 10
-4.1356
 20
-22.0801
 30
0.0
 10
-4.2391
 20
-22.1666
 30
0.0
 10
-4.2391
 20
-22.1666
 30
0.0
 10
-4.3416
 20
-22.2532
 30
0.0
 10
-4.4216
 20
-22.3557
 30
0.0
 10
-4.4789
 20
-22.4752
 30
0.0
 10
-4.4789
 20
-22.4752
 30
0.0
 10
-4.5354
 20
-22.5947
 30
0.0
 10
-4.5646
 20
-22.7273
 30
0.0
 10
-4.5655
 20
-22.8731
 30
0.0
 10
-4.5655
 20
-22.8731
 30
0.0
 10
-4.5655
 20
-22.9794
 30
0.0
 10
-4.5457
 20
-23.0829
 30
0.0
 10
-4.5043
 20
-23.1845
 30
0.0
 10
-4.5043
 20
-23.1845
 30
0.0
 10
-4.4639
 20
-23.2861
 30
0.0
 10
-4.3999
 20
-23.3811
 30
0.0
 10
-4.3134
 20
-23.4686
 30
0.0
 10
-4.3134
 20
-23.4686
 30
0.0
 10
-4.2268
 20
-23.5561
 30
0.0
 10
-4.1158
 20
-23.6323
 30
0.0
 10
-3.9785
 20
-23.6972
 30
0.0
 10
-3.9785
 20
-23.6972
 30
0.0
 10
-3.9785
 20
-23.6972
 30
0.0
 10
-3.9728
 20
-23.7141
 30
0.0
 10
-3.9728
 20
-23.7141
 30
0.0
  0
SPLINE
  5
58
330
1F
100
AcDbEntity
  8
Ilustrace
 62
   250
100
AcDbSpline
210
0.0
220
0.0
230
1.0
 70
    11
 71
     3
 72
    56
 73
    52
 74
     0
 42
0.0000000001
 43
0.0000000001
 40
0.0
 40
0.0
 40
0.0
 40
0.0
 40
0.0714285714285714
 40
0.0714285714285714
 40
0.0714285714285714
 40
0.0714285714285714
 40
0.1428571428571428
 40
0.1428571428571428
 40
0.1428571428571428
 40
0.1428571428571428
 40
0.2142857142857143
 40
0.2142857142857143
 40
0.2142857142857143
 40
0.2142857142857143
 40
0.2857142857142857
 40
0.2857142857142857
 40
0.2857142857142857
 40
0.2857142857142857
 40
0.3571428571428572
 40
0.3571428571428572
 40
0.3571428571428572
 40
0.3571428571428572
 40
0.4285714285714285
 40
0.4285714285714285
 40
0.4285714285714285
 40
0.4285714285714285
 40
0.5
 40
0.5
 40
0.5
 40
0.5
 40
0.5714285714285714
 40
0.5714285714285714
 40
0.5714285714285714
 40
0.5714285714285714
 40
0.6428571428571429
 40
0.6428571428571429
 40
0.6428571428571429
 40
0.6428571428571429
 40
0.7142857142857143
 40
0.7142857142857143
 40
0.7142857142857143
 40
0.7142857142857143
 40
0.7857142857142857
 40
0.7857142857142857
 40
0.7857142857142857
 40
0.7857142857142857
 40
0.8571428571428571
 40
0.8571428571428571
 40
0.8571428571428571
 40
0.8571428571428571
 40
1.0
 40
1.0
 40
1.0
 40
1.0
 10
-3.4592
 20
-25.3284
 30
0.0
 10
-3.5768
 20
-25.3275
 30
0.0
 10
-3.6812
 20
-25.3087
 30
0.0
 10
-3.7734
 20
-25.272
 30
0.0
 10
-3.7734
 20
-25.272
 30
0.0
 10
-3.8665
 20
-25.2344
 30
0.0
 10
-3.9446
 20
-25.1836
 30
0.0
 10
-4.0086
 20
-25.1187
 30
0.0
 10
-4.0086
 20
-25.1187
 30
0.0
 10
-4.0716
 20
-25.0547
 30
0.0
 10
-4.1196
 20
-24.9804
 30
0.0
 10
-4.1516
 20
-24.8976
 30
0.0
 10
-4.1516
 20
-24.8976
 30
0.0
 10
-4.1826
 20
-24.8148
 30
0.0
 10
-4.1967
 20
-24.7264
 30
0.0
 10
-4.193
 20
-24.6342
 30
0.0
 10
-4.193
 20
-24.6342
 30
0.0
 10
-4.193
 20
-24.5166
 30
0.0
 10
-4.1676
 20
-24.4084
 30
0.0
 10
-4.1168
 20
-24.3087
 30
0.0
 10
-4.1168
 20
-24.3087
 30
0.0
 10
-4.0669
 20
-24.209
 30
0.0
 10
-3.9926
 20
-24.1215
 30
0.0
 10
-3.8947
 20
-24.0472
 30
0.0
 10
-3.8947
 20
-24.0472
 30
0.0
 10
-3.796
 20
-23.9729
 30
0.0
 10
-3.6756
 20
-23.9145
 30
0.0
 10
-3.5326
 20
-23.8722
 30
0.0
 10
-3.5326
 20
-23.8722
 30
0.0
 10
-3.3661
 20
-23.9183
 30
0.0
 10
-3.2231
 20
-23.9757
 30
0.0
 10
-3.1027
 20
-24.0453
 30
0.0
 10
-3.1027
 20
-24.0453
 30
0.0
 10
-2.9822
 20
-24.114
 30
0.0
 10
-2.8891
 20
-24.1996
 30
0.0
 10
-2.8242
 20
-24.3012
 30
0.0
 10
-2.8242
 20
-24.3012
 30
0.0
 10
-2.7593
 20
-24.4037
 30
0.0
 10
-2.7264
 20
-24.5279
 30
0.0
 10
-2.7254
 20
-24.6737
 30
0.0
 10
-2.7254
 20
-24.6737
 30
0.0
 10
-2.7264
 20
-24.8007
 30
0.0
 10
-2.7565
 20
-24.9136
 30
0.0
 10
-2.8167
 20
-25.0114
 30
0.0
 10
-2.8167
 20
-25.0114
 30
0.0
 10
-2.8769
 20
-25.1093
 30
0.0
 10
-2.9615
 20
-25.1864
 30
0.0
 10
-3.0707
 20
-25.2428
 30
0.0
 10
-3.0707
 20
-25.2428
 30
0.0
 10
-3.1798
 20
-25.2993
 30
0.0
 10
-3.3096
 20
-25.3275
 30
0.0
 10
-3.4592
 20
-25.3284
 30
0.0
  0
SPLINE
  5
59
330
1F
100
AcDbEntity
  8
Ilustrace
 62
   250
100
AcDbSpline
210
0.0
220
0.0
230
1.0
 70
    11
 71
     3
 72
    56
 73
    52
 74
     0
 42
0.0000000001
 43
0.0000000001
 40
0.0
 40
0.0
 40
0.0
 40
0.0
 40
0.0714285714285714
 40
0.0714285714285714
 40
0.0714285714285714
 40
0.0714285714285714
 40
0.1428571428571428
 40
0.1428571428571428
 40
0.1428571428571428
 40
0.1428571428571428
 40
0.2142857142857143
 40
0.2142857142857143
 40
0.2142857142857143
 40
0.2142857142857143
 40
0.2857142857142857
 40
0.2857142857142857
 40
0.2857142857142857
 40
0.2857142857142857
 40
0.3571428571428572
 40
0.3571428571428572
 40
0.3571428571428572
 40
0.3571428571428572
 40
0.4285714285714285
 40
0.4285714285714285
 40
0.4285714285714285
 40
0.4285714285714285
 40
0.5
 40
0.5
 40
0.5
 40
0.5
 40
0.5714285714285714
 40
0.5714285714285714
 40
0.5714285714285714
 40
0.5714285714285714
 40
0.6428571428571429
 40
0.6428571428571429
 40
0.6428571428571429
 40
0.6428571428571429
 40
0.7142857142857143
 40
0.7142857142857143
 40
0.7142857142857143
 40
0.7142857142857143
 40
0.7857142857142857
 40
0.7857142857142857
 40
0.7857142857142857
 40
0.7857142857142857
 40
0.8571428571428571
 40
0.8571428571428571
 40
0.8571428571428571
 40
0.8571428571428571
 40
1.0
 40
1.0
 40
1.0
 40
1.0
 10
-3.4535
 20
-22.2522
 30
0.0
 10
-3.3425
 20
-22.2532
 30
0.0
 10
-3.2475
 20
-22.2701
 30
0.0
 10
-3.1685
 20
-22.304
 30
0.0
 10
-3.1685
 20
-22.304
 30
0.0
 10
-3.0895
 20
-22.3379
 30
0.0
 10
-3.0255
 20
-22.384
 30
0.0
 10
-2.9757
 20
-22.4413
 30
0.0
 10
-2.9757
 20
-22.4413
 30
0.0
 10
-2.9267
 20
-22.4987
 30
0.0
 10
-2.89
 20
-22.5627
 30
0.0
 10
-2.8665
 20
-22.6332
 30
0.0
 10
-2.8665
 20
-22.6332
 30
0.0
 10
-2.8439
 20
-22.7038
 30
0.0
 10
-2.8327
 20
-22.7762
 30
0.0
 10
-2.8327
 20
-22.8506
 30
0.0
 10
-2.8327
 20
-22.8506
 30
0.0
 10
-2.8336
 20
-22.9616
 30
0.0
 10
-2.8581
 20
-23.0603
 30
0.0
 10
-2.907
 20
-23.1469
 30
0.0
 10
-2.907
 20
-23.1469
 30
0.0
 10
-2.9559
 20
-23.2344
 30
0.0
 10
-3.0217
 20
-23.3087
 30
0.0
 10
-3.1064
 20
-23.3698
 30
0.0
 10
-3.1064
 20
-23.3698
 30
0.0
 10
-3.1901
 20
-23.4319
 30
0.0
 10
-3.2852
 20
-23.4808
 30
0.0
 10
-3.3915
 20
-23.5166
 30
0.0
 10
-3.3915
 20
-23.5166
 30
0.0
 10
-3.5335
 20
-23.479
 30
0.0
 10
-3.6567
 20
-23.431
 30
0.0
 10
-3.7621
 20
-23.3727
 30
0.0
 10
-3.7621
 20
-23.3727
 30
0.0
 10
-3.8675
 20
-23.3134
 30
0.0
 10
-3.9493
 20
-23.24
 30
0.0
 10
-4.0067
 20
-23.1525
 30
0.0
 10
-4.0067
 20
-23.1525
 30
0.0
 10
-4.0641
 20
-23.065
 30
0.0
 10
-4.0923
 20
-22.9606
 30
0.0
 10
-4.0914
 20
-22.8393
 30
0.0
 10
-4.0914
 20
-22.8393
 30
0.0
 10
-4.0914
 20
-22.732
 30
0.0
 10
-4.0669
 20
-22.6351
 30
0.0
 10
-4.018
 20
-22.5467
 30
0.0
 10
-4.018
 20
-22.5467
 30
0.0
 10
-3.9691
 20
-22.4583
 30
0.0
 10
-3.8966
 20
-22.3877
 30
0.0
 10
-3.8016
 20
-22.3341
 30
0.0
 10
-3.8016
 20
-22.3341
 30
0.0
 10
-3.7075
 20
-22.2805
 30
0.0
 10
-3.5909
 20
-22.2532
 30
0.0
 10
-3.4535
 20
-22.2522
 30
0.0
  0
SPLINE
  5
5A
330
1F
100
AcDbEntity
  8
Ilustrace
 62
   250
100
AcDbSpline
210
0.0
220
0.0
230
1.0
 70
    11
 71
     3
 72
   124
 73
   120
 74
     0
 42
0.0000000001
 43
0.0000000001
 40
0.0
 40
0.0
 40
0.0
 40
0.0
 40
0.032258064516129
 40
0.032258064516129
 40
0.032258064516129
 40
0.032258064516129
 40
0.0645161290322581
 40
0.0645161290322581
 40
0.0645161290322581
 40
0.0645161290322581
 40
0.0967741935483871
 40
0.0967741935483871
 40
0.0967741935483871
 40
0.0967741935483871
 40
0.1290322580645161
 40
0.1290322580645161
 40
0.1290322580645161
 40
0.1290322580645161
 40
0.1612903225806452
 40
0.1612903225806452
 40
0.1612903225806452
 40
0.1612903225806452
 40
0.1935483870967742
 40
0.1935483870967742
 40
0.1935483870967742
 40
0.1935483870967742
 40
0.2258064516129032
 40
0.2258064516129032
 40
0.2258064516129032
 40
0.2258064516129032
 40
0.2580645161290323
 40
0.2580645161290323
 40
0.2580645161290323
 40
0.2580645161290323
 40
0.2903225806451613
 40
0.2903225806451613
 40
0.2903225806451613
 40
0.2903225806451613
 40
0.3225806451612903
 40
0.3225806451612903
 40
0.3225806451612903
 40
0.3225806451612903
 40
0.3548387096774194
 40
0.3548387096774194
 40
0.3548387096774194
 40
0.3548387096774194
 40
0.3870967741935484
 40
0.3870967741935484
 40
0.3870967741935484
 40
0.3870967741935484
 40
0.4193548387096774
 40
0.4193548387096774
 40
0.4193548387096774
 40
0.4193548387096774
 40
0.4516129032258064
 40
0.4516129032258064
 40
0.4516129032258064
 40
0.4516129032258064
 40
0.4838709677419355
 40
0.4838709677419355
 40
0.4838709677419355
 40
0.4838709677419355
 40
0.5161290322580645
 40
0.5161290322580645
 40
0.5161290322580645
 40
0.5161290322580645
 40
0.5483870967741935
 40
0.5483870967741935
 40
0.5483870967741935
 40
0.5483870967741935
 40
0.5806451612903226
 40
0.5806451612903226
 40
0.5806451612903226
 40
0.5806451612903226
 40
0.6129032258064516
 40
0.6129032258064516
 40
0.6129032258064516
 40
0.6129032258064516
 40
0.6451612903225806
 40
0.6451612903225806
 40
0.6451612903225806
 40
0.6451612903225806
 40
0.6774193548387096
 40
0.6774193548387096
 40
0.6774193548387096
 40
0.6774193548387096
 40
0.7096774193548387
 40
0.7096774193548387
 40
0.7096774193548387
 40
0.7096774193548387
 40
0.7419354838709677
 40
0.7419354838709677
 40
0.7419354838709677
 40
0.7419354838709677
 40
0.7741935483870968
 40
0.7741935483870968
 40
0.7741935483870968
 40
0.7741935483870968
 40
0.8064516129032258
 40
0.8064516129032258
 40
0.8064516129032258
 40
0.8064516129032258
 40
0.8387096774193549
 40
0.8387096774193549
 40
0.8387096774193549
 40
0.8387096774193549
 40
0.8709677419354839
 40
0.8709677419354839
 40
0.8709677419354839
 40
0.8709677419354839
 40
0.9032258064516129
 40
0.9032258064516129
 40
0.9032258064516129
 40
0.9032258064516129
 40
0.9354838709677419
 40
0.9354838709677419
 40
0.9354838709677419
 40
0.9354838709677419
 40
1.0
 40
1.0
 40
1.0
 40
1.0
 10
0.5822
 20
-25.6276
 30
0.0
 10
0.5822
 20
-25.6276
 30
0.0
 10
0.5822
 20
-25.2156
 30
0.0
 10
0.5822
 20
-25.2156
 30
0.0
 10
0.5822
 20
-25.2156
 30
0.0
 10
0.5822
 20
-25.2156
 30
0.0
 10
-1.0603
 20
-25.2156
 30
0.0
 10
-1.0603
 20
-25.2156
 30
0.0
 10
-1.0603
 20
-25.2156
 30
0.0
 10
-1.0603
 20
-25.2156
 30
0.0
 10
-1.0603
 20
-25.2043
 30
0.0
 10
-1.0603
 20
-25.2043
 30
0.0
 10
-1.0603
 20
-25.2043
 30
0.0
 10
-1.0603
 20
-25.2043
 30
0.0
 10
-0.7724
 20
-24.9333
 30
0.0
 10
-0.7724
 20
-24.9333
 30
0.0
 10
-0.7724
 20
-24.9333
 30
0.0
 10
-0.5786
 20
-24.748
 30
0.0
 10
-0.4037
 20
-24.5721
 30
0.0
 10
-0.2484
 20
-24.4065
 30
0.0
 10
-0.2484
 20
-24.4065
 30
0.0
 10
-0.0932
 20
-24.241
 30
0.0
 10
0.0394
 20
-24.0792
 30
0.0
 10
0.1495
 20
-23.923
 30
0.0
 10
0.1495
 20
-23.923
 30
0.0
 10
0.2605
 20
-23.7668
 30
0.0
 10
0.3442
 20
-23.6097
 30
0.0
 10
0.4035
 20
-23.4517
 30
0.0
 10
0.4035
 20
-23.4517
 30
0.0
 10
0.4618
 20
-23.2946
 30
0.0
 10
0.491
 20
-23.1318
 30
0.0
 10
0.4919
 20
-22.9634
 30
0.0
 10
0.4919
 20
-22.9634
 30
0.0
 10
0.4919
 20
-22.8308
 30
0.0
 10
0.4712
 20
-22.701
 30
0.0
 10
0.4279
 20
-22.5749
 30
0.0
 10
0.4279
 20
-22.5749
 30
0.0
 10
0.3847
 20
-22.4489
 30
0.0
 10
0.3169
 20
-22.335
 30
0.0
 10
0.2266
 20
-22.2334
 30
0.0
 10
0.2266
 20
-22.2334
 30
0.0
 10
0.1363
 20
-22.1309
 30
0.0
 10
0.0197
 20
-22.05
 30
0.0
 10
-0.1224
 20
-21.9898
 30
0.0
 10
-0.1224
 20
-21.9898
 30
0.0
 10
-0.2644
 20
-21.9286
 30
0.0
 10
-0.4338
 20
-21.8976
 30
0.0
 10
-0.6313
 20
-21.8967
 30
0.0
 10
-0.6313
 20
-21.8967
 30
0.0
 10
-0.7706
 20
-21.8976
 30
0.0
 10
-0.9032
 20
-21.9136
 30
0.0
 10
-1.0293
 20
-21.9465
 30
0.0
 10
-1.0293
 20
-21.9465
 30
0.0
 10
-1.1553
 20
-21.9794
 30
0.0
 10
-1.272
 20
-22.0237
 30
0.0
 10
-1.3792
 20
-22.0801
 30
0.0
 10
-1.3792
 20
-22.0801
 30
0.0
 10
-1.4855
 20
-22.1356
 30
0.0
 10
-1.5805
 20
-22.1986
 30
0.0
 10
-1.6642
 20
-22.2692
 30
0.0
 10
-1.6642
 20
-22.2692
 30
0.0
 10
-1.6642
 20
-22.2692
 30
0.0
 10
-1.5062
 20
-22.6191
 30
0.0
 10
-1.5062
 20
-22.6191
 30
0.0
 10
-1.5062
 20
-22.6191
 30
0.0
 10
-1.4498
 20
-22.5712
 30
0.0
 10
-1.382
 20
-22.5232
 30
0.0
 10
-1.303
 20
-22.4761
 30
0.0
 10
-1.303
 20
-22.4761
 30
0.0
 10
-1.224
 20
-22.4282
 30
0.0
 10
-1.1365
 20
-22.3896
 30
0.0
 10
-1.0396
 20
-22.3576
 30
0.0
 10
-1.0396
 20
-22.3576
 30
0.0
 10
-0.9427
 20
-22.3266
 30
0.0
 10
-0.8383
 20
-22.3096
 30
0.0
 10
-0.7273
 20
-22.3087
 30
0.0
 10
-0.7273
 20
-22.3087
 30
0.0
 10
-0.5909
 20
-22.3096
 30
0.0
 10
-0.4761
 20
-22.3294
 30
0.0
 10
-0.383
 20
-22.368
 30
0.0
 10
-0.383
 20
-22.368
 30
0.0
 10
-0.2908
 20
-22.4075
 30
0.0
 10
-0.2165
 20
-22.4602
 30
0.0
 10
-0.161
 20
-22.5269
 30
0.0
 10
-0.161
 20
-22.5269
 30
0.0
 10
-0.1055
 20
-22.5947
 30
0.0
 10
-0.065
 20
-22.6709
 30
0.0
 10
-0.0405
 20
-22.7565
 30
0.0
 10
-0.0405
 20
-22.7565
 30
0.0
 10
-0.0161
 20
-22.8421
 30
0.0
 10
-0.0039
 20
-22.9315
 30
0.0
 10
-0.0048
 20
-23.0255
 30
0.0
 10
-0.0048
 20
-23.0255
 30
0.0
 10
-0.0048
 20
-23.1629
 30
0.0
 10
-0.0321
 20
-23.2983
 30
0.0
 10
-0.0866
 20
-23.4329
 30
0.0
 10
-0.0866
 20
-23.4329
 30
0.0
 10
-0.1412
 20
-23.5683
 30
0.0
 10
-0.224
 20
-23.7094
 30
0.0
 10
-0.3359
 20
-23.8581
 30
0.0
 10
-0.3359
 20
-23.8581
 30
0.0
 10
-0.4479
 20
-24.0067
 30
0.0
 10
-0.5899
 20
-24.1695
 30
0.0
 10
-0.7621
 20
-24.3463
 30
0.0
 10
-0.7621
 20
-24.3463
 30
0.0
 10
-0.9333
 20
-24.5232
 30
0.0
 10
-1.1365
 20
-24.7226
 30
0.0
 10
-1.3707
 20
-24.9446
 30
0.0
 10
-1.3707
 20
-24.9446
 30
0.0
 10
-1.3707
 20
-24.9446
 30
0.0
 10
-1.7602
 20
-25.3228
 30
0.0
 10
-1.7602
 20
-25.3228
 30
0.0
 10
-1.7602
 20
-25.3228
 30
0.0
 10
-1.7602
 20
-25.3228
 30
0.0
 10
-1.7602
 20
-25.6276
 30
0.0
 10
-1.7602
 20
-25.6276
 30
0.0
 10
-1.7602
 20
-25.6276
 30
0.0
 10
-1.7602
 20
-25.6276
 30
0.0
 10
0.5822
 20
-25.6276
 30
0.0
 10
0.5822
 20
-25.6276
 30
0.0
  0
SPLINE
  5
5B
330
1F
100
AcDbEntity
  8
Ilustrace
 62
   250
100
AcDbSpline
210
0.0
220
0.0
230
1.0
 70
    11
 71
     3
 72
   124
 73
   120
 74
     0
 42
0.0000000001
 43
0.0000000001
 40
0.0
 40
0.0
 40
0.0
 40
0.0
 40
0.032258064516129
 40
0.032258064516129
 40
0.032258064516129
 40
0.032258064516129
 40
0.0645161290322581
 40
0.0645161290322581
 40
0.0645161290322581
 40
0.0645161290322581
 40
0.0967741935483871
 40
0.0967741935483871
 40
0.0967741935483871
 40
0.0967741935483871
 40
0.1290322580645161
 40
0.1290322580645161
 40
0.1290322580645161
 40
0.1290322580645161
 40
0.1612903225806452
 40
0.1612903225806452
 40
0.1612903225806452
 40
0.1612903225806452
 40
0.1935483870967742
 40
0.1935483870967742
 40
0.1935483870967742
 40
0.1935483870967742
 40
0.2258064516129032
 40
0.2258064516129032
 40
0.2258064516129032
 40
0.2258064516129032
 40
0.2580645161290323
 40
0.2580645161290323
 40
0.2580645161290323
 40
0.2580645161290323
 40
0.2903225806451613
 40
0.2903225806451613
 40
0.2903225806451613
 40
0.2903225806451613
 40
0.3225806451612903
 40
0.3225806451612903
 40
0.3225806451612903
 40
0.3225806451612903
 40
0.3548387096774194
 40
0.3548387096774194
 40
0.3548387096774194
 40
0.3548387096774194
 40
0.3870967741935484
 40
0.3870967741935484
 40
0.3870967741935484
 40
0.3870967741935484
 40
0.4193548387096774
 40
0.4193548387096774
 40
0.4193548387096774
 40
0.4193548387096774
 40
0.4516129032258064
 40
0.4516129032258064
 40
0.4516129032258064
 40
0.4516129032258064
 40
0.4838709677419355
 40
0.4838709677419355
 40
0.4838709677419355
 40
0.4838709677419355
 40
0.5161290322580645
 40
0.5161290322580645
 40
0.5161290322580645
 40
0.5161290322580645
 40
0.5483870967741935
 40
0.5483870967741935
 40
0.5483870967741935
 40
0.5483870967741935
 40
0.5806451612903226
 40
0.5806451612903226
 40
0.5806451612903226
 40
0.5806451612903226
 40
0.6129032258064516
 40
0.6129032258064516
 40
0.6129032258064516
 40
0.6129032258064516
 40
0.6451612903225806
 40
0.6451612903225806
 40
0.6451612903225806
 40
0.6451612903225806
 40
0.6774193548387096
 40
0.6774193548387096
 40
0.6774193548387096
 40
0.6774193548387096
 40
0.7096774193548387
 40
0.7096774193548387
 40
0.7096774193548387
 40
0.7096774193548387
 40
0.7419354838709677
 40
0.7419354838709677
 40
0.7419354838709677
 40
0.7419354838709677
 40
0.7741935483870968
 40
0.7741935483870968
 40
0.7741935483870968
 40
0.7741935483870968
 40
0.8064516129032258
 40
0.8064516129032258
 40
0.8064516129032258
 40
0.8064516129032258
 40
0.8387096774193549
 40
0.8387096774193549
 40
0.8387096774193549
 40
0.8387096774193549
 40
0.8709677419354839
 40
0.8709677419354839
 40
0.8709677419354839
 40
0.8709677419354839
 40
0.9032258064516129
 40
0.9032258064516129
 40
0.9032258064516129
 40
0.9032258064516129
 40
0.9354838709677419
 40
0.9354838709677419
 40
0.9354838709677419
 40
0.9354838709677419
 40
1.0
 40
1.0
 40
1.0
 40
1.0
 10
27.2975
 20
9.5765
 30
0.0
 10
27.2975
 20
9.5765
 30
0.0
 10
27.5888
 20
9.8678
 30
0.0
 10
27.5888
 20
9.8678
 30
0.0
 10
27.5888
 20
9.8678
 30
0.0
 10
27.5888
 20
9.8678
 30
0.0
 10
26.4274
 20
11.0292
 30
0.0
 10
26.4274
 20
11.0292
 30
0.0
 10
26.4274
 20
11.0292
 30
0.0
 10
26.4274
 20
11.0292
 30
0.0
 10
26.4354
 20
11.0372
 30
0.0
 10
26.4354
 20
11.0372
 30
0.0
 10
26.4354
 20
11.0372
 30
0.0
 10
26.4354
 20
11.0372
 30
0.0
 10
26.8306
 20
11.0252
 30
0.0
 10
26.8306
 20
11.0252
 30
0.0
 10
26.8306
 20
11.0252
 30
0.0
 10
27.0987
 20
11.0192
 30
0.0
 10
27.3467
 20
11.0199
 30
0.0
 10
27.5736
 20
11.0272
 30
0.0
 10
27.5736
 20
11.0272
 30
0.0
 10
27.8004
 20
11.0345
 30
0.0
 10
28.0086
 20
11.0552
 30
0.0
 10
28.1969
 20
11.0877
 30
0.0
 10
28.1969
 20
11.0877
 30
0.0
 10
28.3858
 20
11.1197
 30
0.0
 10
28.5561
 20
11.1716
 30
0.0
 10
28.7097
 20
11.2414
 30
0.0
 10
28.7097
 20
11.2414
 30
0.0
 10
28.8621
 20
11.3113
 30
0.0
 10
28.9978
 20
11.4057
 30
0.0
 10
29.1175
 20
11.5242
 30
0.0
 10
29.1175
 20
11.5242
 30
0.0
 10
29.2113
 20
11.6179
 30
0.0
 10
29.2884
 20
11.7244
 30
0.0
 10
29.347
 20
11.8441
 30
0.0
 10
29.347
 20
11.8441
 30
0.0
 10
29.4055
 20
11.9638
 30
0.0
 10
29.4381
 20
12.0923
 30
0.0
 10
29.4461
 20
12.228
 30
0.0
 10
29.4461
 20
12.228
 30
0.0
 10
29.4548
 20
12.3643
 30
0.0
 10
29.4295
 20
12.5039
 30
0.0
 10
29.3716
 20
12.647
 30
0.0
 10
29.3716
 20
12.647
 30
0.0
 10
29.3145
 20
12.7907
 30
0.0
 10
29.2166
 20
12.9324
 30
0.0
 10
29.0776
 20
13.0727
 30
0.0
 10
29.0776
 20
13.0727
 30
0.0
 10
28.9784
 20
13.1705
 30
0.0
 10
28.8734
 20
13.253
 30
0.0
 10
28.7609
 20
13.3189
 30
0.0
 10
28.7609
 20
13.3189
 30
0.0
 10
28.6486
 20
13.3847
 30
0.0
 10
28.5347
 20
13.4359
 30
0.0
 10
28.4191
 20
13.4718
 30
0.0
 10
28.4191
 20
13.4718
 30
0.0
 10
28.3046
 20
13.5078
 30
0.0
 10
28.1929
 20
13.5304
 30
0.0
 10
28.0838
 20
13.5396
 30
0.0
 10
28.0838
 20
13.5396
 30
0.0
 10
28.0838
 20
13.5396
 30
0.0
 10
27.9481
 20
13.1805
 30
0.0
 10
27.9481
 20
13.1805
 30
0.0
 10
27.9481
 20
13.1805
 30
0.0
 10
28.0219
 20
13.1745
 30
0.0
 10
28.1038
 20
13.1605
 30
0.0
 10
28.1929
 20
13.1379
 30
0.0
 10
28.1929
 20
13.1379
 30
0.0
 10
28.2827
 20
13.1159
 30
0.0
 10
28.3718
 20
13.0814
 30
0.0
 10
28.463
 20
13.0355
 30
0.0
 10
28.463
 20
13.0355
 30
0.0
 10
28.5534
 20
12.9889
 30
0.0
 10
28.6392
 20
12.9271
 30
0.0
 10
28.7184
 20
12.8492
 30
0.0
 10
28.7184
 20
12.8492
 30
0.0
 10
28.8142
 20
12.7521
 30
0.0
 10
28.8814
 20
12.657
 30
0.0
 10
28.9199
 20
12.5638
 30
0.0
 10
28.9199
 20
12.5638
 30
0.0
 10
28.9572
 20
12.4707
 30
0.0
 10
28.9724
 20
12.3809
 30
0.0
 10
28.9645
 20
12.2945
 30
0.0
 10
28.9645
 20
12.2945
 30
0.0
 10
28.9558
 20
12.2073
 30
0.0
 10
28.9306
 20
12.1248
 30
0.0
 10
28.8874
 20
12.0469
 30
0.0
 10
28.8874
 20
12.0469
 30
0.0
 10
28.8441
 20
11.9692
 30
0.0
 10
28.7895
 20
11.8973
 30
0.0
 10
28.7224
 20
11.8315
 30
0.0
 10
28.7224
 20
11.8315
 30
0.0
 10
28.6252
 20
11.7343
 30
0.0
 10
28.5102
 20
11.6579
 30
0.0
 10
28.3765
 20
11.6013
 30
0.0
 10
28.3765
 20
11.6013
 30
0.0
 10
28.2421
 20
11.5441
 30
0.0
 10
28.0838
 20
11.5029
 30
0.0
 10
27.8995
 20
11.4769
 30
0.0
 10
27.8995
 20
11.4769
 30
0.0
 10
27.7153
 20
11.451
 30
0.0
 10
27.4997
 20
11.4363
 30
0.0
 10
27.253
 20
11.433
 30
0.0
 10
27.253
 20
11.433
 30
0.0
 10
27.0068
 20
11.429
 30
0.0
 10
26.7221
 20
11.4317
 30
0.0
 10
26.3996
 20
11.4403
 30
0.0
 10
26.3996
 20
11.4403
 30
0.0
 10
26.3996
 20
11.4403
 30
0.0
 10
25.8567
 20
11.4483
 30
0.0
 10
25.8567
 20
11.4483
 30
0.0
 10
25.8567
 20
11.4483
 30
0.0
 10
25.8567
 20
11.4483
 30
0.0
 10
25.6412
 20
11.2328
 30
0.0
 10
25.6412
 20
11.2328
 30
0.0
 10
25.6412
 20
11.2328
 30
0.0
 10
25.6412
 20
11.2328
 30
0.0
 10
27.2975
 20
9.5765
 30
0.0
 10
27.2975
 20
9.5765
 30
0.0
  0
SPLINE
  5
5C
330
1F
100
AcDbEntity
  8
Ilustrace
 62
   250
100
AcDbSpline
210
0.0
220
0.0
230
1.0
 70
    11
 71
     3
 72
    36
 73
    32
 74
     0
 42
0.0000000001
 43
0.0000000001
 40
0.0
 40
0.0
 40
0.0
 40
0.0
 40
0.1111111111111111
 40
0.1111111111111111
 40
0.1111111111111111
 40
0.1111111111111111
 40
0.2222222222222222
 40
0.2222222222222222
 40
0.2222222222222222
 40
0.2222222222222222
 40
0.3333333333333333
 40
0.3333333333333333
 40
0.3333333333333333
 40
0.3333333333333333
 40
0.4444444444444444
 40
0.4444444444444444
 40
0.4444444444444444
 40
0.4444444444444444
 40
0.5555555555555556
 40
0.5555555555555556
 40
0.5555555555555556
 40
0.5555555555555556
 40
0.6666666666666666
 40
0.6666666666666666
 40
0.6666666666666666
 40
0.6666666666666666
 40
0.7777777777777778
 40
0.7777777777777778
 40
0.7777777777777778
 40
0.7777777777777778
 40
1.0
 40
1.0
 40
1.0
 40
1.0
 10
30.3309
 20
11.7317
 30
0.0
 10
30.3309
 20
11.7317
 30
0.0
 10
30.0395
 20
11.4403
 30
0.0
 10
30.0395
 20
11.4403
 30
0.0
 10
30.0395
 20
11.4403
 30
0.0
 10
30.0395
 20
11.4403
 30
0.0
 10
31.3087
 20
10.1711
 30
0.0
 10
31.3087
 20
10.1711
 30
0.0
 10
31.3087
 20
10.1711
 30
0.0
 10
31.3087
 20
10.1711
 30
0.0
 10
31.3007
 20
10.1631
 30
0.0
 10
31.3007
 20
10.1631
 30
0.0
 10
31.3007
 20
10.1631
 30
0.0
 10
31.3007
 20
10.1631
 30
0.0
 10
27.8802
 20
8.9937
 30
0.0
 10
27.8802
 20
8.9937
 30
0.0
 10
27.8802
 20
8.9937
 30
0.0
 10
27.8802
 20
8.9937
 30
0.0
 10
28.2435
 20
8.6305
 30
0.0
 10
28.2435
 20
8.6305
 30
0.0
 10
28.2435
 20
8.6305
 30
0.0
 10
28.2435
 20
8.6305
 30
0.0
 10
31.7357
 20
9.8638
 30
0.0
 10
31.7357
 20
9.8638
 30
0.0
 10
31.7357
 20
9.8638
 30
0.0
 10
31.7357
 20
9.8638
 30
0.0
 10
31.9672
 20
10.0953
 30
0.0
 10
31.9672
 20
10.0953
 30
0.0
 10
31.9672
 20
10.0953
 30
0.0
 10
31.9672
 20
10.0953
 30
0.0
 10
30.3309
 20
11.7317
 30
0.0
 10
30.3309
 20
11.7317
 30
0.0
  0
SPLINE
  5
5D
330
1F
100
AcDbEntity
  8
Ilustrace
 62
   250
100
AcDbSpline
210
0.0
220
0.0
230
1.0
 70
    11
 71
     3
 72
    56
 73
    52
 74
     0
 42
0.0000000001
 43
0.0000000001
 40
0.0
 40
0.0
 40
0.0
 40
0.0
 40
0.0714285714285714
 40
0.0714285714285714
 40
0.0714285714285714
 40
0.0714285714285714
 40
0.1428571428571428
 40
0.1428571428571428
 40
0.1428571428571428
 40
0.1428571428571428
 40
0.2142857142857143
 40
0.2142857142857143
 40
0.2142857142857143
 40
0.2142857142857143
 40
0.2857142857142857
 40
0.2857142857142857
 40
0.2857142857142857
 40
0.2857142857142857
 40
0.3571428571428572
 40
0.3571428571428572
 40
0.3571428571428572
 40
0.3571428571428572
 40
0.4285714285714285
 40
0.4285714285714285
 40
0.4285714285714285
 40
0.4285714285714285
 40
0.5
 40
0.5
 40
0.5
 40
0.5
 40
0.5714285714285714
 40
0.5714285714285714
 40
0.5714285714285714
 40
0.5714285714285714
 40
0.6428571428571429
 40
0.6428571428571429
 40
0.6428571428571429
 40
0.6428571428571429
 40
0.7142857142857143
 40
0.7142857142857143
 40
0.7142857142857143
 40
0.7142857142857143
 40
0.7857142857142857
 40
0.7857142857142857
 40
0.7857142857142857
 40
0.7857142857142857
 40
0.8571428571428571
 40
0.8571428571428571
 40
0.8571428571428571
 40
0.8571428571428571
 40
1.0
 40
1.0
 40
1.0
 40
1.0
 10
33.2444
 20
8.9058
 30
0.0
 10
33.1121
 20
9.0382
 30
0.0
 10
32.9618
 20
9.1301
 30
0.0
 10
32.7928
 20
9.182
 30
0.0
 10
32.7928
 20
9.182
 30
0.0
 10
32.6238
 20
9.2339
 30
0.0
 10
32.4428
 20
9.2431
 30
0.0
 10
32.2473
 20
9.2099
 30
0.0
 10
32.2473
 20
9.2099
 30
0.0
 10
32.0517
 20
9.1766
 30
0.0
 10
31.8482
 20
9.0982
 30
0.0
 10
31.636
 20
8.9751
 30
0.0
 10
31.636
 20
8.9751
 30
0.0
 10
31.4245
 20
8.8514
 30
0.0
 10
31.2089
 20
8.681
 30
0.0
 10
30.9894
 20
8.4628
 30
0.0
 10
30.9894
 20
8.4628
 30
0.0
 10
30.7067
 20
8.1722
 30
0.0
 10
30.5025
 20
7.8921
 30
0.0
 10
30.3768
 20
7.6214
 30
0.0
 10
30.3768
 20
7.6214
 30
0.0
 10
30.251
 20
7.3507
 30
0.0
 10
30.2012
 20
7.0999
 30
0.0
 10
30.2264
 20
6.8697
 30
0.0
 10
30.2264
 20
6.8697
 30
0.0
 10
30.2517
 20
6.6396
 30
0.0
 10
30.3489
 20
6.4387
 30
0.0
 10
30.5185
 20
6.2677
 30
0.0
 10
30.5185
 20
6.2677
 30
0.0
 10
30.7101
 20
6.0775
 30
0.0
 10
30.9255
 20
5.9684
 30
0.0
 10
31.165
 20
5.9391
 30
0.0
 10
31.165
 20
5.9391
 30
0.0
 10
31.4045
 20
5.9098
 30
0.0
 10
31.6612
 20
5.9617
 30
0.0
 10
31.9354
 20
6.0947
 30
0.0
 10
31.9354
 20
6.0947
 30
0.0
 10
32.2101
 20
6.2272
 30
0.0
 10
32.4941
 20
6.4406
 30
0.0
 10
32.7894
 20
6.7347
 30
0.0
 10
32.7894
 20
6.7347
 30
0.0
 10
33.0648
 20
7.0114
 30
0.0
 10
33.2671
 20
7.2815
 30
0.0
 10
33.3955
 20
7.5442
 30
0.0
 10
33.3955
 20
7.5442
 30
0.0
 10
33.5239
 20
7.807
 30
0.0
 10
33.5757
 20
8.0544
 30
0.0
 10
33.5511
 20
8.2852
 30
0.0
 10
33.5511
 20
8.2852
 30
0.0
 10
33.5271
 20
8.5168
 30
0.0
 10
33.4254
 20
8.7236
 30
0.0
 10
33.2444
 20
8.9058
 30
0.0
  0
SPLINE
  5
5E
330
1F
100
AcDbEntity
  8
Ilustrace
 62
   250
100
AcDbSpline
210
0.0
220
0.0
230
1.0
 70
    11
 71
     3
 72
    56
 73
    52
 74
     0
 42
0.0000000001
 43
0.0000000001
 40
0.0
 40
0.0
 40
0.0
 40
0.0
 40
0.0714285714285714
 40
0.0714285714285714
 40
0.0714285714285714
 40
0.0714285714285714
 40
0.1428571428571428
 40
0.1428571428571428
 40
0.1428571428571428
 40
0.1428571428571428
 40
0.2142857142857143
 40
0.2142857142857143
 40
0.2142857142857143
 40
0.2142857142857143
 40
0.2857142857142857
 40
0.2857142857142857
 40
0.2857142857142857
 40
0.2857142857142857
 40
0.3571428571428572
 40
0.3571428571428572
 40
0.3571428571428572
 40
0.3571428571428572
 40
0.4285714285714285
 40
0.4285714285714285
 40
0.4285714285714285
 40
0.4285714285714285
 40
0.5
 40
0.5
 40
0.5
 40
0.5
 40
0.5714285714285714
 40
0.5714285714285714
 40
0.5714285714285714
 40
0.5714285714285714
 40
0.6428571428571429
 40
0.6428571428571429
 40
0.6428571428571429
 40
0.6428571428571429
 40
0.7142857142857143
 40
0.7142857142857143
 40
0.7142857142857143
 40
0.7142857142857143
 40
0.7857142857142857
 40
0.7857142857142857
 40
0.7857142857142857
 40
0.7857142857142857
 40
0.8571428571428571
 40
0.8571428571428571
 40
0.8571428571428571
 40
0.8571428571428571
 40
1.0
 40
1.0
 40
1.0
 40
1.0
 10
32.9491
 20
8.6584
 30
0.0
 10
33.0402
 20
8.566
 30
0.0
 10
33.0948
 20
8.4622
 30
0.0
 10
33.1114
 20
8.3457
 30
0.0
 10
33.1114
 20
8.3457
 30
0.0
 10
33.128
 20
8.2294
 30
0.0
 10
33.1114
 20
8.1036
 30
0.0
 10
33.0609
 20
7.9679
 30
0.0
 10
33.0609
 20
7.9679
 30
0.0
 10
33.0109
 20
7.8329
 30
0.0
 10
32.9311
 20
7.6893
 30
0.0
 10
32.8227
 20
7.5396
 30
0.0
 10
32.8227
 20
7.5396
 30
0.0
 10
32.7137
 20
7.3892
 30
0.0
 10
32.5786
 20
7.2342
 30
0.0
 10
32.4183
 20
7.0739
 30
0.0
 10
32.4183
 20
7.0739
 30
0.0
 10
32.1961
 20
6.8518
 30
0.0
 10
31.9852
 20
6.6794
 30
0.0
 10
31.7857
 20
6.5571
 30
0.0
 10
31.7857
 20
6.5571
 30
0.0
 10
31.5861
 20
6.4334
 30
0.0
 10
31.4032
 20
6.3675
 30
0.0
 10
31.2376
 20
6.3575
 30
0.0
 10
31.2376
 20
6.3575
 30
0.0
 10
31.0719
 20
6.3475
 30
0.0
 10
30.9296
 20
6.402
 30
0.0
 10
30.8098
 20
6.5191
 30
0.0
 10
30.8098
 20
6.5191
 30
0.0
 10
30.7034
 20
6.6269
 30
0.0
 10
30.6522
 20
6.7606
 30
0.0
 10
30.6554
 20
6.9223
 30
0.0
 10
30.6554
 20
6.9223
 30
0.0
 10
30.6595
 20
7.0833
 30
0.0
 10
30.7186
 20
7.2635
 30
0.0
 10
30.8324
 20
7.4637
 30
0.0
 10
30.8324
 20
7.4637
 30
0.0
 10
30.9468
 20
7.6646
 30
0.0
 10
31.1158
 20
7.8775
 30
0.0
 10
31.3407
 20
8.1036
 30
0.0
 10
31.3407
 20
8.1036
 30
0.0
 10
31.5775
 20
8.3392
 30
0.0
 10
31.7983
 20
8.5135
 30
0.0
 10
32.0045
 20
8.6291
 30
0.0
 10
32.0045
 20
8.6291
 30
0.0
 10
32.2101
 20
8.7442
 30
0.0
 10
32.3929
 20
8.8034
 30
0.0
 10
32.5546
 20
8.8068
 30
0.0
 10
32.5546
 20
8.8068
 30
0.0
 10
32.7156
 20
8.8095
 30
0.0
 10
32.8473
 20
8.7602
 30
0.0
 10
32.9491
 20
8.6584
 30
0.0
  0
SPLINE
  5
5F
330
1F
100
AcDbEntity
  8
Ilustrace
 62
   250
370
    15
100
AcDbSpline
210
0.0
220
0.0
230
1.0
 70
    24
 71
     3
 72
     8
 73
     4
 74
     0
 42
0.0000000001
 43
0.0000000001
 40
0.0
 40
0.0
 40
0.0
 40
0.0
 40
1.0
 40
1.0
 40
1.0
 40
1.0
 10
-57.1452
 20
-26.7069
 30
0.0
 10
-57.1452
 20
-26.7069
 30
0.0
 10
-57.1452
 20
-20.39
 30
0.0
 10
-57.1452
 20
-20.39
 30
0.0
  0
SPLINE
  5
60
330
1F
100
AcDbEntity
  8
Ilustrace
 62
   250
370
    15
100
AcDbSpline
210
0.0
220
0.0
230
1.0
 70
    24
 71
     3
 72
     8
 73
     4
 74
     0
 42
0.0000000001
 43
0.0000000001
 40
0.0
 40
0.0
 40
0.0
 40
0.0
 40
1.0
 40
1.0
 40
1.0
 40
1.0
 10
-2.3141
 20
34.4961
 30
0.0
 10
-2.3141
 20
34.4961
 30
0.0
 10
-0.1746
 20
36.6356
 30
0.0
 10
-0.1746
 20
36.6356
 30
0.0
  0
SPLINE
  5
61
330
1F
100
AcDbEntity
  8
Ilustrace
 62
   250
370
    15
100
AcDbSpline
210
0.0
220
0.0
230
1.0
 70
    24
 71
     3
 72
     8
 73
     4
 74
     0
 42
0.0000000001
 43
0.0000000001
 40
0.0
 40
0.0
 40
0.0
 40
0.0
 40
1.0
 40
1.0
 40
1.0
 40
1.0
 10
52.1296
 20
-32.3682
 30
0.0
 10
52.1296
 20
-32.3682
 30
0.0
 10
57.084
 20
-32.3682
 30
0.0
 10
57.084
 20
-32.3682
 30
0.0
  0
SPLINE
  5
62
330
1F
100
AcDbEntity
  8
Ilustrace
 62
   250
370
    15
100
AcDbSpline
210
0.0
220
0.0
230
1.0
 70
    24
 71
     3
 72
     8
 73
     4
 74
     0
 42
0.0000000001
 43
0.0000000001
 40
0.0
 40
0.0
 40
0.0
 40
0.0
 40
1.0
 40
1.0
 40
1.0
 40
1.0
 10
52.3317
 20
-31.1375
 30
0.0
 10
52.3317
 20
-31.1375
 30
0.0
 10
57.1454
 20
-31.1375
 30
0.0
 10
57.1454
 20
-31.1375
 30
0.0
  0
SPLINE
  5
63
330
1F
100
AcDbEntity
  8
Ilustrace
 62
   250
370
    15
100
AcDbSpline
210
0.0
220
0.0
230
1.0
 70
    24
 71
     3
 72
     8
 73
     4
 74
     0
 42
0.0000000001
 43
0.0000000001
 40
0.0
 40
0.0
 40
0.0
 40
0.0
 40
1.0
 40
1.0
 40
1.0
 40
1.0
 10
56.649
 20
-25.953
 30
0.0
 10
56.649
 20
-25.953
 30
0.0
 10
56.649
 20
-36.6356
 30
0.0
 10
56.649
 20
-36.6356
 30
0.0
  0
SPLINE
  5
64
330
1F
100
AcDbEntity
  8
Ilustrace
 62
   250
100
AcDbSpline
210
0.0
220
0.0
230
1.0
 70
    11
 71
     3
 72
    48
 73
    44
 74
     0
 42
0.0000000001
 43
0.0000000001
 40
0.0
 40
0.0
 40
0.0
 40
0.0
 40
0.0833333333333333
 40
0.0833333333333333
 40
0.0833333333333333
 40
0.0833333333333333
 40
0.1666666666666667
 40
0.1666666666666667
 40
0.1666666666666667
 40
0.1666666666666667
 40
0.25
 40
0.25
 40
0.25
 40
0.25
 40
0.3333333333333333
 40
0.3333333333333333
 40
0.3333333333333333
 40
0.3333333333333333
 40
0.4166666666666667
 40
0.4166666666666667
 40
0.4166666666666667
 40
0.4166666666666667
 40
0.5
 40
0.5
 40
0.5
 40
0.5
 40
0.5833333333333334
 40
0.5833333333333334
 40
0.5833333333333334
 40
0.5833333333333334
 40
0.6666666666666666
 40
0.6666666666666666
 40
0.6666666666666666
 40
0.6666666666666666
 40
0.75
 40
0.75
 40
0.75
 40
0.75
 40
0.8333333333333334
 40
0.8333333333333334
 40
0.8333333333333334
 40
0.8333333333333334
 40
1.0
 40
1.0
 40
1.0
 40
1.0
 10
55.9706
 20
-27.4431
 30
0.0
 10
55.9706
 20
-27.4431
 30
0.0
 10
54.9659
 20
-27.4431
 30
0.0
 10
54.9659
 20
-27.4431
 30
0.0
 10
54.9659
 20
-27.4431
 30
0.0
 10
54.9659
 20
-27.4431
 30
0.0
 10
54.9659
 20
-26.9295
 30
0.0
 10
54.9659
 20
-26.9295
 30
0.0
 10
54.9659
 20
-26.9295
 30
0.0
 10
54.9659
 20
-26.9295
 30
0.0
 10
54.5821
 20
-26.9295
 30
0.0
 10
54.5821
 20
-26.9295
 30
0.0
 10
54.5821
 20
-26.9295
 30
0.0
 10
54.5821
 20
-26.9295
 30
0.0
 10
54.5821
 20
-27.4431
 30
0.0
 10
54.5821
 20
-27.4431
 30
0.0
 10
54.5821
 20
-27.4431
 30
0.0
 10
54.5821
 20
-27.4431
 30
0.0
 10
52.3017
 20
-27.4431
 30
0.0
 10
52.3017
 20
-27.4431
 30
0.0
 10
52.3017
 20
-27.4431
 30
0.0
 10
52.3017
 20
-27.4431
 30
0.0
 10
52.3017
 20
-27.9794
 30
0.0
 10
52.3017
 20
-27.9794
 30
0.0
 10
52.3017
 20
-27.9794
 30
0.0
 10
52.3017
 20
-27.9794
 30
0.0
 10
54.6442
 20
-29.6162
 30
0.0
 10
54.6442
 20
-29.6162
 30
0.0
 10
54.6442
 20
-29.6162
 30
0.0
 10
54.6442
 20
-29.6162
 30
0.0
 10
54.9659
 20
-29.6162
 30
0.0
 10
54.9659
 20
-29.6162
 30
0.0
 10
54.9659
 20
-29.6162
 30
0.0
 10
54.9659
 20
-29.6162
 30
0.0
 10
54.9659
 20
-27.9116
 30
0.0
 10
54.9659
 20
-27.9116
 30
0.0
 10
54.9659
 20
-27.9116
 30
0.0
 10
54.9659
 20
-27.9116
 30
0.0
 10
55.9706
 20
-27.9116
 30
0.0
 10
55.9706
 20
-27.9116
 30
0.0
 10
55.9706
 20
-27.9116
 30
0.0
 10
55.9706
 20
-27.9116
 30
0.0
 10
55.9706
 20
-27.4431
 30
0.0
 10
55.9706
 20
-27.4431
 30
0.0
  0
SPLINE
  5
65
330
1F
100
AcDbEntity
  8
Ilustrace
 62
   250
100
AcDbSpline
210
0.0
220
0.0
230
1.0
 70
    11
 71
     3
 72
    36
 73
    32
 74
     0
 42
0.0000000001
 43
0.0000000001
 40
0.0
 40
0.0
 40
0.0
 40
0.0
 40
0.1111111111111111
 40
0.1111111111111111
 40
0.1111111111111111
 40
0.1111111111111111
 40
0.2222222222222222
 40
0.2222222222222222
 40
0.2222222222222222
 40
0.2222222222222222
 40
0.3333333333333333
 40
0.3333333333333333
 40
0.3333333333333333
 40
0.3333333333333333
 40
0.4444444444444444
 40
0.4444444444444444
 40
0.4444444444444444
 40
0.4444444444444444
 40
0.5555555555555556
 40
0.5555555555555556
 40
0.5555555555555556
 40
0.5555555555555556
 40
0.6666666666666666
 40
0.6666666666666666
 40
0.6666666666666666
 40
0.6666666666666666
 40
0.7777777777777778
 40
0.7777777777777778
 40
0.7777777777777778
 40
0.7777777777777778
 40
1.0
 40
1.0
 40
1.0
 40
1.0
 10
54.5821
 20
-29.1139
 30
0.0
 10
54.5821
 20
-29.1139
 30
0.0
 10
54.5708
 20
-29.1139
 30
0.0
 10
54.5708
 20
-29.1139
 30
0.0
 10
54.5708
 20
-29.1139
 30
0.0
 10
54.5708
 20
-29.1139
 30
0.0
 10
53.3234
 20
-28.2164
 30
0.0
 10
53.3234
 20
-28.2164
 30
0.0
 10
53.3234
 20
-28.2164
 30
0.0
 10
53.2397
 20
-28.1666
 30
0.0
 10
53.155
 20
-28.1167
 30
0.0
 10
53.0694
 20
-28.0678
 30
0.0
 10
53.0694
 20
-28.0678
 30
0.0
 10
52.9828
 20
-28.0198
 30
0.0
 10
52.8869
 20
-27.9671
 30
0.0
 10
52.7815
 20
-27.9116
 30
0.0
 10
52.7815
 20
-27.9116
 30
0.0
 10
52.7815
 20
-27.9116
 30
0.0
 10
52.7815
 20
-27.8947
 30
0.0
 10
52.7815
 20
-27.8947
 30
0.0
 10
52.7815
 20
-27.8947
 30
0.0
 10
52.9734
 20
-27.906
 30
0.0
 10
53.1653
 20
-27.9116
 30
0.0
 10
53.3572
 20
-27.9116
 30
0.0
 10
53.3572
 20
-27.9116
 30
0.0
 10
53.3572
 20
-27.9116
 30
0.0
 10
54.5821
 20
-27.9116
 30
0.0
 10
54.5821
 20
-27.9116
 30
0.0
 10
54.5821
 20
-27.9116
 30
0.0
 10
54.5821
 20
-27.9116
 30
0.0
 10
54.5821
 20
-29.1139
 30
0.0
 10
54.5821
 20
-29.1139
 30
0.0
  0
SPLINE
  5
66
330
1F
100
AcDbEntity
  8
Ilustrace
 62
   250
100
AcDbSpline
210
0.0
220
0.0
230
1.0
 70
    11
 71
     3
 72
   604
 73
   600
 74
     0
 42
0.0000000001
 43
0.0000000001
 40
0.0
 40
0.0
 40
0.0
 40
0.0
 40
0.0066225165562914
 40
0.0066225165562914
 40
0.0066225165562914
 40
0.0066225165562914
 40
0.0132450331125828
 40
0.0132450331125828
 40
0.0132450331125828
 40
0.0132450331125828
 40
0.0198675496688742
 40
0.0198675496688742
 40
0.0198675496688742
 40
0.0198675496688742
 40
0.0264900662251656
 40
0.0264900662251656
 40
0.0264900662251656
 40
0.0264900662251656
 40
0.033112582781457
 40
0.033112582781457
 40
0.033112582781457
 40
0.033112582781457
 40
0.0397350993377483
 40
0.0397350993377483
 40
0.0397350993377483
 40
0.0397350993377483
 40
0.0463576158940397
 40
0.0463576158940397
 40
0.0463576158940397
 40
0.0463576158940397
 40
0.0529801324503311
 40
0.0529801324503311
 40
0.0529801324503311
 40
0.0529801324503311
 40
0.0596026490066225
 40
0.0596026490066225
 40
0.0596026490066225
 40
0.0596026490066225
 40
0.0662251655629139
 40
0.0662251655629139
 40
0.0662251655629139
 40
0.0662251655629139
 40
0.0728476821192053
 40
0.0728476821192053
 40
0.0728476821192053
 40
0.0728476821192053
 40
0.0794701986754967
 40
0.0794701986754967
 40
0.0794701986754967
 40
0.0794701986754967
 40
0.0860927152317881
 40
0.0860927152317881
 40
0.0860927152317881
 40
0.0860927152317881
 40
0.0927152317880795
 40
0.0927152317880795
 40
0.0927152317880795
 40
0.0927152317880795
 40
0.0993377483443709
 40
0.0993377483443709
 40
0.0993377483443709
 40
0.0993377483443709
 40
0.1059602649006623
 40
0.1059602649006623
 40
0.1059602649006623
 40
0.1059602649006623
 40
0.1125827814569536
 40
0.1125827814569536
 40
0.1125827814569536
 40
0.1125827814569536
 40
0.119205298013245
 40
0.119205298013245
 40
0.119205298013245
 40
0.119205298013245
 40
0.1258278145695364
 40
0.1258278145695364
 40
0.1258278145695364
 40
0.1258278145695364
 40
0.1324503311258278
 40
0.1324503311258278
 40
0.1324503311258278
 40
0.1324503311258278
 40
0.1390728476821192
 40
0.1390728476821192
 40
0.1390728476821192
 40
0.1390728476821192
 40
0.1456953642384106
 40
0.1456953642384106
 40
0.1456953642384106
 40
0.1456953642384106
 40
0.152317880794702
 40
0.152317880794702
 40
0.152317880794702
 40
0.152317880794702
 40
0.1589403973509934
 40
0.1589403973509934
 40
0.1589403973509934
 40
0.1589403973509934
 40
0.1655629139072848
 40
0.1655629139072848
 40
0.1655629139072848
 40
0.1655629139072848
 40
0.1721854304635762
 40
0.1721854304635762
 40
0.1721854304635762
 40
0.1721854304635762
 40
0.1788079470198675
 40
0.1788079470198675
 40
0.1788079470198675
 40
0.1788079470198675
 40
0.1854304635761589
 40
0.1854304635761589
 40
0.1854304635761589
 40
0.1854304635761589
 40
0.1920529801324503
 40
0.1920529801324503
 40
0.1920529801324503
 40
0.1920529801324503
 40
0.1986754966887417
 40
0.1986754966887417
 40
0.1986754966887417
 40
0.1986754966887417
 40
0.2052980132450331
 40
0.2052980132450331
 40
0.2052980132450331
 40
0.2052980132450331
 40
0.2119205298013245
 40
0.2119205298013245
 40
0.2119205298013245
 40
0.2119205298013245
 40
0.2185430463576159
 40
0.2185430463576159
 40
0.2185430463576159
 40
0.2185430463576159
 40
0.2251655629139073
 40
0.2251655629139073
 40
0.2251655629139073
 40
0.2251655629139073
 40
0.2317880794701987
 40
0.2317880794701987
 40
0.2317880794701987
 40
0.2317880794701987
 40
0.2384105960264901
 40
0.2384105960264901
 40
0.2384105960264901
 40
0.2384105960264901
 40
0.2450331125827815
 40
0.2450331125827815
 40
0.2450331125827815
 40
0.2450331125827815
 40
0.2516556291390729
 40
0.2516556291390729
 40
0.2516556291390729
 40
0.2516556291390729
 40
0.2582781456953642
 40
0.2582781456953642
 40
0.2582781456953642
 40
0.2582781456953642
 40
0.2649006622516556
 40
0.2649006622516556
 40
0.2649006622516556
 40
0.2649006622516556
 40
0.271523178807947
 40
0.271523178807947
 40
0.271523178807947
 40
0.271523178807947
 40
0.2781456953642384
 40
0.2781456953642384
 40
0.2781456953642384
 40
0.2781456953642384
 40
0.2847682119205298
 40
0.2847682119205298
 40
0.2847682119205298
 40
0.2847682119205298
 40
0.2913907284768212
 40
0.2913907284768212
 40
0.2913907284768212
 40
0.2913907284768212
 40
0.2980132450331126
 40
0.2980132450331126
 40
0.2980132450331126
 40
0.2980132450331126
 40
0.304635761589404
 40
0.304635761589404
 40
0.304635761589404
 40
0.304635761589404
 40
0.3112582781456953
 40
0.3112582781456953
 40
0.3112582781456953
 40
0.3112582781456953
 40
0.3178807947019868
 40
0.3178807947019868
 40
0.3178807947019868
 40
0.3178807947019868
 40
0.3245033112582781
 40
0.3245033112582781
 40
0.3245033112582781
 40
0.3245033112582781
 40
0.3311258278145696
 40
0.3311258278145696
 40
0.3311258278145696
 40
0.3311258278145696
 40
0.3377483443708609
 40
0.3377483443708609
 40
0.3377483443708609
 40
0.3377483443708609
 40
0.3443708609271523
 40
0.3443708609271523
 40
0.3443708609271523
 40
0.3443708609271523
 40
0.3509933774834437
 40
0.3509933774834437
 40
0.3509933774834437
 40
0.3509933774834437
 40
0.3576158940397351
 40
0.3576158940397351
 40
0.3576158940397351
 40
0.3576158940397351
 40
0.3642384105960265
 40
0.3642384105960265
 40
0.3642384105960265
 40
0.3642384105960265
 40
0.3708609271523179
 40
0.3708609271523179
 40
0.3708609271523179
 40
0.3708609271523179
 40
0.3774834437086093
 40
0.3774834437086093
 40
0.3774834437086093
 40
0.3774834437086093
 40
0.3841059602649007
 40
0.3841059602649007
 40
0.3841059602649007
 40
0.3841059602649007
 40
0.3907284768211921
 40
0.3907284768211921
 40
0.3907284768211921
 40
0.3907284768211921
 40
0.3973509933774834
 40
0.3973509933774834
 40
0.3973509933774834
 40
0.3973509933774834
 40
0.4039735099337748
 40
0.4039735099337748
 40
0.4039735099337748
 40
0.4039735099337748
 40
0.4105960264900662
 40
0.4105960264900662
 40
0.4105960264900662
 40
0.4105960264900662
 40
0.4172185430463576
 40
0.4172185430463576
 40
0.4172185430463576
 40
0.4172185430463576
 40
0.423841059602649
 40
0.423841059602649
 40
0.423841059602649
 40
0.423841059602649
 40
0.4304635761589404
 40
0.4304635761589404
 40
0.4304635761589404
 40
0.4304635761589404
 40
0.4370860927152318
 40
0.4370860927152318
 40
0.4370860927152318
 40
0.4370860927152318
 40
0.4437086092715232
 40
0.4437086092715232
 40
0.4437086092715232
 40
0.4437086092715232
 40
0.4503311258278146
 40
0.4503311258278146
 40
0.4503311258278146
 40
0.4503311258278146
 40
0.456953642384106
 40
0.456953642384106
 40
0.456953642384106
 40
0.456953642384106
 40
0.4635761589403973
 40
0.4635761589403973
 40
0.4635761589403973
 40
0.4635761589403973
 40
0.4701986754966888
 40
0.4701986754966888
 40
0.4701986754966888
 40
0.4701986754966888
 40
0.4768211920529801
 40
0.4768211920529801
 40
0.4768211920529801
 40
0.4768211920529801
 40
0.4834437086092715
 40
0.4834437086092715
 40
0.4834437086092715
 40
0.4834437086092715
 40
0.4900662251655629
 40
0.4900662251655629
 40
0.4900662251655629
 40
0.4900662251655629
 40
0.4966887417218543
 40
0.4966887417218543
 40
0.4966887417218543
 40
0.4966887417218543
 40
0.5033112582781457
 40
0.5033112582781457
 40
0.5033112582781457
 40
0.5033112582781457
 40
0.5099337748344371
 40
0.5099337748344371
 40
0.5099337748344371
 40
0.5099337748344371
 40
0.5165562913907285
 40
0.5165562913907285
 40
0.5165562913907285
 40
0.5165562913907285
 40
0.5231788079470199
 40
0.5231788079470199
 40
0.5231788079470199
 40
0.5231788079470199
 40
0.5298013245033113
 40
0.5298013245033113
 40
0.5298013245033113
 40
0.5298013245033113
 40
0.5364238410596026
 40
0.5364238410596026
 40
0.5364238410596026
 40
0.5364238410596026
 40
0.543046357615894
 40
0.543046357615894
 40
0.543046357615894
 40
0.543046357615894
 40
0.5496688741721855
 40
0.5496688741721855
 40
0.5496688741721855
 40
0.5496688741721855
 40
0.5562913907284768
 40
0.5562913907284768
 40
0.5562913907284768
 40
0.5562913907284768
 40
0.5629139072847682
 40
0.5629139072847682
 40
0.5629139072847682
 40
0.5629139072847682
 40
0.5695364238410596
 40
0.5695364238410596
 40
0.5695364238410596
 40
0.5695364238410596
 40
0.5761589403973509
 40
0.5761589403973509
 40
0.5761589403973509
 40
0.5761589403973509
 40
0.5827814569536424
 40
0.5827814569536424
 40
0.5827814569536424
 40
0.5827814569536424
 40
0.5894039735099338
 40
0.5894039735099338
 40
0.5894039735099338
 40
0.5894039735099338
 40
0.5960264900662252
 40
0.5960264900662252
 40
0.5960264900662252
 40
0.5960264900662252
 40
0.6026490066225165
 40
0.6026490066225165
 40
0.6026490066225165
 40
0.6026490066225165
 40
0.609271523178808
 40
0.609271523178808
 40
0.609271523178808
 40
0.609271523178808
 40
0.6158940397350994
 40
0.6158940397350994
 40
0.6158940397350994
 40
0.6158940397350994
 40
0.6225165562913907
 40
0.6225165562913907
 40
0.6225165562913907
 40
0.6225165562913907
 40
0.6291390728476821
 40
0.6291390728476821
 40
0.6291390728476821
 40
0.6291390728476821
 40
0.6357615894039735
 40
0.6357615894039735
 40
0.6357615894039735
 40
0.6357615894039735
 40
0.6423841059602649
 40
0.6423841059602649
 40
0.6423841059602649
 40
0.6423841059602649
 40
0.6490066225165563
 40
0.6490066225165563
 40
0.6490066225165563
 40
0.6490066225165563
 40
0.6556291390728477
 40
0.6556291390728477
 40
0.6556291390728477
 40
0.6556291390728477
 40
0.6622516556291391
 40
0.6622516556291391
 40
0.6622516556291391
 40
0.6622516556291391
 40
0.6688741721854304
 40
0.6688741721854304
 40
0.6688741721854304
 40
0.6688741721854304
 40
0.6754966887417219
 40
0.6754966887417219
 40
0.6754966887417219
 40
0.6754966887417219
 40
0.6821192052980133
 40
0.6821192052980133
 40
0.6821192052980133
 40
0.6821192052980133
 40
0.6887417218543046
 40
0.6887417218543046
 40
0.6887417218543046
 40
0.6887417218543046
 40
0.695364238410596
 40
0.695364238410596
 40
0.695364238410596
 40
0.695364238410596
 40
0.7019867549668874
 40
0.7019867549668874
 40
0.7019867549668874
 40
0.7019867549668874
 40
0.7086092715231788
 40
0.7086092715231788
 40
0.7086092715231788
 40
0.7086092715231788
 40
0.7152317880794702
 40
0.7152317880794702
 40
0.7152317880794702
 40
0.7152317880794702
 40
0.7218543046357616
 40
0.7218543046357616
 40
0.7218543046357616
 40
0.7218543046357616
 40
0.7284768211920529
 40
0.7284768211920529
 40
0.7284768211920529
 40
0.7284768211920529
 40
0.7350993377483444
 40
0.7350993377483444
 40
0.7350993377483444
 40
0.7350993377483444
 40
0.7417218543046358
 40
0.7417218543046358
 40
0.7417218543046358
 40
0.7417218543046358
 40
0.7483443708609272
 40
0.7483443708609272
 40
0.7483443708609272
 40
0.7483443708609272
 40
0.7549668874172185
 40
0.7549668874172185
 40
0.7549668874172185
 40
0.7549668874172185
 40
0.7615894039735099
 40
0.7615894039735099
 40
0.7615894039735099
 40
0.7615894039735099
 40
0.7682119205298014
 40
0.7682119205298014
 40
0.7682119205298014
 40
0.7682119205298014
 40
0.7748344370860927
 40
0.7748344370860927
 40
0.7748344370860927
 40
0.7748344370860927
 40
0.7814569536423841
 40
0.7814569536423841
 40
0.7814569536423841
 40
0.7814569536423841
 40
0.7880794701986755
 40
0.7880794701986755
 40
0.7880794701986755
 40
0.7880794701986755
 40
0.7947019867549668
 40
0.7947019867549668
 40
0.7947019867549668
 40
0.7947019867549668
 40
0.8013245033112583
 40
0.8013245033112583
 40
0.8013245033112583
 40
0.8013245033112583
 40
0.8079470198675497
 40
0.8079470198675497
 40
0.8079470198675497
 40
0.8079470198675497
 40
0.8145695364238411
 40
0.8145695364238411
 40
0.8145695364238411
 40
0.8145695364238411
 40
0.8211920529801324
 40
0.8211920529801324
 40
0.8211920529801324
 40
0.8211920529801324
 40
0.8278145695364238
 40
0.8278145695364238
 40
0.8278145695364238
 40
0.8278145695364238
 40
0.8344370860927153
 40
0.8344370860927153
 40
0.8344370860927153
 40
0.8344370860927153
 40
0.8410596026490066
 40
0.8410596026490066
 40
0.8410596026490066
 40
0.8410596026490066
 40
0.847682119205298
 40
0.847682119205298
 40
0.847682119205298
 40
0.847682119205298
 40
0.8543046357615894
 40
0.8543046357615894
 40
0.8543046357615894
 40
0.8543046357615894
 40
0.8609271523178808
 40
0.8609271523178808
 40
0.8609271523178808
 40
0.8609271523178808
 40
0.8675496688741722
 40
0.8675496688741722
 40
0.8675496688741722
 40
0.8675496688741722
 40
0.8741721854304636
 40
0.8741721854304636
 40
0.8741721854304636
 40
0.8741721854304636
 40
0.8807947019867549
 40
0.8807947019867549
 40
0.8807947019867549
 40
0.8807947019867549
 40
0.8874172185430463
 40
0.8874172185430463
 40
0.8874172185430463
 40
0.8874172185430463
 40
0.8940397350993378
 40
0.8940397350993378
 40
0.8940397350993378
 40
0.8940397350993378
 40
0.9006622516556292
 40
0.9006622516556292
 40
0.9006622516556292
 40
0.9006622516556292
 40
0.9072847682119205
 40
0.9072847682119205
 40
0.9072847682119205
 40
0.9072847682119205
 40
0.9139072847682119
 40
0.9139072847682119
 40
0.9139072847682119
 40
0.9139072847682119
 40
0.9205298013245033
 40
0.9205298013245033
 40
0.9205298013245033
 40
0.9205298013245033
 40
0.9271523178807947
 40
0.9271523178807947
 40
0.9271523178807947
 40
0.9271523178807947
 40
0.9337748344370861
 40
0.9337748344370861
 40
0.9337748344370861
 40
0.9337748344370861
 40
0.9403973509933775
 40
0.9403973509933775
 40
0.9403973509933775
 40
0.9403973509933775
 40
0.9470198675496688
 40
0.9470198675496688
 40
0.9470198675496688
 40
0.9470198675496688
 40
0.9536423841059603
 40
0.9536423841059603
 40
0.9536423841059603
 40
0.9536423841059603
 40
0.9602649006622517
 40
0.9602649006622517
 40
0.9602649006622517
 40
0.9602649006622517
 40
0.9668874172185431
 40
0.9668874172185431
 40
0.9668874172185431
 40
0.9668874172185431
 40
0.9735099337748344
 40
0.9735099337748344
 40
0.9735099337748344
 40
0.9735099337748344
 40
0.9801324503311258
 40
0.9801324503311258
 40
0.9801324503311258
 40
0.9801324503311258
 40
0.9867549668874173
 40
0.9867549668874173
 40
0.9867549668874173
 40
0.9867549668874173
 40
1.0
 40
1.0
 40
1.0
 40
1.0
 10
-47.3095
 20
-18.0585
 30
0.0
 10
-47.3094
 20
-18.0585
 30
0.0
 10
-47.2995
 20
-18.0595
 30
0.0
 10
-47.2884
 20
-18.0607
 30
0.0
 10
-47.2884
 20
-18.0607
 30
0.0
 10
-47.2884
 20
-18.0607
 30
0.0
 10
-47.2874
 20
-18.0608
 30
0.0
 10
-47.2874
 20
-18.0608
 30
0.0
 10
-47.2874
 20
-18.0608
 30
0.0
 10
-47.2687
 20
-18.0625
 30
0.0
 10
-47.2678
 20
-18.0626
 30
0.0
 10
-47.2678
 20
-18.0626
 30
0.0
 10
-47.2678
 20
-18.0626
 30
0.0
 10
-47.2451
 20
-18.0643
 30
0.0
 10
-47.2259
 20
-18.0658
 30
0.0
 10
-47.225
 20
-18.0659
 30
0.0
 10
-47.225
 20
-18.0659
 30
0.0
 10
-47.2241
 20
-18.066
 30
0.0
 10
-47.2215
 20
-18.0657
 30
0.0
 10
-47.2211
 20
-18.0657
 30
0.0
 10
-47.2211
 20
-18.0657
 30
0.0
 10
-47.2208
 20
-18.0656
 30
0.0
 10
-47.2155
 20
-18.062
 30
0.0
 10
-47.2104
 20
-18.0602
 30
0.0
 10
-47.2104
 20
-18.0602
 30
0.0
 10
-47.2104
 20
-18.0602
 30
0.0
 10
-47.2083
 20
-18.0584
 30
0.0
 10
-47.2083
 20
-18.0584
 30
0.0
 10
-47.2083
 20
-18.0584
 30
0.0
 10
-47.0864
 20
-17.9709
 30
0.0
 10
-46.9897
 20
-17.8443
 30
0.0
 10
-46.9414
 20
-17.7013
 30
0.0
 10
-46.9414
 20
-17.7013
 30
0.0
 10
-46.9212
 20
-17.6417
 30
0.0
 10
-46.9083
 20
-17.579
 30
0.0
 10
-46.8948
 20
-17.5176
 30
0.0
 10
-46.8948
 20
-17.5176
 30
0.0
 10
-46.8818
 20
-17.4593
 30
0.0
 10
-46.8679
 20
-17.4
 30
0.0
 10
-46.8621
 20
-17.3404
 30
0.0
 10
-46.8621
 20
-17.3404
 30
0.0
 10
-46.8542
 20
-17.2588
 30
0.0
 10
-47.0136
 20
-17.299
 30
0.0
 10
-47.042
 20
-17.2371
 30
0.0
 10
-47.042
 20
-17.2371
 30
0.0
 10
-47.0671
 20
-17.1825
 30
0.0
 10
-47.0614
 20
-17.0606
 30
0.0
 10
-47.0522
 20
-17.0468
 30
0.0
 10
-47.0522
 20
-17.0468
 30
0.0
 10
-47.043
 20
-17.0329
 30
0.0
 10
-46.9784
 20
-16.9798
 30
0.0
 10
-46.9758
 20
-16.9773
 30
0.0
 10
-46.9758
 20
-16.9773
 30
0.0
 10
-46.9313
 20
-16.9335
 30
0.0
 10
-46.8672
 20
-16.9155
 30
0.0
 10
-46.8209
 20
-16.8733
 30
0.0
 10
-46.8209
 20
-16.8733
 30
0.0
 10
-46.7994
 20
-16.8537
 30
0.0
 10
-46.7806
 20
-16.8328
 30
0.0
 10
-46.7496
 20
-16.8345
 30
0.0
 10
-46.7496
 20
-16.8345
 30
0.0
 10
-46.7295
 20
-16.8356
 30
0.0
 10
-46.7093
 20
-16.8399
 30
0.0
 10
-46.6899
 20
-16.8451
 30
0.0
 10
-46.6899
 20
-16.8451
 30
0.0
 10
-46.6708
 20
-16.8503
 30
0.0
 10
-46.624
 20
-16.8447
 30
0.0
 10
-46.6332
 20
-16.814
 30
0.0
 10
-46.6332
 20
-16.814
 30
0.0
 10
-46.6422
 20
-16.7838
 30
0.0
 10
-46.6568
 20
-16.7529
 30
0.0
 10
-46.6781
 20
-16.7296
 30
0.0
 10
-46.6781
 20
-16.7296
 30
0.0
 10
-46.7161
 20
-16.6878
 30
0.0
 10
-46.7801
 20
-16.6942
 30
0.0
 10
-46.7801
 20
-16.6942
 30
0.0
 10
-46.7801
 20
-16.6942
 30
0.0
 10
-46.8027
 20
-16.6965
 30
0.0
 10
-46.8386
 20
-16.6917
 30
0.0
 10
-46.8599
 20
-16.6836
 30
0.0
 10
-46.8599
 20
-16.6836
 30
0.0
 10
-46.8599
 20
-16.6836
 30
0.0
 10
-46.8746
 20
-16.678
 30
0.0
 10
-46.8975
 20
-16.6694
 30
0.0
 10
-46.8975
 20
-16.6694
 30
0.0
 10
-46.932
 20
-16.6564
 30
0.0
 10
-46.9721
 20
-16.6552
 30
0.0
 10
-47.008
 20
-16.6621
 30
0.0
 10
-47.008
 20
-16.6621
 30
0.0
 10
-47.0457
 20
-16.6695
 30
0.0
 10
-47.0823
 20
-16.6832
 30
0.0
 10
-47.1205
 20
-16.688
 30
0.0
 10
-47.1205
 20
-16.688
 30
0.0
 10
-47.1497
 20
-16.6917
 30
0.0
 10
-47.1693
 20
-16.6826
 30
0.0
 10
-47.1693
 20
-16.6826
 30
0.0
 10
-47.1693
 20
-16.6826
 30
0.0
 10
-47.1899
 20
-16.6729
 30
0.0
 10
-47.2179
 20
-16.6522
 30
0.0
 10
-47.2315
 20
-16.6366
 30
0.0
 10
-47.2315
 20
-16.6366
 30
0.0
 10
-47.2315
 20
-16.6366
 30
0.0
 10
-47.2425
 20
-16.6214
 30
0.0
 10
-47.2425
 20
-16.6214
 30
0.0
 10
-47.2425
 20
-16.6214
 30
0.0
 10
-47.2628
 20
-16.5933
 30
0.0
 10
-47.2685
 20
-16.5644
 30
0.0
 10
-47.2652
 20
-16.5303
 30
0.0
 10
-47.2652
 20
-16.5303
 30
0.0
 10
-47.2591
 20
-16.4651
 30
0.0
 10
-47.2261
 20
-16.4055
 30
0.0
 10
-47.219
 20
-16.3403
 30
0.0
 10
-47.219
 20
-16.3403
 30
0.0
 10
-47.2101
 20
-16.259
 30
0.0
 10
-47.2841
 20
-16.2134
 30
0.0
 10
-47.3337
 20
-16.1605
 30
0.0
 10
-47.3337
 20
-16.1605
 30
0.0
 10
-47.3999
 20
-16.09
 30
0.0
 10
-47.4626
 20
-16.0155
 30
0.0
 10
-47.5362
 20
-15.9524
 30
0.0
 10
-47.5362
 20
-15.9524
 30
0.0
 10
-47.578
 20
-15.9165
 30
0.0
 10
-47.6233
 20
-15.8957
 30
0.0
 10
-47.6722
 20
-15.8726
 30
0.0
 10
-47.6722
 20
-15.8726
 30
0.0
 10
-47.7581
 20
-15.8318
 30
0.0
 10
-47.8407
 20
-15.7813
 30
0.0
 10
-47.93
 20
-15.7479
 30
0.0
 10
-47.93
 20
-15.7479
 30
0.0
 10
-47.93
 20
-15.7479
 30
0.0
 10
-47.9393
 20
-15.7444
 30
0.0
 10
-47.9393
 20
-15.7444
 30
0.0
 10
-47.9393
 20
-15.7444
 30
0.0
 10
-47.9502
 20
-15.7413
 30
0.0
 10
-47.9775
 20
-15.7354
 30
0.0
 10
-47.9999
 20
-15.7314
 30
0.0
 10
-47.9999
 20
-15.7314
 30
0.0
 10
-47.9999
 20
-15.7314
 30
0.0
 10
-48.0422
 20
-15.7239
 30
0.0
 10
-48.0821
 20
-15.7259
 30
0.0
 10
-48.0821
 20
-15.7259
 30
0.0
 10
-48.128
 20
-15.7283
 30
0.0
 10
-48.0256
 20
-15.9013
 30
0.0
 10
-48.0165
 20
-15.9155
 30
0.0
 10
-48.0165
 20
-15.9155
 30
0.0
 10
-47.9667
 20
-15.9937
 30
0.0
 10
-47.8953
 20
-16.0553
 30
0.0
 10
-47.823
 20
-16.112
 30
0.0
 10
-47.823
 20
-16.112
 30
0.0
 10
-47.7869
 20
-16.1403
 30
0.0
 10
-47.7473
 20
-16.1651
 30
0.0
 10
-47.7317
 20
-16.2105
 30
0.0
 10
-47.7317
 20
-16.2105
 30
0.0
 10
-47.7243
 20
-16.2319
 30
0.0
 10
-47.7264
 20
-16.2569
 30
0.0
 10
-47.7269
 20
-16.2791
 30
0.0
 10
-47.7269
 20
-16.2791
 30
0.0
 10
-47.7284
 20
-16.3358
 30
0.0
 10
-47.7322
 20
-16.3924
 30
0.0
 10
-47.7338
 20
-16.449
 30
0.0
 10
-47.7338
 20
-16.449
 30
0.0
 10
-47.7364
 20
-16.5459
 30
0.0
 10
-47.7314
 20
-16.6427
 30
0.0
 10
-47.7148
 20
-16.7384
 30
0.0
 10
-47.7148
 20
-16.7384
 30
0.0
 10
-47.7136
 20
-16.7453
 30
0.0
 10
-47.6923
 20
-16.7427
 30
0.0
 10
-47.6708
 20
-16.7426
 30
0.0
 10
-47.6708
 20
-16.7426
 30
0.0
 10
-47.6495
 20
-16.7426
 30
0.0
 10
-47.6283
 20
-16.7424
 30
0.0
 10
-47.6276
 20
-16.746
 30
0.0
 10
-47.6276
 20
-16.746
 30
0.0
 10
-47.6446
 20
-16.6587
 30
0.0
 10
-47.6483
 20
-16.5704
 30
0.0
 10
-47.6471
 20
-16.4817
 30
0.0
 10
-47.6471
 20
-16.4817
 30
0.0
 10
-47.6461
 20
-16.4002
 30
0.0
 10
-47.631
 20
-16.3142
 30
0.0
 10
-47.6411
 20
-16.2331
 30
0.0
 10
-47.6411
 20
-16.2331
 30
0.0
 10
-47.6457
 20
-16.1966
 30
0.0
 10
-47.6724
 20
-16.1696
 30
0.0
 10
-47.6996
 20
-16.1479
 30
0.0
 10
-47.6996
 20
-16.1479
 30
0.0
 10
-47.7025
 20
-16.1456
 30
0.0
 10
-47.7054
 20
-16.1433
 30
0.0
 10
-47.7082
 20
-16.141
 30
0.0
 10
-47.7082
 20
-16.141
 30
0.0
 10
-47.7483
 20
-16.093
 30
0.0
 10
-47.8553
 20
-15.9567
 30
0.0
 10
-47.7664
 20
-15.9737
 30
0.0
 10
-47.7664
 20
-15.9737
 30
0.0
 10
-47.6589
 20
-15.9943
 30
0.0
 10
-47.5969
 20
-15.9872
 30
0.0
 10
-47.5053
 20
-16.0611
 30
0.0
 10
-47.5053
 20
-16.0611
 30
0.0
 10
-47.453
 20
-16.1173
 30
0.0
 10
-47.4023
 20
-16.1751
 30
0.0
 10
-47.3469
 20
-16.2283
 30
0.0
 10
-47.3469
 20
-16.2283
 30
0.0
 10
-47.295
 20
-16.278
 30
0.0
 10
-47.3021
 20
-16.3361
 30
0.0
 10
-47.3206
 20
-16.4006
 30
0.0
 10
-47.3206
 20
-16.4006
 30
0.0
 10
-47.3372
 20
-16.4586
 30
0.0
 10
-47.3672
 20
-16.5235
 30
0.0
 10
-47.3466
 20
-16.5841
 30
0.0
 10
-47.3466
 20
-16.5841
 30
0.0
 10
-47.3345
 20
-16.6198
 30
0.0
 10
-47.2447
 20
-16.7414
 30
0.0
 10
-47.1415
 20
-16.7432
 30
0.0
 10
-47.1415
 20
-16.7432
 30
0.0
 10
-47.1378
 20
-16.7433
 30
0.0
 10
-47.0775
 20
-16.7436
 30
0.0
 10
-47.0314
 20
-16.7316
 30
0.0
 10
-47.0314
 20
-16.7316
 30
0.0
 10
-46.9878
 20
-16.7202
 30
0.0
 10
-46.9531
 20
-16.7107
 30
0.0
 10
-46.9107
 20
-16.7303
 30
0.0
 10
-46.9107
 20
-16.7303
 30
0.0
 10
-46.9107
 20
-16.7303
 30
0.0
 10
-46.8941
 20
-16.7379
 30
0.0
 10
-46.8941
 20
-16.7379
 30
0.0
 10
-46.8941
 20
-16.7379
 30
0.0
 10
-46.8769
 20
-16.7439
 30
0.0
 10
-46.8813
 20
-16.752
 30
0.0
 10
-46.9037
 20
-16.7558
 30
0.0
 10
-46.9037
 20
-16.7558
 30
0.0
 10
-46.9037
 20
-16.7558
 30
0.0
 10
-46.9394
 20
-16.7618
 30
0.0
 10
-46.9774
 20
-16.7851
 30
0.0
 10
-46.9774
 20
-16.7851
 30
0.0
 10
-46.9725
 20
-16.7821
 30
0.0
 10
-46.9503
 20
-16.7878
 30
0.0
 10
-46.9447
 20
-16.7883
 30
0.0
 10
-46.9447
 20
-16.7883
 30
0.0
 10
-46.9386
 20
-16.7889
 30
0.0
 10
-46.9175
 20
-16.7943
 30
0.0
 10
-46.912
 20
-16.7909
 30
0.0
 10
-46.912
 20
-16.7909
 30
0.0
 10
-46.8792
 20
-16.7707
 30
0.0
 10
-46.854
 20
-16.7653
 30
0.0
 10
-46.854
 20
-16.7653
 30
0.0
 10
-46.854
 20
-16.7653
 30
0.0
 10
-46.8318
 20
-16.7605
 30
0.0
 10
-46.8103
 20
-16.7567
 30
0.0
 10
-46.8063
 20
-16.7568
 30
0.0
 10
-46.8063
 20
-16.7568
 30
0.0
 10
-46.8063
 20
-16.7568
 30
0.0
 10
-46.803
 20
-16.7566
 30
0.0
 10
-46.803
 20
-16.7566
 30
0.0
 10
-46.803
 20
-16.7566
 30
0.0
 10
-46.8019
 20
-16.7565
 30
0.0
 10
-46.8008
 20
-16.7564
 30
0.0
 10
-46.7997
 20
-16.7563
 30
0.0
 10
-46.7997
 20
-16.7563
 30
0.0
 10
-46.7838
 20
-16.755
 30
0.0
 10
-46.7682
 20
-16.7535
 30
0.0
 10
-46.7522
 20
-16.7541
 30
0.0
 10
-46.7522
 20
-16.7541
 30
0.0
 10
-46.7514
 20
-16.7541
 30
0.0
 10
-46.7506
 20
-16.7541
 30
0.0
 10
-46.7498
 20
-16.7541
 30
0.0
 10
-46.7498
 20
-16.7541
 30
0.0
 10
-46.7509
 20
-16.754
 30
0.0
 10
-46.7517
 20
-16.7543
 30
0.0
 10
-46.7521
 20
-16.7547
 30
0.0
 10
-46.7521
 20
-16.7547
 30
0.0
 10
-46.7528
 20
-16.7556
 30
0.0
 10
-46.7523
 20
-16.7572
 30
0.0
 10
-46.751
 20
-16.7593
 30
0.0
 10
-46.751
 20
-16.7593
 30
0.0
 10
-46.7486
 20
-16.7634
 30
0.0
 10
-46.7435
 20
-16.7692
 30
0.0
 10
-46.74
 20
-16.7737
 30
0.0
 10
-46.74
 20
-16.7737
 30
0.0
 10
-46.74
 20
-16.7737
 30
0.0
 10
-46.7391
 20
-16.7748
 30
0.0
 10
-46.7391
 20
-16.7748
 30
0.0
 10
-46.7391
 20
-16.7748
 30
0.0
 10
-46.7384
 20
-16.7758
 30
0.0
 10
-46.7386
 20
-16.7766
 30
0.0
 10
-46.7396
 20
-16.7765
 30
0.0
 10
-46.7396
 20
-16.7765
 30
0.0
 10
-46.7396
 20
-16.7765
 30
0.0
 10
-46.7405
 20
-16.7765
 30
0.0
 10
-46.7405
 20
-16.7765
 30
0.0
 10
-46.7405
 20
-16.7765
 30
0.0
 10
-46.7442
 20
-16.7762
 30
0.0
 10
-46.748
 20
-16.776
 30
0.0
 10
-46.7517
 20
-16.7759
 30
0.0
 10
-46.7517
 20
-16.7759
 30
0.0
 10
-46.7867
 20
-16.775
 30
0.0
 10
-46.8211
 20
-16.7815
 30
0.0
 10
-46.8518
 20
-16.8021
 30
0.0
 10
-46.8518
 20
-16.8021
 30
0.0
 10
-46.8818
 20
-16.8221
 30
0.0
 10
-46.9052
 20
-16.848
 30
0.0
 10
-46.9363
 20
-16.8669
 30
0.0
 10
-46.9363
 20
-16.8669
 30
0.0
 10
-46.9593
 20
-16.8808
 30
0.0
 10
-46.9699
 20
-16.8869
 30
0.0
 10
-46.9699
 20
-16.8869
 30
0.0
 10
-46.9699
 20
-16.8869
 30
0.0
 10
-46.9895
 20
-16.8984
 30
0.0
 10
-47.0205
 20
-16.8966
 30
0.0
 10
-47.0387
 20
-16.883
 30
0.0
 10
-47.0387
 20
-16.883
 30
0.0
 10
-47.0387
 20
-16.883
 30
0.0
 10
-47.0693
 20
-16.8602
 30
0.0
 10
-47.0998
 20
-16.8382
 30
0.0
 10
-47.0998
 20
-16.8382
 30
0.0
 10
-47.1059
 20
-16.8338
 30
0.0
 10
-47.1096
 20
-16.8285
 30
0.0
 10
-47.1202
 20
-16.8256
 30
0.0
 10
-47.1202
 20
-16.8256
 30
0.0
 10
-47.1409
 20
-16.8237
 30
0.0
 10
-47.1621
 20
-16.8204
 30
0.0
 10
-47.1781
 20
-16.8249
 30
0.0
 10
-47.1781
 20
-16.8249
 30
0.0
 10
-47.1952
 20
-16.8297
 30
0.0
 10
-47.2024
 20
-16.8362
 30
0.0
 10
-47.2053
 20
-16.8419
 30
0.0
 10
-47.2053
 20
-16.8419
 30
0.0
 10
-47.2049
 20
-16.8422
 30
0.0
 10
-47.2044
 20
-16.8451
 30
0.0
 10
-47.204
 20
-16.8455
 30
0.0
 10
-47.204
 20
-16.8455
 30
0.0
 10
-47.1832
 20
-16.8641
 30
0.0
 10
-47.1572
 20
-16.8828
 30
0.0
 10
-47.1354
 20
-16.9
 30
0.0
 10
-47.1354
 20
-16.9
 30
0.0
 10
-47.1629
 20
-16.9288
 30
0.0
 10
-47.2557
 20
-17.0169
 30
0.0
 10
-47.4305
 20
-17.1029
 30
0.0
 10
-47.4305
 20
-17.1029
 30
0.0
 10
-47.5665
 20
-17.1698
 30
0.0
 10
-47.842
 20
-17.1679
 30
0.0
 10
-47.9216
 20
-17.1659
 30
0.0
 10
-47.9216
 20
-17.1659
 30
0.0
 10
-47.9307
 20
-17.1628
 30
0.0
 10
-47.9395
 20
-17.1594
 30
0.0
 10
-47.9479
 20
-17.1553
 30
0.0
 10
-47.9479
 20
-17.1553
 30
0.0
 10
-47.9713
 20
-17.1441
 30
0.0
 10
-47.9047
 20
-17.1097
 30
0.0
 10
-47.8802
 20
-17.0973
 30
0.0
 10
-47.8802
 20
-17.0973
 30
0.0
 10
-47.8762
 20
-17.0953
 30
0.0
 10
-47.8618
 20
-17.088
 30
0.0
 10
-47.8563
 20
-17.085
 30
0.0
 10
-47.8563
 20
-17.085
 30
0.0
 10
-47.8488
 20
-17.081
 30
0.0
 10
-47.8414
 20
-17.0764
 30
0.0
 10
-47.8355
 20
-17.0709
 30
0.0
 10
-47.8355
 20
-17.0709
 30
0.0
 10
-47.833
 20
-17.0685
 30
0.0
 10
-47.8307
 20
-17.066
 30
0.0
 10
-47.8289
 20
-17.0633
 30
0.0
 10
-47.8289
 20
-17.0633
 30
0.0
 10
-47.8241
 20
-17.0559
 30
0.0
 10
-47.854
 20
-17.0549
 30
0.0
 10
-47.8576
 20
-17.0548
 30
0.0
 10
-47.8576
 20
-17.0548
 30
0.0
 10
-47.8576
 20
-17.0548
 30
0.0
 10
-47.8578
 20
-17.0548
 30
0.0
 10
-47.8578
 20
-17.0548
 30
0.0
 10
-47.8578
 20
-17.0548
 30
0.0
 10
-47.858
 20
-17.0548
 30
0.0
 10
-47.8709
 20
-17.0517
 30
0.0
 10
-47.8866
 20
-17.048
 30
0.0
 10
-47.8866
 20
-17.048
 30
0.0
 10
-47.9023
 20
-17.0442
 30
0.0
 10
-47.9098
 20
-17.0369
 30
0.0
 10
-47.9033
 20
-17.0317
 30
0.0
 10
-47.9033
 20
-17.0317
 30
0.0
 10
-47.9033
 20
-17.0317
 30
0.0
 10
-47.8973
 20
-17.0271
 30
0.0
 10
-47.8973
 20
-17.0271
 30
0.0
 10
-47.8973
 20
-17.0271
 30
0.0
 10
-47.846
 20
-16.987
 30
0.0
 10
-47.7933
 20
-16.9506
 30
0.0
 10
-47.7462
 20
-16.9048
 30
0.0
 10
-47.7462
 20
-16.9048
 30
0.0
 10
-47.6952
 20
-16.8552
 30
0.0
 10
-47.4784
 20
-16.779
 30
0.0
 10
-47.4682
 20
-16.7741
 30
0.0
 10
-47.4682
 20
-16.7741
 30
0.0
 10
-47.453
 20
-16.7668
 30
0.0
 10
-47.4361
 20
-16.7608
 30
0.0
 10
-47.419
 20
-16.7571
 30
0.0
 10
-47.419
 20
-16.7571
 30
0.0
 10
-47.4176
 20
-16.7568
 30
0.0
 10
-47.4162
 20
-16.7566
 30
0.0
 10
-47.4148
 20
-16.7563
 30
0.0
 10
-47.4148
 20
-16.7563
 30
0.0
 10
-47.4132
 20
-16.756
 30
0.0
 10
-47.4116
 20
-16.7557
 30
0.0
 10
-47.41
 20
-16.7554
 30
0.0
 10
-47.41
 20
-16.7554
 30
0.0
 10
-47.4067
 20
-16.7549
 30
0.0
 10
-47.4034
 20
-16.7544
 30
0.0
 10
-47.4001
 20
-16.7541
 30
0.0
 10
-47.4001
 20
-16.7541
 30
0.0
 10
-47.4285
 20
-16.757
 30
0.0
 10
-47.4587
 20
-16.7434
 30
0.0
 10
-47.4873
 20
-16.7464
 30
0.0
 10
-47.4873
 20
-16.7464
 30
0.0
 10
-47.4904
 20
-16.7467
 30
0.0
 10
-47.4934
 20
-16.7472
 30
0.0
 10
-47.4964
 20
-16.7477
 30
0.0
 10
-47.4964
 20
-16.7477
 30
0.0
 10
-47.5416
 20
-16.7548
 30
0.0
 10
-47.7869
 20
-16.852
 30
0.0
 10
-47.8423
 20
-16.9058
 30
0.0
 10
-47.8423
 20
-16.9058
 30
0.0
 10
-47.8849
 20
-16.9473
 30
0.0
 10
-47.9476
 20
-16.9935
 30
0.0
 10
-47.9476
 20
-16.9935
 30
0.0
 10
-47.9476
 20
-16.9935
 30
0.0
 10
-47.9659
 20
-17.007
 30
0.0
 10
-47.9822
 20
-17.0183
 30
0.0
 10
-47.9839
 20
-17.0185
 30
0.0
 10
-47.9839
 20
-17.0185
 30
0.0
 10
-47.9839
 20
-17.0185
 30
0.0
 10
-47.9851
 20
-17.019
 30
0.0
 10
-47.9851
 20
-17.019
 30
0.0
 10
-47.9851
 20
-17.019
 30
0.0
 10
-48.0462
 20
-17.0439
 30
0.0
 10
-48.1075
 20
-17.0681
 30
0.0
 10
-48.169
 20
-17.0917
 30
0.0
 10
-48.169
 20
-17.0917
 30
0.0
 10
-48.2109
 20
-17.1077
 30
0.0
 10
-48.2529
 20
-17.1235
 30
0.0
 10
-48.2955
 20
-17.1374
 30
0.0
 10
-48.2955
 20
-17.1374
 30
0.0
 10
-48.2997
 20
-17.1388
 30
0.0
 10
-48.3448
 20
-17.148
 30
0.0
 10
-48.3309
 20
-17.1554
 30
0.0
 10
-48.3309
 20
-17.1554
 30
0.0
 10
-48.2884
 20
-17.178
 30
0.0
 10
-48.2342
 20
-17.173
 30
0.0
 10
-48.1908
 20
-17.1966
 30
0.0
 10
-48.1908
 20
-17.1966
 30
0.0
 10
-48.1333
 20
-17.228
 30
0.0
 10
-48.2258
 20
-17.2585
 30
0.0
 10
-48.2434
 20
-17.2771
 30
0.0
 10
-48.2434
 20
-17.2771
 30
0.0
 10
-48.2415
 20
-17.2769
 30
0.0
 10
-48.2406
 20
-17.2769
 30
0.0
 10
-48.2413
 20
-17.2771
 30
0.0
 10
-48.2413
 20
-17.2771
 30
0.0
 10
-48.2421
 20
-17.2773
 30
0.0
 10
-48.2356
 20
-17.2783
 30
0.0
 10
-48.2255
 20
-17.2792
 30
0.0
 10
-48.2255
 20
-17.2792
 30
0.0
 10
-48.2154
 20
-17.2801
 30
0.0
 10
-48.2045
 20
-17.2812
 30
0.0
 10
-48.2013
 20
-17.2817
 30
0.0
 10
-48.2013
 20
-17.2817
 30
0.0
 10
-48.2013
 20
-17.2817
 30
0.0
 10
-48.2004
 20
-17.2818
 30
0.0
 10
-48.2004
 20
-17.2818
 30
0.0
 10
-48.2004
 20
-17.2818
 30
0.0
 10
-48.1869
 20
-17.283
 30
0.0
 10
-48.1703
 20
-17.287
 30
0.0
 10
-48.1567
 20
-17.2852
 30
0.0
 10
-48.1567
 20
-17.2852
 30
0.0
 10
-48.1402
 20
-17.283
 30
0.0
 10
-48.1204
 20
-17.2693
 30
0.0
 10
-48.1051
 20
-17.2629
 30
0.0
 10
-48.1051
 20
-17.2629
 30
0.0
 10
-48.0623
 20
-17.2452
 30
0.0
 10
-48.0184
 20
-17.23
 30
0.0
 10
-47.9736
 20
-17.2178
 30
0.0
 10
-47.9736
 20
-17.2178
 30
0.0
 10
-47.9295
 20
-17.2058
 30
0.0
 10
-47.879
 20
-17.2007
 30
0.0
 10
-47.879
 20
-17.2007
 30
0.0
 10
-47.879
 20
-17.2007
 30
0.0
 10
-47.8564
 20
-17.1984
 30
0.0
 10
-47.8194
 20
-17.1993
 30
0.0
 10
-47.797
 20
-17.2026
 30
0.0
 10
-47.797
 20
-17.2026
 30
0.0
 10
-47.797
 20
-17.2026
 30
0.0
 10
-47.7845
 20
-17.2045
 30
0.0
 10
-47.7637
 20
-17.2068
 30
0.0
 10
-47.7637
 20
-17.2068
 30
0.0
 10
-47.7384
 20
-17.2117
 30
0.0
 10
-47.7154
 20
-17.2156
 30
0.0
 10
-47.6988
 20
-17.2171
 30
0.0
 10
-47.6988
 20
-17.2171
 30
0.0
 10
-47.6919
 20
-17.2177
 30
0.0
 10
-47.6792
 20
-17.2174
 30
0.0
 10
-47.6623
 20
-17.2161
 30
0.0
 10
-47.6623
 20
-17.2161
 30
0.0
 10
-47.6231
 20
-17.2188
 30
0.0
 10
-47.5838
 20
-17.2193
 30
0.0
 10
-47.5448
 20
-17.2135
 30
0.0
 10
-47.5448
 20
-17.2135
 30
0.0
 10
-47.4074
 20
-17.1931
 30
0.0
 10
-47.182
 20
-17.1128
 30
0.0
 10
-47.182
 20
-17.1128
 30
0.0
 10
-47.182
 20
-17.1128
 30
0.0
 10
-47.1606
 20
-17.1052
 30
0.0
 10
-47.1431
 20
-17.1027
 30
0.0
 10
-47.1432
 20
-17.1071
 30
0.0
 10
-47.1432
 20
-17.1071
 30
0.0
 10
-47.1432
 20
-17.1071
 30
0.0
 10
-47.1432
 20
-17.1113
 30
0.0
 10
-47.1432
 20
-17.1113
 30
0.0
 10
-47.1432
 20
-17.1113
 30
0.0
 10
-47.1434
 20
-17.1231
 30
0.0
 10
-47.1433
 20
-17.135
 30
0.0
 10
-47.1429
 20
-17.1468
 30
0.0
 10
-47.1429
 20
-17.1468
 30
0.0
 10
-47.1415
 20
-17.1909
 30
0.0
 10
-47.1395
 20
-17.2438
 30
0.0
 10
-47.0923
 20
-17.2605
 30
0.0
 10
-47.0923
 20
-17.2605
 30
0.0
 10
-47.0536
 20
-17.2742
 30
0.0
 10
-46.9611
 20
-17.2686
 30
0.0
 10
-46.9491
 20
-17.3194
 30
0.0
 10
-46.9491
 20
-17.3194
 30
0.0
 10
-46.9453
 20
-17.3357
 30
0.0
 10
-46.9525
 20
-17.3588
 30
0.0
 10
-46.9551
 20
-17.3748
 30
0.0
 10
-46.9551
 20
-17.3748
 30
0.0
 10
-46.9597
 20
-17.4027
 30
0.0
 10
-46.9652
 20
-17.4305
 30
0.0
 10
-46.9709
 20
-17.4582
 30
0.0
 10
-46.9709
 20
-17.4582
 30
0.0
 10
-46.9838
 20
-17.5213
 30
0.0
 10
-46.9957
 20
-17.5852
 30
0.0
 10
-47.0139
 20
-17.6471
 30
0.0
 10
-47.0139
 20
-17.6471
 30
0.0
 10
-47.0141
 20
-17.6475
 30
0.0
 10
-47.0152
 20
-17.6478
 30
0.0
 10
-47.0154
 20
-17.6473
 30
0.0
 10
-47.0154
 20
-17.6473
 30
0.0
 10
-47.0154
 20
-17.6473
 30
0.0
 10
-47.0201
 20
-17.633
 30
0.0
 10
-47.0201
 20
-17.633
 30
0.0
 10
-47.0201
 20
-17.633
 30
0.0
 10
-47.0201
 20
-17.633
 30
0.0
 10
-47.023
 20
-17.6225
 30
0.0
 10
-47.023
 20
-17.6225
 30
0.0
 10
-47.023
 20
-17.6225
 30
0.0
 10
-47.0232
 20
-17.5868
 30
0.0
 10
-47.0269
 20
-17.507
 30
0.0
 10
-47.0586
 20
-17.6024
 30
0.0
 10
-47.0586
 20
-17.6024
 30
0.0
 10
-47.0978
 20
-17.7201
 30
0.0
 10
-47.1404
 20
-17.7678
 30
0.0
 10
-47.1765
 20
-17.8063
 30
0.0
 10
-47.1765
 20
-17.8063
 30
0.0
 10
-47.1702
 20
-17.7533
 30
0.0
 10
-47.1663
 20
-17.7
 30
0.0
 10
-47.1659
 20
-17.6467
 30
0.0
 10
-47.1659
 20
-17.6467
 30
0.0
 10
-47.1654
 20
-17.592
 30
0.0
 10
-47.1708
 20
-17.5395
 30
0.0
 10
-47.1883
 20
-17.4877
 30
0.0
 10
-47.1883
 20
-17.4877
 30
0.0
 10
-47.2044
 20
-17.4398
 30
0.0
 10
-47.2434
 20
-17.4076
 30
0.0
 10
-47.2803
 20
-17.375
 30
0.0
 10
-47.2803
 20
-17.375
 30
0.0
 10
-47.2868
 20
-17.3693
 30
0.0
 10
-47.3152
 20
-17.3715
 30
0.0
 10
-47.3236
 20
-17.3708
 30
0.0
 10
-47.3236
 20
-17.3708
 30
0.0
 10
-47.3237
 20
-17.3708
 30
0.0
 10
-47.3238
 20
-17.3708
 30
0.0
 10
-47.3239
 20
-17.3708
 30
0.0
 10
-47.3239
 20
-17.3708
 30
0.0
 10
-47.3314
 20
-17.3701
 30
0.0
 10
-47.3617
 20
-17.3725
 30
0.0
 10
-47.3675
 20
-17.3674
 30
0.0
 10
-47.3675
 20
-17.3674
 30
0.0
 10
-47.3216
 20
-17.4078
 30
0.0
 10
-47.2885
 20
-17.4417
 30
0.0
 10
-47.2689
 20
-17.4991
 30
0.0
 10
-47.2689
 20
-17.4991
 30
0.0
 10
-47.2451
 20
-17.5686
 30
0.0
 10
-47.2515
 20
-17.6508
 30
0.0
 10
-47.2564
 20
-17.7226
 30
0.0
 10
-47.2564
 20
-17.7226
 30
0.0
 10
-47.2629
 20
-17.817
 30
0.0
 10
-47.2782
 20
-17.9109
 30
0.0
 10
-47.2981
 20
-18.0033
 30
0.0
 10
-47.2981
 20
-18.0033
 30
0.0
 10
-47.3019
 20
-18.021
 30
0.0
 10
-47.3082
 20
-18.0393
 30
0.0
 10
-47.3104
 20
-18.0572
 30
0.0
 10
-47.3104
 20
-18.0572
 30
0.0
 10
-47.3104
 20
-18.0572
 30
0.0
 10
-47.3095
 20
-18.0585
 30
0.0
 10
-47.3095
 20
-18.0585
 30
0.0
  0
SPLINE
  5
67
330
1F
100
AcDbEntity
  8
Ilustrace
 62
   250
100
AcDbSpline
210
0.0
220
0.0
230
1.0
 70
    11
 71
     3
 72
    16
 73
    12
 74
     0
 42
0.0000000001
 43
0.0000000001
 40
0.0
 40
0.0
 40
0.0
 40
0.0
 40
0.25
 40
0.25
 40
0.25
 40
0.25
 40
0.5
 40
0.5
 40
0.5
 40
0.5
 40
1.0
 40
1.0
 40
1.0
 40
1.0
 10
-48.2439
 20
-17.2776
 30
0.0
 10
-48.2438
 20
-17.2774
 30
0.0
 10
-48.2435
 20
-17.2772
 30
0.0
 10
-48.2434
 20
-17.277
 30
0.0
 10
-48.2434
 20
-17.277
 30
0.0
 10
-48.2434
 20
-17.277
 30
0.0
 10
-48.2434
 20
-17.277
 30
0.0
 10
-48.2435
 20
-17.277
 30
0.0
 10
-48.2435
 20
-17.277
 30
0.0
 10
-48.2435
 20
-17.277
 30
0.0
 10
-48.2439
 20
-17.2776
 30
0.0
 10
-48.2439
 20
-17.2776
 30
0.0
  0
SPLINE
  5
68
330
1F
100
AcDbEntity
  8
Ilustrace
 62
   250
100
AcDbSpline
210
0.0
220
0.0
230
1.0
 70
    11
 71
     3
 72
    36
 73
    32
 74
     0
 42
0.0000000001
 43
0.0000000001
 40
0.0
 40
0.0
 40
0.0
 40
0.0
 40
0.1111111111111111
 40
0.1111111111111111
 40
0.1111111111111111
 40
0.1111111111111111
 40
0.2222222222222222
 40
0.2222222222222222
 40
0.2222222222222222
 40
0.2222222222222222
 40
0.3333333333333333
 40
0.3333333333333333
 40
0.3333333333333333
 40
0.3333333333333333
 40
0.4444444444444444
 40
0.4444444444444444
 40
0.4444444444444444
 40
0.4444444444444444
 40
0.5555555555555556
 40
0.5555555555555556
 40
0.5555555555555556
 40
0.5555555555555556
 40
0.6666666666666666
 40
0.6666666666666666
 40
0.6666666666666666
 40
0.6666666666666666
 40
0.7777777777777778
 40
0.7777777777777778
 40
0.7777777777777778
 40
0.7777777777777778
 40
1.0
 40
1.0
 40
1.0
 40
1.0
 10
-50.8627
 20
-17.1847
 30
0.0
 10
-50.8627
 20
-17.1847
 30
0.0
 10
-51.337
 20
-18.5939
 30
0.0
 10
-51.337
 20
-18.5939
 30
0.0
 10
-51.337
 20
-18.5939
 30
0.0
 10
-51.337
 20
-18.5939
 30
0.0
 10
-50.9811
 20
-18.5939
 30
0.0
 10
-50.9811
 20
-18.5939
 30
0.0
 10
-50.9811
 20
-18.5939
 30
0.0
 10
-50.9811
 20
-18.5939
 30
0.0
 10
-50.8928
 20
-18.3054
 30
0.0
 10
-50.8928
 20
-18.3054
 30
0.0
 10
-50.8928
 20
-18.3054
 30
0.0
 10
-50.8928
 20
-18.3054
 30
0.0
 10
-50.4495
 20
-18.3054
 30
0.0
 10
-50.4495
 20
-18.3054
 30
0.0
 10
-50.4495
 20
-18.3054
 30
0.0
 10
-50.4495
 20
-18.3054
 30
0.0
 10
-50.3608
 20
-18.5939
 30
0.0
 10
-50.3608
 20
-18.5939
 30
0.0
 10
-50.3608
 20
-18.5939
 30
0.0
 10
-50.3608
 20
-18.5939
 30
0.0
 10
-49.9955
 20
-18.5939
 30
0.0
 10
-49.9955
 20
-18.5939
 30
0.0
 10
-49.9955
 20
-18.5939
 30
0.0
 10
-49.9955
 20
-18.5939
 30
0.0
 10
-50.4758
 20
-17.1847
 30
0.0
 10
-50.4758
 20
-17.1847
 30
0.0
 10
-50.4758
 20
-17.1847
 30
0.0
 10
-50.4758
 20
-17.1847
 30
0.0
 10
-50.8627
 20
-17.1847
 30
0.0
 10
-50.8627
 20
-17.1847
 30
0.0
  0
SPLINE
  5
69
330
1F
100
AcDbEntity
  8
Ilustrace
 62
   250
100
AcDbSpline
210
0.0
220
0.0
230
1.0
 70
    11
 71
     3
 72
    16
 73
    12
 74
     0
 42
0.0000000001
 43
0.0000000001
 40
0.0
 40
0.0
 40
0.0
 40
0.0
 40
0.25
 40
0.25
 40
0.25
 40
0.25
 40
0.5
 40
0.5
 40
0.5
 40
0.5
 40
1.0
 40
1.0
 40
1.0
 40
1.0
 10
-50.6716
 20
-17.5843
 30
0.0
 10
-50.6716
 20
-17.5843
 30
0.0
 10
-50.5269
 20
-18.0494
 30
0.0
 10
-50.5269
 20
-18.0494
 30
0.0
 10
-50.5269
 20
-18.0494
 30
0.0
 10
-50.5269
 20
-18.0494
 30
0.0
 10
-50.8154
 20
-18.0494
 30
0.0
 10
-50.8154
 20
-18.0494
 30
0.0
 10
-50.8154
 20
-18.0494
 30
0.0
 10
-50.8154
 20
-18.0494
 30
0.0
 10
-50.6716
 20
-17.5843
 30
0.0
 10
-50.6716
 20
-17.5843
 30
0.0
  0
SPLINE
  5
6A
330
1F
100
AcDbEntity
  8
Ilustrace
 62
   250
100
AcDbSpline
210
0.0
220
0.0
230
1.0
 70
    11
 71
     3
 72
    20
 73
    16
 74
     0
 42
0.0000000001
 43
0.0000000001
 40
0.0
 40
0.0
 40
0.0
 40
0.0
 40
0.2
 40
0.2
 40
0.2
 40
0.2
 40
0.4
 40
0.4
 40
0.4
 40
0.4
 40
0.6
 40
0.6
 40
0.6
 40
0.6
 40
1.0
 40
1.0
 40
1.0
 40
1.0
 10
-49.9464
 20
-18.5939
 30
0.0
 10
-49.9464
 20
-18.5939
 30
0.0
 10
-49.6145
 20
-18.5939
 30
0.0
 10
-49.6145
 20
-18.5939
 30
0.0
 10
-49.6145
 20
-18.5939
 30
0.0
 10
-49.6145
 20
-18.5939
 30
0.0
 10
-49.6145
 20
-17.185
 30
0.0
 10
-49.6145
 20
-17.185
 30
0.0
 10
-49.6145
 20
-17.185
 30
0.0
 10
-49.6145
 20
-17.185
 30
0.0
 10
-49.9464
 20
-17.185
 30
0.0
 10
-49.9464
 20
-17.185
 30
0.0
 10
-49.9464
 20
-17.185
 30
0.0
 10
-49.9464
 20
-17.185
 30
0.0
 10
-49.9464
 20
-18.5939
 30
0.0
 10
-49.9464
 20
-18.5939
 30
0.0
  0
SPLINE
  5
6B
330
1F
100
AcDbEntity
  8
Ilustrace
 62
   250
100
AcDbSpline
210
0.0
220
0.0
230
1.0
 70
    11
 71
     3
 72
   124
 73
   120
 74
     0
 42
0.0000000001
 43
0.0000000001
 40
0.0
 40
0.0
 40
0.0
 40
0.0
 40
0.032258064516129
 40
0.032258064516129
 40
0.032258064516129
 40
0.032258064516129
 40
0.0645161290322581
 40
0.0645161290322581
 40
0.0645161290322581
 40
0.0645161290322581
 40
0.0967741935483871
 40
0.0967741935483871
 40
0.0967741935483871
 40
0.0967741935483871
 40
0.1290322580645161
 40
0.1290322580645161
 40
0.1290322580645161
 40
0.1290322580645161
 40
0.1612903225806452
 40
0.1612903225806452
 40
0.1612903225806452
 40
0.1612903225806452
 40
0.1935483870967742
 40
0.1935483870967742
 40
0.1935483870967742
 40
0.1935483870967742
 40
0.2258064516129032
 40
0.2258064516129032
 40
0.2258064516129032
 40
0.2258064516129032
 40
0.2580645161290323
 40
0.2580645161290323
 40
0.2580645161290323
 40
0.2580645161290323
 40
0.2903225806451613
 40
0.2903225806451613
 40
0.2903225806451613
 40
0.2903225806451613
 40
0.3225806451612903
 40
0.3225806451612903
 40
0.3225806451612903
 40
0.3225806451612903
 40
0.3548387096774194
 40
0.3548387096774194
 40
0.3548387096774194
 40
0.3548387096774194
 40
0.3870967741935484
 40
0.3870967741935484
 40
0.3870967741935484
 40
0.3870967741935484
 40
0.4193548387096774
 40
0.4193548387096774
 40
0.4193548387096774
 40
0.4193548387096774
 40
0.4516129032258064
 40
0.4516129032258064
 40
0.4516129032258064
 40
0.4516129032258064
 40
0.4838709677419355
 40
0.4838709677419355
 40
0.4838709677419355
 40
0.4838709677419355
 40
0.5161290322580645
 40
0.5161290322580645
 40
0.5161290322580645
 40
0.5161290322580645
 40
0.5483870967741935
 40
0.5483870967741935
 40
0.5483870967741935
 40
0.5483870967741935
 40
0.5806451612903226
 40
0.5806451612903226
 40
0.5806451612903226
 40
0.5806451612903226
 40
0.6129032258064516
 40
0.6129032258064516
 40
0.6129032258064516
 40
0.6129032258064516
 40
0.6451612903225806
 40
0.6451612903225806
 40
0.6451612903225806
 40
0.6451612903225806
 40
0.6774193548387096
 40
0.6774193548387096
 40
0.6774193548387096
 40
0.6774193548387096
 40
0.7096774193548387
 40
0.7096774193548387
 40
0.7096774193548387
 40
0.7096774193548387
 40
0.7419354838709677
 40
0.7419354838709677
 40
0.7419354838709677
 40
0.7419354838709677
 40
0.7741935483870968
 40
0.7741935483870968
 40
0.7741935483870968
 40
0.7741935483870968
 40
0.8064516129032258
 40
0.8064516129032258
 40
0.8064516129032258
 40
0.8064516129032258
 40
0.8387096774193549
 40
0.8387096774193549
 40
0.8387096774193549
 40
0.8387096774193549
 40
0.8709677419354839
 40
0.8709677419354839
 40
0.8709677419354839
 40
0.8709677419354839
 40
0.9032258064516129
 40
0.9032258064516129
 40
0.9032258064516129
 40
0.9032258064516129
 40
0.9354838709677419
 40
0.9354838709677419
 40
0.9354838709677419
 40
0.9354838709677419
 40
1.0
 40
1.0
 40
1.0
 40
1.0
 10
-48.9338
 20
-18.5984
 30
0.0
 10
-49.0218
 20
-18.5984
 30
0.0
 10
-49.1024
 20
-18.5873
 30
0.0
 10
-49.1753
 20
-18.565
 30
0.0
 10
-49.1753
 20
-18.565
 30
0.0
 10
-49.2485
 20
-18.543
 30
0.0
 10
-49.3116
 20
-18.509
 30
0.0
 10
-49.3657
 20
-18.4627
 30
0.0
 10
-49.3657
 20
-18.4627
 30
0.0
 10
-49.4187
 20
-18.4164
 30
0.0
 10
-49.4602
 20
-18.3584
 30
0.0
 10
-49.4897
 20
-18.2886
 30
0.0
 10
-49.4897
 20
-18.2886
 30
0.0
 10
-49.5195
 20
-18.2189
 30
0.0
 10
-49.5344
 20
-18.1364
 30
0.0
 10
-49.5344
 20
-18.0415
 30
0.0
 10
-49.5344
 20
-18.0415
 30
0.0
 10
-49.5344
 20
-17.9399
 30
0.0
 10
-49.5182
 20
-17.8531
 30
0.0
 10
-49.4861
 20
-17.7815
 30
0.0
 10
-49.4861
 20
-17.7815
 30
0.0
 10
-49.4537
 20
-17.7103
 30
0.0
 10
-49.41
 20
-17.6514
 30
0.0
 10
-49.355
 20
-17.6051
 30
0.0
 10
-49.355
 20
-17.6051
 30
0.0
 10
-49.3019
 20
-17.561
 30
0.0
 10
-49.2394
 20
-17.5283
 30
0.0
 10
-49.1678
 20
-17.507
 30
0.0
 10
-49.1678
 20
-17.507
 30
0.0
 10
-49.096
 20
-17.486
 30
0.0
 10
-49.0212
 20
-17.4752
 30
0.0
 10
-48.9435
 20
-17.4752
 30
0.0
 10
-48.9435
 20
-17.4752
 30
0.0
 10
-48.8846
 20
-17.4752
 30
0.0
 10
-48.8259
 20
-17.482
 30
0.0
 10
-48.767
 20
-17.4957
 30
0.0
 10
-48.767
 20
-17.4957
 30
0.0
 10
-48.7081
 20
-17.5093
 30
0.0
 10
-48.6491
 20
-17.5309
 30
0.0
 10
-48.5896
 20
-17.5607
 30
0.0
 10
-48.5896
 20
-17.5607
 30
0.0
 10
-48.5896
 20
-17.5607
 30
0.0
 10
-48.5896
 20
-17.8453
 30
0.0
 10
-48.5896
 20
-17.8453
 30
0.0
 10
-48.5896
 20
-17.8453
 30
0.0
 10
-48.5896
 20
-17.8453
 30
0.0
 10
-48.6323
 20
-17.8453
 30
0.0
 10
-48.6323
 20
-17.8453
 30
0.0
 10
-48.6323
 20
-17.8453
 30
0.0
 10
-48.6456
 20
-17.8326
 30
0.0
 10
-48.6618
 20
-17.8188
 30
0.0
 10
-48.6812
 20
-17.8035
 30
0.0
 10
-48.6812
 20
-17.8035
 30
0.0
 10
-48.7003
 20
-17.7883
 30
0.0
 10
-48.7214
 20
-17.7744
 30
0.0
 10
-48.744
 20
-17.7617
 30
0.0
 10
-48.744
 20
-17.7617
 30
0.0
 10
-48.7683
 20
-17.7485
 30
0.0
 10
-48.7955
 20
-17.7372
 30
0.0
 10
-48.8256
 20
-17.7281
 30
0.0
 10
-48.8256
 20
-17.7281
 30
0.0
 10
-48.8561
 20
-17.7187
 30
0.0
 10
-48.89
 20
-17.7142
 30
0.0
 10
-48.9273
 20
-17.7142
 30
0.0
 10
-48.9273
 20
-17.7142
 30
0.0
 10
-49.0121
 20
-17.7142
 30
0.0
 10
-49.0775
 20
-17.7436
 30
0.0
 10
-49.1241
 20
-17.8029
 30
0.0
 10
-49.1241
 20
-17.8029
 30
0.0
 10
-49.1705
 20
-17.8621
 30
0.0
 10
-49.1938
 20
-17.9414
 30
0.0
 10
-49.1938
 20
-18.0415
 30
0.0
 10
-49.1938
 20
-18.0415
 30
0.0
 10
-49.1938
 20
-18.1483
 30
0.0
 10
-49.1688
 20
-18.2283
 30
0.0
 10
-49.1193
 20
-18.2808
 30
0.0
 10
-49.1193
 20
-18.2808
 30
0.0
 10
-49.0697
 20
-18.3332
 30
0.0
 10
-49.0037
 20
-18.3594
 30
0.0
 10
-48.9214
 20
-18.3594
 30
0.0
 10
-48.9214
 20
-18.3594
 30
0.0
 10
-48.8797
 20
-18.3594
 30
0.0
 10
-48.8431
 20
-18.3546
 30
0.0
 10
-48.8114
 20
-18.3452
 30
0.0
 10
-48.8114
 20
-18.3452
 30
0.0
 10
-48.78
 20
-18.3358
 30
0.0
 10
-48.7528
 20
-18.3241
 30
0.0
 10
-48.7301
 20
-18.3109
 30
0.0
 10
-48.7301
 20
-18.3109
 30
0.0
 10
-48.7078
 20
-18.2975
 30
0.0
 10
-48.689
 20
-18.284
 30
0.0
 10
-48.6731
 20
-18.2698
 30
0.0
 10
-48.6731
 20
-18.2698
 30
0.0
 10
-48.6573
 20
-18.2555
 30
0.0
 10
-48.6437
 20
-18.2426
 30
0.0
 10
-48.6323
 20
-18.2312
 30
0.0
 10
-48.6323
 20
-18.2312
 30
0.0
 10
-48.6323
 20
-18.2312
 30
0.0
 10
-48.5896
 20
-18.2312
 30
0.0
 10
-48.5896
 20
-18.2312
 30
0.0
 10
-48.5896
 20
-18.2312
 30
0.0
 10
-48.5896
 20
-18.2312
 30
0.0
 10
-48.5896
 20
-18.5158
 30
0.0
 10
-48.5896
 20
-18.5158
 30
0.0
 10
-48.5896
 20
-18.5158
 30
0.0
 10
-48.6087
 20
-18.5239
 30
0.0
 10
-48.6304
 20
-18.5336
 30
0.0
 10
-48.6557
 20
-18.5443
 30
0.0
 10
-48.6557
 20
-18.5443
 30
0.0
 10
-48.6806
 20
-18.555
 30
0.0
 10
-48.7058
 20
-18.564
 30
0.0
 10
-48.7317
 20
-18.5708
 30
0.0
 10
-48.7317
 20
-18.5708
 30
0.0
 10
-48.7641
 20
-18.5795
 30
0.0
 10
-48.7942
 20
-18.5863
 30
0.0
 10
-48.8224
 20
-18.5912
 30
0.0
 10
-48.8224
 20
-18.5912
 30
0.0
 10
-48.8505
 20
-18.5961
 30
0.0
 10
-48.8878
 20
-18.5984
 30
0.0
 10
-48.9338
 20
-18.5984
 30
0.0
  0
SPLINE
  5
6C
330
1F
100
AcDbEntity
  8
Ilustrace
 62
   250
100
AcDbSpline
210
0.0
220
0.0
230
1.0
 70
    11
 71
     3
 72
    40
 73
    36
 74
     0
 42
0.0000000001
 43
0.0000000001
 40
0.0
 40
0.0
 40
0.0
 40
0.0
 40
0.1
 40
0.1
 40
0.1
 40
0.1
 40
0.2
 40
0.2
 40
0.2
 40
0.2
 40
0.3
 40
0.3
 40
0.3
 40
0.3
 40
0.4
 40
0.4
 40
0.4
 40
0.4
 40
0.5
 40
0.5
 40
0.5
 40
0.5
 40
0.6
 40
0.6
 40
0.6
 40
0.6
 40
0.7
 40
0.7
 40
0.7
 40
0.7
 40
0.8
 40
0.8
 40
0.8
 40
0.8
 40
1.0
 40
1.0
 40
1.0
 40
1.0
 10
-47.8449
 20
-18.2921
 30
0.0
 10
-47.8449
 20
-18.2921
 30
0.0
 10
-47.8449
 20
-18.07
 30
0.0
 10
-47.8449
 20
-18.07
 30
0.0
 10
-47.8449
 20
-18.07
 30
0.0
 10
-47.9012
 20
-18.0758
 30
0.0
 10
-47.9469
 20
-18.0807
 30
0.0
 10
-47.9815
 20
-18.0845
 30
0.0
 10
-47.9815
 20
-18.0845
 30
0.0
 10
-48.0165
 20
-18.0888
 30
0.0
 10
-48.0505
 20
-18.0969
 30
0.0
 10
-48.0842
 20
-18.1088
 30
0.0
 10
-48.0842
 20
-18.1088
 30
0.0
 10
-48.1133
 20
-18.1188
 30
0.0
 10
-48.1356
 20
-18.1344
 30
0.0
 10
-48.1518
 20
-18.1548
 30
0.0
 10
-48.1518
 20
-18.1548
 30
0.0
 10
-48.168
 20
-18.1755
 30
0.0
 10
-48.1761
 20
-18.2027
 30
0.0
 10
-48.1761
 20
-18.2371
 30
0.0
 10
-48.1761
 20
-18.2371
 30
0.0
 10
-48.1761
 20
-18.2869
 30
0.0
 10
-48.1625
 20
-18.3212
 30
0.0
 10
-48.1356
 20
-18.34
 30
0.0
 10
-48.1356
 20
-18.34
 30
0.0
 10
-48.1087
 20
-18.3584
 30
0.0
 10
-48.0692
 20
-18.3679
 30
0.0
 10
-48.0168
 20
-18.3679
 30
0.0
 10
-48.0168
 20
-18.3679
 30
0.0
 10
-47.9877
 20
-18.3679
 30
0.0
 10
-47.9579
 20
-18.3611
 30
0.0
 10
-47.9274
 20
-18.3478
 30
0.0
 10
-47.9274
 20
-18.3478
 30
0.0
 10
-47.897
 20
-18.3344
 30
0.0
 10
-47.8695
 20
-18.316
 30
0.0
 10
-47.8449
 20
-18.2921
 30
0.0
  0
SPLINE
  5
6D
330
1F
100
AcDbEntity
  8
Ilustrace
 62
   250
100
AcDbSpline
210
0.0
220
0.0
230
1.0
 70
    11
 71
     3
 72
   104
 73
   100
 74
     0
 42
0.0000000001
 43
0.0000000001
 40
0.0
 40
0.0
 40
0.0
 40
0.0
 40
0.0384615384615385
 40
0.0384615384615385
 40
0.0384615384615385
 40
0.0384615384615385
 40
0.0769230769230769
 40
0.0769230769230769
 40
0.0769230769230769
 40
0.0769230769230769
 40
0.1153846153846154
 40
0.1153846153846154
 40
0.1153846153846154
 40
0.1153846153846154
 40
0.1538461538461539
 40
0.1538461538461539
 40
0.1538461538461539
 40
0.1538461538461539
 40
0.1923076923076923
 40
0.1923076923076923
 40
0.1923076923076923
 40
0.1923076923076923
 40
0.2307692307692308
 40
0.2307692307692308
 40
0.2307692307692308
 40
0.2307692307692308
 40
0.2692307692307692
 40
0.2692307692307692
 40
0.2692307692307692
 40
0.2692307692307692
 40
0.3076923076923077
 40
0.3076923076923077
 40
0.3076923076923077
 40
0.3076923076923077
 40
0.3461538461538461
 40
0.3461538461538461
 40
0.3461538461538461
 40
0.3461538461538461
 40
0.3846153846153846
 40
0.3846153846153846
 40
0.3846153846153846
 40
0.3846153846153846
 40
0.4230769230769231
 40
0.4230769230769231
 40
0.4230769230769231
 40
0.4230769230769231
 40
0.4615384615384616
 40
0.4615384615384616
 40
0.4615384615384616
 40
0.4615384615384616
 40
0.5
 40
0.5
 40
0.5
 40
0.5
 40
0.5384615384615384
 40
0.5384615384615384
 40
0.5384615384615384
 40
0.5384615384615384
 40
0.5769230769230769
 40
0.5769230769230769
 40
0.5769230769230769
 40
0.5769230769230769
 40
0.6153846153846154
 40
0.6153846153846154
 40
0.6153846153846154
 40
0.6153846153846154
 40
0.6538461538461539
 40
0.6538461538461539
 40
0.6538461538461539
 40
0.6538461538461539
 40
0.6923076923076923
 40
0.6923076923076923
 40
0.6923076923076923
 40
0.6923076923076923
 40
0.7307692307692307
 40
0.7307692307692307
 40
0.7307692307692307
 40
0.7307692307692307
 40
0.7692307692307693
 40
0.7692307692307693
 40
0.7692307692307693
 40
0.7692307692307693
 40
0.8076923076923077
 40
0.8076923076923077
 40
0.8076923076923077
 40
0.8076923076923077
 40
0.8461538461538461
 40
0.8461538461538461
 40
0.8461538461538461
 40
0.8461538461538461
 40
0.8846153846153846
 40
0.8846153846153846
 40
0.8846153846153846
 40
0.8846153846153846
 40
0.9230769230769231
 40
0.9230769230769231
 40
0.9230769230769231
 40
0.9230769230769231
 40
1.0
 40
1.0
 40
1.0
 40
1.0
 10
-48.4228
 20
-17.5614
 30
0.0
 10
-48.3866
 20
-17.5324
 30
0.0
 10
-48.3367
 20
-17.5067
 30
0.0
 10
-48.2636
 20
-17.4937
 30
0.0
 10
-48.2636
 20
-17.4937
 30
0.0
 10
-48.19
 20
-17.4807
 30
0.0
 10
-48.1159
 20
-17.4743
 30
0.0
 10
-48.0414
 20
-17.4743
 30
0.0
 10
-48.0414
 20
-17.4743
 30
0.0
 10
-47.8579
 20
-17.4743
 30
0.0
 10
-47.7241
 20
-17.5047
 30
0.0
 10
-47.6402
 20
-17.5659
 30
0.0
 10
-47.6402
 20
-17.5659
 30
0.0
 10
-47.5564
 20
-17.6268
 30
0.0
 10
-47.5146
 20
-17.72
 30
0.0
 10
-47.5146
 20
-17.8453
 30
0.0
 10
-47.5146
 20
-17.8453
 30
0.0
 10
-47.5146
 20
-17.8453
 30
0.0
 10
-47.5146
 20
-18.5947
 30
0.0
 10
-47.5146
 20
-18.5947
 30
0.0
 10
-47.5146
 20
-18.5947
 30
0.0
 10
-47.5146
 20
-18.5947
 30
0.0
 10
-47.8449
 20
-18.5947
 30
0.0
 10
-47.8449
 20
-18.5947
 30
0.0
 10
-47.8449
 20
-18.5947
 30
0.0
 10
-47.8449
 20
-18.5947
 30
0.0
 10
-47.8449
 20
-18.4569
 30
0.0
 10
-47.8449
 20
-18.4569
 30
0.0
 10
-47.8449
 20
-18.4569
 30
0.0
 10
-47.8675
 20
-18.476
 30
0.0
 10
-47.8879
 20
-18.4931
 30
0.0
 10
-47.906
 20
-18.5083
 30
0.0
 10
-47.906
 20
-18.5083
 30
0.0
 10
-47.9242
 20
-18.5232
 30
0.0
 10
-47.9482
 20
-18.5385
 30
0.0
 10
-47.9786
 20
-18.5537
 30
0.0
 10
-47.9786
 20
-18.5537
 30
0.0
 10
-48.0084
 20
-18.5682
 30
0.0
 10
-48.0372
 20
-18.5792
 30
0.0
 10
-48.0654
 20
-18.587
 30
0.0
 10
-48.0654
 20
-18.587
 30
0.0
 10
-48.0936
 20
-18.5945
 30
0.0
 10
-48.133
 20
-18.5984
 30
0.0
 10
-48.1836
 20
-18.5984
 30
0.0
 10
-48.1836
 20
-18.5984
 30
0.0
 10
-48.2778
 20
-18.5984
 30
0.0
 10
-48.3561
 20
-18.5666
 30
0.0
 10
-48.4183
 20
-18.5035
 30
0.0
 10
-48.4183
 20
-18.5035
 30
0.0
 10
-48.4808
 20
-18.4403
 30
0.0
 10
-48.5119
 20
-18.3607
 30
0.0
 10
-48.5119
 20
-18.2646
 30
0.0
 10
-48.5119
 20
-18.2646
 30
0.0
 10
-48.5119
 20
-18.1855
 30
0.0
 10
-48.496
 20
-18.1215
 30
0.0
 10
-48.4643
 20
-18.0729
 30
0.0
 10
-48.4643
 20
-18.0729
 30
0.0
 10
-48.4328
 20
-18.0243
 30
0.0
 10
-48.3872
 20
-17.9855
 30
0.0
 10
-48.328
 20
-17.9573
 30
0.0
 10
-48.328
 20
-17.9573
 30
0.0
 10
-48.2678
 20
-17.9282
 30
0.0
 10
-48.1959
 20
-17.9078
 30
0.0
 10
-48.1123
 20
-17.8965
 30
0.0
 10
-48.1123
 20
-17.8965
 30
0.0
 10
-48.0306
 20
-17.8854
 30
0.0
 10
-47.943
 20
-17.8766
 30
0.0
 10
-47.8492
 20
-17.8702
 30
0.0
 10
-47.8492
 20
-17.8702
 30
0.0
 10
-47.8595
 20
-17.8456
 30
0.0
 10
-47.8726
 20
-17.8232
 30
0.0
 10
-47.8882
 20
-17.8032
 30
0.0
 10
-47.8882
 20
-17.8032
 30
0.0
 10
-47.9349
 20
-17.7439
 30
0.0
 10
-48.0002
 20
-17.7145
 30
0.0
 10
-48.0851
 20
-17.7145
 30
0.0
 10
-48.0851
 20
-17.7145
 30
0.0
 10
-48.1223
 20
-17.7145
 30
0.0
 10
-48.1563
 20
-17.7191
 30
0.0
 10
-48.1868
 20
-17.7284
 30
0.0
 10
-48.1868
 20
-17.7284
 30
0.0
 10
-48.2169
 20
-17.7375
 30
0.0
 10
-48.2441
 20
-17.7488
 30
0.0
 10
-48.2683
 20
-17.762
 30
0.0
 10
-48.2683
 20
-17.762
 30
0.0
 10
-48.291
 20
-17.7747
 30
0.0
 10
-48.312
 20
-17.7887
 30
0.0
 10
-48.3311
 20
-17.8038
 30
0.0
 10
-48.3311
 20
-17.8038
 30
0.0
 10
-48.3506
 20
-17.8191
 30
0.0
 10
-48.3668
 20
-17.833
 30
0.0
 10
-48.3801
 20
-17.8456
 30
0.0
 10
-48.3801
 20
-17.8456
 30
0.0
 10
-48.3801
 20
-17.8456
 30
0.0
 10
-48.4228
 20
-17.8456
 30
0.0
 10
-48.4228
 20
-17.8456
 30
0.0
 10
-48.4228
 20
-17.8456
 30
0.0
 10
-48.4228
 20
-17.8456
 30
0.0
 10
-48.4228
 20
-17.5614
 30
0.0
 10
-48.4228
 20
-17.5614
 30
0.0
  0
SPLINE
  5
6E
330
1F
100
AcDbEntity
  8
Ilustrace
 62
   250
370
    30
100
AcDbSpline
210
0.0
220
0.0
230
1.0
 70
    24
 71
     3
 72
     8
 73
     4
 74
     0
 42
0.0000000001
 43
0.0000000001
 40
0.0
 40
0.0
 40
0.0
 40
0.0
 40
1.0
 40
1.0
 40
1.0
 40
1.0
 10
-42.9923
 20
-33.7638
 30
0.0
 10
-42.9923
 20
-33.7638
 30
0.0
 10
-42.9923
 20
-32.3395
 30
0.0
 10
-42.9923
 20
-32.3395
 30
0.0
  0
SPLINE
  5
6F
330
1F
100
AcDbEntity
  8
Ilustrace
 62
   250
370
    30
100
AcDbSpline
210
0.0
220
0.0
230
1.0
 70
    24
 71
     3
 72
     8
 73
     4
 74
     0
 42
0.0000000001
 43
0.0000000001
 40
0.0
 40
0.0
 40
0.0
 40
0.0
 40
1.0
 40
1.0
 40
1.0
 40
1.0
 10
37.6271
 20
-33.7638
 30
0.0
 10
37.6271
 20
-33.7638
 30
0.0
 10
-42.9923
 20
-33.7638
 30
0.0
 10
-42.9923
 20
-33.7638
 30
0.0
  0
SPLINE
  5
70
330
1F
100
AcDbEntity
  8
Ilustrace
 62
   250
370
    30
100
AcDbSpline
210
0.0
220
0.0
230
1.0
 70
    24
 71
     3
 72
     8
 73
     4
 74
     0
 42
0.0000000001
 43
0.0000000001
 40
0.0
 40
0.0
 40
0.0
 40
0.0
 40
1.0
 40
1.0
 40
1.0
 40
1.0
 10
37.6271
 20
-32.3395
 30
0.0
 10
37.6271
 20
-32.3395
 30
0.0
 10
37.6271
 20
-33.7638
 30
0.0
 10
37.6271
 20
-33.7638
 30
0.0
  0
SPLINE
  5
71
330
1F
100
AcDbEntity
  8
Ilustrace
 62
   250
370
    30
100
AcDbSpline
210
0.0
220
0.0
230
1.0
 70
    24
 71
     3
 72
     8
 73
     4
 74
     0
 42
0.0000000001
 43
0.0000000001
 40
0.0
 40
0.0
 40
0.0
 40
0.0
 40
1.0
 40
1.0
 40
1.0
 40
1.0
 10
-43.4197
 20
-33.7638
 30
0.0
 10
-43.4197
 20
-33.7638
 30
0.0
 10
-43.4197
 20
-32.3395
 30
0.0
 10
-43.4197
 20
-32.3395
 30
0.0
  0
SPLINE
  5
72
330
1F
100
AcDbEntity
  8
Ilustrace
 62
   250
370
    30
100
AcDbSpline
210
0.0
220
0.0
230
1.0
 70
    24
 71
     3
 72
     8
 73
     4
 74
     0
 42
0.0000000001
 43
0.0000000001
 40
0.0
 40
0.0
 40
0.0
 40
0.0
 40
1.0
 40
1.0
 40
1.0
 40
1.0
 10
-42.9923
 20
-33.7638
 30
0.0
 10
-42.9923
 20
-33.7638
 30
0.0
 10
-43.4197
 20
-33.7638
 30
0.0
 10
-43.4197
 20
-33.7638
 30
0.0
  0
SPLINE
  5
73
330
1F
100
AcDbEntity
  8
Ilustrace
 62
   250
370
    30
100
AcDbSpline
210
0.0
220
0.0
230
1.0
 70
    24
 71
     3
 72
     8
 73
     4
 74
     0
 42
0.0000000001
 43
0.0000000001
 40
0.0
 40
0.0
 40
0.0
 40
0.0
 40
1.0
 40
1.0
 40
1.0
 40
1.0
 10
38.0545
 20
-33.7638
 30
0.0
 10
38.0545
 20
-33.7638
 30
0.0
 10
37.6271
 20
-33.7638
 30
0.0
 10
37.6271
 20
-33.7638
 30
0.0
  0
SPLINE
  5
74
330
1F
100
AcDbEntity
  8
Ilustrace
 62
   250
370
    30
100
AcDbSpline
210
0.0
220
0.0
230
1.0
 70
    24
 71
     3
 72
     8
 73
     4
 74
     0
 42
0.0000000001
 43
0.0000000001
 40
0.0
 40
0.0
 40
0.0
 40
0.0
 40
1.0
 40
1.0
 40
1.0
 40
1.0
 10
38.0545
 20
-33.7638
 30
0.0
 10
38.0545
 20
-33.7638
 30
0.0
 10
38.0545
 20
-32.3395
 30
0.0
 10
38.0545
 20
-32.3395
 30
0.0
  0
SPLINE
  5
75
330
1F
100
AcDbEntity
  8
Ilustrace
 62
   250
370
    30
100
AcDbSpline
210
0.0
220
0.0
230
1.0
 70
    24
 71
     3
 72
     8
 73
     4
 74
     0
 42
0.0000000001
 43
0.0000000001
 40
0.0
 40
0.0
 40
0.0
 40
0.0
 40
1.0
 40
1.0
 40
1.0
 40
1.0
 10
39.8207
 20
-33.7638
 30
0.0
 10
39.8207
 20
-33.7638
 30
0.0
 10
38.0545
 20
-33.7638
 30
0.0
 10
38.0545
 20
-33.7638
 30
0.0
  0
SPLINE
  5
76
330
1F
100
AcDbEntity
  8
Ilustrace
 62
   250
370
    30
100
AcDbSpline
210
0.0
220
0.0
230
1.0
 70
    24
 71
     3
 72
     8
 73
     4
 74
     0
 42
0.0000000001
 43
0.0000000001
 40
0.0
 40
0.0
 40
0.0
 40
0.0
 40
1.0
 40
1.0
 40
1.0
 40
1.0
 10
39.8207
 20
-32.3395
 30
0.0
 10
39.8207
 20
-32.3395
 30
0.0
 10
39.8207
 20
-33.7638
 30
0.0
 10
39.8207
 20
-33.7638
 30
0.0
  0
SPLINE
  5
77
330
1F
100
AcDbEntity
  8
Ilustrace
 62
   250
370
    30
100
AcDbSpline
210
0.0
220
0.0
230
1.0
 70
    24
 71
     3
 72
     8
 73
     4
 74
     0
 42
0.0000000001
 43
0.0000000001
 40
0.0
 40
0.0
 40
0.0
 40
0.0
 40
1.0
 40
1.0
 40
1.0
 40
1.0
 10
38.8134
 20
-33.7638
 30
0.0
 10
38.8134
 20
-33.7638
 30
0.0
 10
38.8134
 20
-32.3395
 30
0.0
 10
38.8134
 20
-32.3395
 30
0.0
  0
SPLINE
  5
78
330
1F
100
AcDbEntity
  8
Ilustrace
 62
   250
370
    30
100
AcDbSpline
210
0.0
220
0.0
230
1.0
 70
    24
 71
     3
 72
     8
 73
     4
 74
     0
 42
0.0000000001
 43
0.0000000001
 40
0.0
 40
0.0
 40
0.0
 40
0.0
 40
1.0
 40
1.0
 40
1.0
 40
1.0
 10
-43.4197
 20
-33.7638
 30
0.0
 10
-43.4197
 20
-33.7638
 30
0.0
 10
-45.1858
 20
-33.7638
 30
0.0
 10
-45.1858
 20
-33.7638
 30
0.0
  0
SPLINE
  5
79
330
1F
100
AcDbEntity
  8
Ilustrace
 62
   250
370
    30
100
AcDbSpline
210
0.0
220
0.0
230
1.0
 70
    24
 71
     3
 72
     8
 73
     4
 74
     0
 42
0.0000000001
 43
0.0000000001
 40
0.0
 40
0.0
 40
0.0
 40
0.0
 40
1.0
 40
1.0
 40
1.0
 40
1.0
 10
-45.1858
 20
-32.3395
 30
0.0
 10
-45.1858
 20
-32.3395
 30
0.0
 10
-45.1858
 20
-33.7638
 30
0.0
 10
-45.1858
 20
-33.7638
 30
0.0
  0
SPLINE
  5
7A
330
1F
100
AcDbEntity
  8
Ilustrace
 62
   250
370
    30
100
AcDbSpline
210
0.0
220
0.0
230
1.0
 70
    24
 71
     3
 72
     8
 73
     4
 74
     0
 42
0.0000000001
 43
0.0000000001
 40
0.0
 40
0.0
 40
0.0
 40
0.0
 40
1.0
 40
1.0
 40
1.0
 40
1.0
 10
-44.1786
 20
-32.3395
 30
0.0
 10
-44.1786
 20
-32.3395
 30
0.0
 10
-44.1786
 20
-33.7638
 30
0.0
 10
-44.1786
 20
-33.7638
 30
0.0
  0
SPLINE
  5
7B
330
1F
100
AcDbEntity
  8
Ilustrace
 62
   250
370
    30
100
AcDbSpline
210
0.0
220
0.0
230
1.0
 70
    24
 71
     3
 72
     8
 73
     4
 74
     0
 42
0.0000000001
 43
0.0000000001
 40
0.0
 40
0.0
 40
0.0
 40
0.0
 40
1.0
 40
1.0
 40
1.0
 40
1.0
 10
51.7286
 20
-31.1999
 30
0.0
 10
51.7286
 20
-31.1999
 30
0.0
 10
-57.0937
 20
-31.1999
 30
0.0
 10
-57.0937
 20
-31.1999
 30
0.0
  0
SPLINE
  5
7C
330
1F
100
AcDbEntity
  8
Ilustrace
 62
   250
370
    30
100
AcDbSpline
210
0.0
220
0.0
230
1.0
 70
    24
 71
     3
 72
     8
 73
     4
 74
     0
 42
0.0000000001
 43
0.0000000001
 40
0.0
 40
0.0
 40
0.0
 40
0.0
 40
1.0
 40
1.0
 40
1.0
 40
1.0
 10
-57.0937
 20
-32.3395
 30
0.0
 10
-57.0937
 20
-32.3395
 30
0.0
 10
-57.0937
 20
-31.1999
 30
0.0
 10
-57.0937
 20
-31.1999
 30
0.0
  0
SPLINE
  5
7D
330
1F
100
AcDbEntity
  8
Ilustrace
 62
   250
370
    30
100
AcDbSpline
210
0.0
220
0.0
230
1.0
 70
    24
 71
     3
 72
     8
 73
     4
 74
     0
 42
0.0000000001
 43
0.0000000001
 40
0.0
 40
0.0
 40
0.0
 40
0.0
 40
1.0
 40
1.0
 40
1.0
 40
1.0
 10
51.7286
 20
-32.3395
 30
0.0
 10
51.7286
 20
-32.3395
 30
0.0
 10
-57.0937
 20
-32.3395
 30
0.0
 10
-57.0937
 20
-32.3395
 30
0.0
  0
SPLINE
  5
7E
330
1F
100
AcDbEntity
  8
Ilustrace
 62
   250
370
    30
100
AcDbSpline
210
0.0
220
0.0
230
1.0
 70
    24
 71
     3
 72
     8
 73
     4
 74
     0
 42
0.0000000001
 43
0.0000000001
 40
0.0
 40
0.0
 40
0.0
 40
0.0
 40
1.0
 40
1.0
 40
1.0
 40
1.0
 10
51.7286
 20
-31.1999
 30
0.0
 10
51.7286
 20
-31.1999
 30
0.0
 10
51.7286
 20
-32.3395
 30
0.0
 10
51.7286
 20
-32.3395
 30
0.0
  0
SPLINE
  5
7F
330
1F
100
AcDbEntity
  8
Ilustrace
 62
   250
370
     9
100
AcDbSpline
210
0.0
220
0.0
230
1.0
 70
    11
 71
     3
 72
    32
 73
    28
 74
     0
 42
0.0000000001
 43
0.0000000001
 40
0.0
 40
0.0
 40
0.0
 40
0.0
 40
0.125
 40
0.125
 40
0.125
 40
0.125
 40
0.25
 40
0.25
 40
0.25
 40
0.25
 40
0.375
 40
0.375
 40
0.375
 40
0.375
 40
0.5
 40
0.5
 40
0.5
 40
0.5
 40
0.625
 40
0.625
 40
0.625
 40
0.625
 40
0.75
 40
0.75
 40
0.75
 40
0.75
 40
1.0
 40
1.0
 40
1.0
 40
1.0
 10
-55.7917
 20
-26.8
 30
0.0
 10
-55.7917
 20
-26.8
 30
0.0
 10
-55.7917
 20
-26.8
 30
0.0
 10
-55.7917
 20
-26.8
 30
0.0
 10
-55.7917
 20
-26.8
 30
0.0
 10
-55.7917
 20
-26.8
 30
0.0
 10
-55.7917
 20
-26.8
 30
0.0
 10
-55.7917
 20
-26.8
 30
0.0
 10
-55.7917
 20
-26.8
 30
0.0
 10
-55.7917
 20
-26.8
 30
0.0
 10
-57.0645
 20
-26.3566
 30
0.0
 10
-57.0645
 20
-26.3566
 30
0.0
 10
-57.0645
 20
-26.3566
 30
0.0
 10
-57.0645
 20
-26.3566
 30
0.0
 10
-55.7917
 20
-25.9132
 30
0.0
 10
-55.7917
 20
-25.9132
 30
0.0
 10
-55.7917
 20
-25.9132
 30
0.0
 10
-55.7917
 20
-25.9132
 30
0.0
 10
-55.7917
 20
-25.9132
 30
0.0
 10
-55.7917
 20
-25.9132
 30
0.0
 10
-55.7917
 20
-25.9132
 30
0.0
 10
-55.7917
 20
-25.9132
 30
0.0
 10
-55.7917
 20
-25.9132
 30
0.0
 10
-55.7917
 20
-25.9132
 30
0.0
 10
-55.7917
 20
-25.9132
 30
0.0
 10
-55.7917
 20
-25.9132
 30
0.0
 10
-55.7917
 20
-26.8
 30
0.0
 10
-55.7917
 20
-26.8
 30
0.0
  0
SPLINE
  5
80
330
1F
100
AcDbEntity
  8
Ilustrace
 62
   250
370
     9
100
AcDbSpline
210
0.0
220
0.0
230
1.0
 70
    11
 71
     3
 72
    32
 73
    28
 74
     0
 42
0.0000000001
 43
0.0000000001
 40
0.0
 40
0.0
 40
0.0
 40
0.0
 40
0.125
 40
0.125
 40
0.125
 40
0.125
 40
0.25
 40
0.25
 40
0.25
 40
0.25
 40
0.375
 40
0.375
 40
0.375
 40
0.375
 40
0.5
 40
0.5
 40
0.5
 40
0.5
 40
0.625
 40
0.625
 40
0.625
 40
0.625
 40
0.75
 40
0.75
 40
0.75
 40
0.75
 40
1.0
 40
1.0
 40
1.0
 40
1.0
 10
56.2218
 20
-33.6635
 30
0.0
 10
56.2218
 20
-33.6635
 30
0.0
 10
56.2218
 20
-33.6635
 30
0.0
 10
56.2218
 20
-33.6635
 30
0.0
 10
56.2218
 20
-33.6635
 30
0.0
 10
56.2218
 20
-33.6635
 30
0.0
 10
56.2218
 20
-33.6635
 30
0.0
 10
56.2218
 20
-33.6635
 30
0.0
 10
56.2218
 20
-33.6635
 30
0.0
 10
56.2218
 20
-33.6635
 30
0.0
 10
56.6652
 20
-32.3907
 30
0.0
 10
56.6652
 20
-32.3907
 30
0.0
 10
56.6652
 20
-32.3907
 30
0.0
 10
56.6652
 20
-32.3907
 30
0.0
 10
57.1086
 20
-33.6635
 30
0.0
 10
57.1086
 20
-33.6635
 30
0.0
 10
57.1086
 20
-33.6635
 30
0.0
 10
57.1086
 20
-33.6635
 30
0.0
 10
57.1086
 20
-33.6635
 30
0.0
 10
57.1086
 20
-33.6635
 30
0.0
 10
57.1086
 20
-33.6635
 30
0.0
 10
57.1086
 20
-33.6635
 30
0.0
 10
57.1086
 20
-33.6635
 30
0.0
 10
57.1086
 20
-33.6635
 30
0.0
 10
57.1086
 20
-33.6635
 30
0.0
 10
57.1086
 20
-33.6635
 30
0.0
 10
56.2218
 20
-33.6635
 30
0.0
 10
56.2218
 20
-33.6635
 30
0.0
  0
SPLINE
  5
81
330
1F
100
AcDbEntity
  8
Ilustrace
 62
   250
370
     9
100
AcDbSpline
210
0.0
220
0.0
230
1.0
 70
    11
 71
     3
 72
    32
 73
    28
 74
     0
 42
0.0000000001
 43
0.0000000001
 40
0.0
 40
0.0
 40
0.0
 40
0.0
 40
0.125
 40
0.125
 40
0.125
 40
0.125
 40
0.25
 40
0.25
 40
0.25
 40
0.25
 40
0.375
 40
0.375
 40
0.375
 40
0.375
 40
0.5
 40
0.5
 40
0.5
 40
0.5
 40
0.625
 40
0.625
 40
0.625
 40
0.625
 40
0.75
 40
0.75
 40
0.75
 40
0.75
 40
1.0
 40
1.0
 40
1.0
 40
1.0
 10
50.3755
 20
-26.7382
 30
0.0
 10
50.3755
 20
-26.7382
 30
0.0
 10
50.3755
 20
-26.7382
 30
0.0
 10
50.3755
 20
-26.7382
 30
0.0
 10
50.3755
 20
-26.7382
 30
0.0
 10
50.3755
 20
-26.7382
 30
0.0
 10
50.3755
 20
-26.7382
 30
0.0
 10
50.3755
 20
-26.7382
 30
0.0
 10
50.3755
 20
-26.7382
 30
0.0
 10
50.3755
 20
-26.7382
 30
0.0
 10
51.6483
 20
-26.2948
 30
0.0
 10
51.6483
 20
-26.2948
 30
0.0
 10
51.6483
 20
-26.2948
 30
0.0
 10
51.6483
 20
-26.2948
 30
0.0
 10
50.3755
 20
-25.8514
 30
0.0
 10
50.3755
 20
-25.8514
 30
0.0
 10
50.3755
 20
-25.8514
 30
0.0
 10
50.3755
 20
-25.8514
 30
0.0
 10
50.3755
 20
-25.8514
 30
0.0
 10
50.3755
 20
-25.8514
 30
0.0
 10
50.3755
 20
-25.8514
 30
0.0
 10
50.3755
 20
-25.8514
 30
0.0
 10
50.3755
 20
-25.8514
 30
0.0
 10
50.3755
 20
-25.8514
 30
0.0
 10
50.3755
 20
-25.8514
 30
0.0
 10
50.3755
 20
-25.8514
 30
0.0
 10
50.3755
 20
-26.7382
 30
0.0
 10
50.3755
 20
-26.7382
 30
0.0
  0
SPLINE
  5
82
330
1F
100
AcDbEntity
  8
Ilustrace
 62
   250
370
     9
100
AcDbSpline
210
0.0
220
0.0
230
1.0
 70
    11
 71
     3
 72
    32
 73
    28
 74
     0
 42
0.0000000001
 43
0.0000000001
 40
0.0
 40
0.0
 40
0.0
 40
0.0
 40
0.125
 40
0.125
 40
0.125
 40
0.125
 40
0.25
 40
0.25
 40
0.25
 40
0.25
 40
0.375
 40
0.375
 40
0.375
 40
0.375
 40
0.5
 40
0.5
 40
0.5
 40
0.5
 40
0.625
 40
0.625
 40
0.625
 40
0.625
 40
0.75
 40
0.75
 40
0.75
 40
0.75
 40
1.0
 40
1.0
 40
1.0
 40
1.0
 10
53.2734
 20
-16.8018
 30
0.0
 10
53.2734
 20
-16.8018
 30
0.0
 10
53.2734
 20
-16.8018
 30
0.0
 10
53.2734
 20
-16.8018
 30
0.0
 10
53.2734
 20
-16.8018
 30
0.0
 10
53.2734
 20
-16.8018
 30
0.0
 10
53.2734
 20
-16.8018
 30
0.0
 10
53.2734
 20
-16.8018
 30
0.0
 10
53.2734
 20
-16.8018
 30
0.0
 10
53.2734
 20
-16.8018
 30
0.0
 10
53.8599
 20
-18.0153
 30
0.0
 10
53.8599
 20
-18.0153
 30
0.0
 10
53.8599
 20
-18.0153
 30
0.0
 10
53.8599
 20
-18.0153
 30
0.0
 10
52.6464
 20
-17.4288
 30
0.0
 10
52.6464
 20
-17.4288
 30
0.0
 10
52.6464
 20
-17.4288
 30
0.0
 10
52.6464
 20
-17.4288
 30
0.0
 10
52.6464
 20
-17.4288
 30
0.0
 10
52.6464
 20
-17.4288
 30
0.0
 10
52.6464
 20
-17.4288
 30
0.0
 10
52.6464
 20
-17.4288
 30
0.0
 10
52.6464
 20
-17.4288
 30
0.0
 10
52.6464
 20
-17.4288
 30
0.0
 10
52.6464
 20
-17.4288
 30
0.0
 10
52.6464
 20
-17.4288
 30
0.0
 10
53.2734
 20
-16.8018
 30
0.0
 10
53.2734
 20
-16.8018
 30
0.0
  0
SPLINE
  5
83
330
1F
100
AcDbEntity
  8
Ilustrace
 62
   250
370
     9
100
AcDbSpline
210
0.0
220
0.0
230
1.0
 70
    11
 71
     3
 72
    32
 73
    28
 74
     0
 42
0.0000000001
 43
0.0000000001
 40
0.0
 40
0.0
 40
0.0
 40
0.0
 40
0.125
 40
0.125
 40
0.125
 40
0.125
 40
0.25
 40
0.25
 40
0.25
 40
0.25
 40
0.375
 40
0.375
 40
0.375
 40
0.375
 40
0.5
 40
0.5
 40
0.5
 40
0.5
 40
0.625
 40
0.625
 40
0.625
 40
0.625
 40
0.75
 40
0.75
 40
0.75
 40
0.75
 40
1.0
 40
1.0
 40
1.0
 40
1.0
 10
0.1897
 20
35.106
 30
0.0
 10
0.1897
 20
35.106
 30
0.0
 10
0.1897
 20
35.106
 30
0.0
 10
0.1897
 20
35.106
 30
0.0
 10
0.1897
 20
35.106
 30
0.0
 10
0.1897
 20
35.106
 30
0.0
 10
0.1897
 20
35.106
 30
0.0
 10
0.1897
 20
35.106
 30
0.0
 10
0.1897
 20
35.106
 30
0.0
 10
0.1897
 20
35.106
 30
0.0
 10
-0.3968
 20
36.3195
 30
0.0
 10
-0.3968
 20
36.3195
 30
0.0
 10
-0.3968
 20
36.3195
 30
0.0
 10
-0.3968
 20
36.3195
 30
0.0
 10
0.8167
 20
35.733
 30
0.0
 10
0.8167
 20
35.733
 30
0.0
 10
0.8167
 20
35.733
 30
0.0
 10
0.8167
 20
35.733
 30
0.0
 10
0.8167
 20
35.733
 30
0.0
 10
0.8167
 20
35.733
 30
0.0
 10
0.8167
 20
35.733
 30
0.0
 10
0.8167
 20
35.733
 30
0.0
 10
0.8167
 20
35.733
 30
0.0
 10
0.8167
 20
35.733
 30
0.0
 10
0.8167
 20
35.733
 30
0.0
 10
0.8167
 20
35.733
 30
0.0
 10
0.1897
 20
35.106
 30
0.0
 10
0.1897
 20
35.106
 30
0.0
  0
SPLINE
  5
84
330
1F
100
AcDbEntity
  8
Ilustrace
 62
   250
370
     9
100
AcDbSpline
210
0.0
220
0.0
230
1.0
 70
    11
 71
     3
 72
    32
 73
    28
 74
     0
 42
0.0000000001
 43
0.0000000001
 40
0.0
 40
0.0
 40
0.0
 40
0.0
 40
0.125
 40
0.125
 40
0.125
 40
0.125
 40
0.25
 40
0.25
 40
0.25
 40
0.25
 40
0.375
 40
0.375
 40
0.375
 40
0.375
 40
0.5
 40
0.5
 40
0.5
 40
0.5
 40
0.625
 40
0.625
 40
0.625
 40
0.625
 40
0.75
 40
0.75
 40
0.75
 40
0.75
 40
1.0
 40
1.0
 40
1.0
 40
1.0
 10
56.2044
 20
-29.8045
 30
0.0
 10
56.2044
 20
-29.8045
 30
0.0
 10
56.2044
 20
-29.8045
 30
0.0
 10
56.2044
 20
-29.8045
 30
0.0
 10
56.2044
 20
-29.8045
 30
0.0
 10
56.2044
 20
-29.8045
 30
0.0
 10
56.2044
 20
-29.8045
 30
0.0
 10
56.2044
 20
-29.8045
 30
0.0
 10
56.2044
 20
-29.8045
 30
0.0
 10
56.2044
 20
-29.8045
 30
0.0
 10
56.6478
 20
-31.0773
 30
0.0
 10
56.6478
 20
-31.0773
 30
0.0
 10
56.6478
 20
-31.0773
 30
0.0
 10
56.6478
 20
-31.0773
 30
0.0
 10
57.0912
 20
-29.8045
 30
0.0
 10
57.0912
 20
-29.8045
 30
0.0
 10
57.0912
 20
-29.8045
 30
0.0
 10
57.0912
 20
-29.8045
 30
0.0
 10
57.0912
 20
-29.8045
 30
0.0
 10
57.0912
 20
-29.8045
 30
0.0
 10
57.0912
 20
-29.8045
 30
0.0
 10
57.0912
 20
-29.8045
 30
0.0
 10
57.0912
 20
-29.8045
 30
0.0
 10
57.0912
 20
-29.8045
 30
0.0
 10
57.0912
 20
-29.8045
 30
0.0
 10
57.0912
 20
-29.8045
 30
0.0
 10
56.2044
 20
-29.8045
 30
0.0
 10
56.2044
 20
-29.8045
 30
0.0
  0
ENDSEC
  0
SECTION
  2
OBJECTS
  0
DICTIONARY
  5
C
330
0
100
AcDbDictionary
281
     1
  3
ACAD_GROUP
350
D
  3
ACAD_LAYOUT
350
1A
  3
ACAD_MATERIAL
350
3B
  3
ACAD_MLEADERSTYLE
350
87
  3
ACAD_MLINESTYLE
350
17
  3
ACAD_PLOTSETTINGS
350
19
  3
ACAD_PLOTSTYLENAME
350
E
  3
ACAD_VISUALSTYLE
350
2A
  3
AcDbVariableDictionary
350
85
  0
DICTIONARY
  5
D
102
{ACAD_REACTORS
330
C
102
}
330
C
100
AcDbDictionary
281
     1
  0
DICTIONARY
  5
1A
102
{ACAD_REACTORS
330
C
102
}
330
C
100
AcDbDictionary
281
     1
  3
Layout1
350
1E
  3
Layout2
350
26
  3
Model
350
22
  0
DICTIONARY
  5
3B
102
{ACAD_REACTORS
330
C
102
}
330
C
100
AcDbDictionary
281
     1
  3
ByBlock
350
3D
  3
ByLayer
350
3C
  3
Global
350
3E
  0
DICTIONARY
  5
87
102
{ACAD_REACTORS
330
C
102
}
330
C
100
AcDbDictionary
281
     1
  0
DICTIONARY
  5
17
102
{ACAD_REACTORS
330
C
102
}
330
C
100
AcDbDictionary
281
     1
  3
Standard
350
18
  0
DICTIONARY
  5
19
102
{ACAD_REACTORS
330
C
102
}
330
C
100
AcDbDictionary
281
     1
  0
ACDBDICTIONARYWDFLT
  5
E
102
{ACAD_REACTORS
330
C
102
}
330
C
100
AcDbDictionary
281
     1
  3
Normal
350
F
100
AcDbDictionaryWithDefault
340
F
  0
DICTIONARY
  5
2A
102
{ACAD_REACTORS
330
C
102
}
330
C
100
AcDbDictionary
281
     1
  3
2dWireframe
350
2F
  3
3D Hidden
350
31
  3
3dWireframe
350
30
  3
Basic
350
32
  3
Brighten
350
36
  3
ColorChange
350
3A
  3
Conceptual
350
34
  3
Dim
350
35
  3
Facepattern
350
39
  3
Flat
350
2B
  3
FlatWithEdges
350
2C
  3
Gouraud
350
2D
  3
GouraudWithEdges
350
2E
  3
Linepattern
350
38
  3
Realistic
350
33
  3
Thicken
350
37
  0
DICTIONARY
  5
85
102
{ACAD_REACTORS
330
C
102
}
330
C
100
AcDbDictionary
281
     1
  3
DIMASSOC
350
88
  3
HIDETEXT
350
89
  0
LAYOUT
  5
1E
102
{ACAD_REACTORS
330
1A
102
}
330
1A
100
AcDbPlotSettings
  1

  2
none_device
  4

  6

 40
0.0
 41
0.0
 42
0.0
 43
0.0
 44
0.0
 45
0.0
 46
0.0
 47
0.0
 48
0.0
 49
0.0
140
0.0
141
0.0
142
1.0
143
1.0
 70
   688
 72
     0
 73
     0
 74
     5
  7

 75
    16
147
1.0
148
0.0
149
0.0
100
AcDbLayout
  1
Layout1
 70
     1
 71
     1
 10
0.0
 20
0.0
 11
12.0
 21
9.0
 12
0.0
 22
0.0
 32
0.0
 14
1.000000000000000E+20
 24
1.000000000000000E+20
 34
1.000000000000000E+20
 15
-1.000000000000000E+20
 25
-1.000000000000000E+20
 35
-1.000000000000000E+20
146
0.0
 13
0.0
 23
0.0
 33
0.0
 16
1.0
 26
0.0
 36
0.0
 17
0.0
 27
1.0
 37
0.0
 76
     0
330
1B
  0
LAYOUT
  5
26
102
{ACAD_REACTORS
330
1A
102
}
330
1A
100
AcDbPlotSettings
  1

  2
none_device
  4

  6

 40
0.0
 41
0.0
 42
0.0
 43
0.0
 44
0.0
 45
0.0
 46
0.0
 47
0.0
 48
0.0
 49
0.0
140
0.0
141
0.0
142
1.0
143
1.0
 70
   688
 72
     0
 73
     0
 74
     5
  7

 75
    16
147
1.0
148
0.0
149
0.0
100
AcDbLayout
  1
Layout2
 70
     1
 71
     2
 10
0.0
 20
0.0
 11
0.0
 21
0.0
 12
0.0
 22
0.0
 32
0.0
 14
0.0
 24
0.0
 34
0.0
 15
0.0
 25
0.0
 35
0.0
146
0.0
 13
0.0
 23
0.0
 33
0.0
 16
1.0
 26
0.0
 36
0.0
 17
0.0
 27
1.0
 37
0.0
 76
     0
330
23
  0
LAYOUT
  5
22
102
{ACAD_REACTORS
330
1A
102
}
330
1A
100
AcDbPlotSettings
  1

  2
none_device
  4

  6

 40
0.0
 41
0.0
 42
0.0
 43
0.0
 44
0.0
 45
0.0
 46
0.0
 47
0.0
 48
0.0
 49
0.0
140
0.0
141
0.0
142
1.0
143
1.0
 70
  1712
 72
     0
 73
     0
 74
     0
  7

 75
     0
147
1.0
148
0.0
149
0.0
100
AcDbLayout
  1
Model
 70
     1
 71
     0
 10
0.0
 20
0.0
 11
12.0
 21
9.0
 12
0.0
 22
0.0
 32
0.0
 14
-57.4451
 24
-36.6356
 34
0.0
 15
57.1622
 25
36.6855
 35
0.0
146
0.0
 13
0.0
 23
0.0
 33
0.0
 16
1.0
 26
0.0
 36
0.0
 17
0.0
 27
1.0
 37
0.0
 76
     0
330
1F
331
29
  0
MATERIAL
  5
3D
102
{ACAD_REACTORS
330
3B
102
}
102
{ACAD_XDICTIONARY
360
AC
102
}
330
3B
100
AcDbMaterial
  1
ByBlock
  0
MATERIAL
  5
3C
102
{ACAD_REACTORS
330
3B
102
}
102
{ACAD_XDICTIONARY
360
AA
102
}
330
3B
100
AcDbMaterial
  1
ByLayer
  0
MATERIAL
  5
3E
102
{ACAD_REACTORS
330
3B
102
}
102
{ACAD_XDICTIONARY
360
AE
102
}
330
3B
100
AcDbMaterial
  1
Global
  0
MLINESTYLE
  5
18
102
{ACAD_REACTORS
330
17
102
}
330
17
100
AcDbMlineStyle
  2
Standard
 70
     0
  3

 62
   256
 51
90.0
 52
90.0
 71
     2
 49
0.5
 62
   256
  6
BYLAYER
 49
-0.5
 62
   256
  6
BYLAYER
  0
ACDBPLACEHOLDER
  5
F
102
{ACAD_REACTORS
330
E
102
}
330
E
  0
VISUALSTYLE
  5
2F
102
{ACAD_REACTORS
330
2A
102
}
102
{ACAD_XDICTIONARY
360
92
102
}
330
2A
100
AcDbVisualStyle
  2
2dWireframe
 70
     4
 71
     0
 72
     2
 73
     0
 90
        0
 40
-0.6
 41
-30.0
 62
     5
 63
     7
 74
     1
 91
        4
 64
     7
 65
   257
 75
     1
175
     1
 42
1.0
 92
        0
 66
   257
 43
1.0
 76
     1
 77
     6
 78
     2
 67
     7
 79
     5
170
     0
171
     0
290
     0
174
     0
 93
        1
 44
0.0
173
     0
291
     0
 45
0.0
1001
ACAD
1000
AcDbSavedByObjectVersion
1070
     0
  0
VISUALSTYLE
  5
31
102
{ACAD_REACTORS
330
2A
102
}
102
{ACAD_XDICTIONARY
360
96
102
}
330
2A
100
AcDbVisualStyle
  2
3D Hidden
 70
     6
 71
     1
 72
     2
 73
     2
 90
        0
 40
-0.6
 41
-30.0
 62
     5
 63
     7
 74
     2
 91
        2
 64
     7
 65
   257
 75
     2
175
     1
 42
40.0
 92
        0
 66
   257
 43
1.0
 76
     1
 77
     6
 78
     2
 67
     7
 79
     3
170
     0
171
     0
290
     0
174
     0
 93
        1
 44
0.0
173
     0
291
     0
 45
0.0
1001
ACAD
1000
AcDbSavedByObjectVersion
1070
     0
  0
VISUALSTYLE
  5
30
102
{ACAD_REACTORS
330
2A
102
}
102
{ACAD_XDICTIONARY
360
94
102
}
330
2A
100
AcDbVisualStyle
  2
3dWireframe
 70
     5
 71
     0
 72
     2
 73
     0
 90
        0
 40
-0.6
 41
-30.0
 62
     5
 63
     7
 74
     1
 91
        4
 64
     7
 65
   257
 75
     1
175
     1
 42
1.0
 92
        0
 66
   257
 43
1.0
 76
     1
 77
     6
 78
     2
 67
     7
 79
     5
170
     0
171
     0
290
     0
174
     0
 93
        1
 44
0.0
173
     0
291
     0
 45
0.0
1001
ACAD
1000
AcDbSavedByObjectVersion
1070
     0
  0
VISUALSTYLE
  5
32
102
{ACAD_REACTORS
330
2A
102
}
102
{ACAD_XDICTIONARY
360
98
102
}
330
2A
100
AcDbVisualStyle
  2
Basic
 70
     7
 71
     1
 72
     0
 73
     1
 90
        0
 40
-0.6
 41
-30.0
 62
     5
 63
     7
 74
     0
 91
        4
 64
     7
 65
   257
 75
     1
175
     1
 42
1.0
 92
        8
 66
     7
 43
1.0
 76
     1
 77
     6
 78
     2
 67
     7
 79
     5
170
     0
171
     0
290
     0
174
     0
 93
        1
 44
0.0
173
     0
291
     1
 45
0.0
1001
ACAD
1000
AcDbSavedByObjectVersion
1070
     0
  0
VISUALSTYLE
  5
36
102
{ACAD_REACTORS
330
2A
102
}
102
{ACAD_XDICTIONARY
360
A0
102
}
330
2A
100
AcDbVisualStyle
  2
Brighten
 70
    12
 71
     2
 72
     2
 73
     0
 90
        0
 40
-0.6
 41
-30.0
 62
     5
 63
     7
 74
     1
 91
        4
 64
     7
 65
   257
 75
     1
175
     1
 42
1.0
 92
        8
 66
     7
 43
1.0
 76
     1
 77
     6
 78
     2
 67
     7
 79
     5
170
     0
171
     0
290
     0
174
     0
 93
        1
 44
50.0
173
     0
291
     1
 45
0.0
1001
ACAD
1000
AcDbSavedByObjectVersion
1070
     0
  0
VISUALSTYLE
  5
3A
102
{ACAD_REACTORS
330
2A
102
}
102
{ACAD_XDICTIONARY
360
A8
102
}
330
2A
100
AcDbVisualStyle
  2
ColorChange
 70
    16
 71
     2
 72
     2
 73
     3
 90
        0
 40
-0.6
 41
-30.0
 62
     5
 63
     8
 74
     1
 91
        4
 64
     7
 65
   257
 75
     1
175
     1
 42
1.0
 92
        8
 66
     8
 43
1.0
 76
     1
 77
     6
 78
     2
 67
     7
 79
     5
170
     0
171
     0
290
     0
174
     0
 93
        1
 44
0.0
173
     0
291
     1
 45
0.0
1001
ACAD
1000
AcDbSavedByObjectVersion
1070
     0
  0
VISUALSTYLE
  5
34
102
{ACAD_REACTORS
330
2A
102
}
102
{ACAD_XDICTIONARY
360
9C
102
}
330
2A
100
AcDbVisualStyle
  2
Conceptual
 70
     9
 71
     3
 72
     2
 73
     0
 90
        0
 40
-0.6
 41
-30.0
 62
     5
 63
     7
 74
     2
 91
        2
 64
     7
 65
   257
 75
     1
175
     1
 42
40.0
 92
        8
 66
     7
 43
1.0
 76
     1
 77
     6
 78
     2
 67
     7
 79
     3
170
     0
171
     0
290
     0
174
     0
 93
        1
 44
0.0
173
     0
291
     0
 45
0.0
1001
ACAD
1000
AcDbSavedByObjectVersion
1070
     0
  0
VISUALSTYLE
  5
35
102
{ACAD_REACTORS
330
2A
102
}
102
{ACAD_XDICTIONARY
360
9E
102
}
330
2A
100
AcDbVisualStyle
  2
Dim
 70
    11
 71
     2
 72
     2
 73
     0
 90
        0
 40
-0.6
 41
-30.0
 62
     5
 63
     7
 74
     1
 91
        4
 64
     7
 65
   257
 75
     1
175
     1
 42
1.0
 92
        8
 66
     7
 43
1.0
 76
     1
 77
     6
 78
     2
 67
     7
 79
     5
170
     0
171
     0
290
     0
174
     0
 93
        1
 44
-50.0
173
     0
291
     1
 45
0.0
1001
ACAD
1000
AcDbSavedByObjectVersion
1070
     0
  0
VISUALSTYLE
  5
39
102
{ACAD_REACTORS
330
2A
102
}
102
{ACAD_XDICTIONARY
360
A6
102
}
330
2A
100
AcDbVisualStyle
  2
Facepattern
 70
    15
 71
     2
 72
     2
 73
     0
 90
        0
 40
-0.6
 41
-30.0
 62
     5
 63
     7
 74
     1
 91
        4
 64
     7
 65
   257
 75
     1
175
     1
 42
1.0
 92
        8
 66
     7
 43
1.0
 76
     1
 77
     6
 78
     2
 67
     7
 79
     5
170
     0
171
     0
290
     0
174
     0
 93
        1
 44
0.0
173
     0
291
     1
 45
0.0
1001
ACAD
1000
AcDbSavedByObjectVersion
1070
     0
  0
VISUALSTYLE
  5
2B
102
{ACAD_REACTORS
330
2A
102
}
102
{ACAD_XDICTIONARY
360
8A
102
}
330
2A
100
AcDbVisualStyle
  2
Flat
 70
     0
 71
     2
 72
     1
 73
     1
 90
        2
 40
-0.6
 41
30.0
 62
     5
 63
     7
 74
     0
 91
        4
 64
     7
 65
   257
 75
     1
175
     1
 42
1.0
 92
        8
 66
     7
 43
1.0
 76
     1
 77
     6
 78
     2
 67
     7
 79
     5
170
     0
171
     0
290
     0
174
     0
 93
       13
 44
0.0
173
     0
291
     1
 45
0.0
1001
ACAD
1000
AcDbSavedByObjectVersion
1070
     0
  0
VISUALSTYLE
  5
2C
102
{ACAD_REACTORS
330
2A
102
}
102
{ACAD_XDICTIONARY
360
8C
102
}
330
2A
100
AcDbVisualStyle
  2
FlatWithEdges
 70
     1
 71
     2
 72
     1
 73
     1
 90
        2
 40
-0.6
 41
30.0
 62
     5
 63
     7
 74
     1
 91
        4
 64
     7
 65
   257
 75
     1
175
     1
 42
1.0
 92
        0
 66
   257
 43
1.0
 76
     1
 77
     6
 78
     2
 67
     7
 79
     5
170
     0
171
     0
290
     0
174
     0
 93
       13
 44
0.0
173
     0
291
     1
 45
0.0
1001
ACAD
1000
AcDbSavedByObjectVersion
1070
     0
  0
VISUALSTYLE
  5
2D
102
{ACAD_REACTORS
330
2A
102
}
102
{ACAD_XDICTIONARY
360
8E
102
}
330
2A
100
AcDbVisualStyle
  2
Gouraud
 70
     2
 71
     2
 72
     2
 73
     1
 90
        2
 40
-0.6
 41
30.0
 62
     5
 63
     7
 74
     0
 91
        4
 64
     7
 65
   257
 75
     1
175
     1
 42
1.0
 92
        0
 66
     7
 43
1.0
 76
     1
 77
     6
 78
     2
 67
     7
 79
     5
170
     0
171
     0
290
     0
174
     0
 93
       13
 44
0.0
173
     0
291
     1
 45
0.0
1001
ACAD
1000
AcDbSavedByObjectVersion
1070
     0
  0
VISUALSTYLE
  5
2E
102
{ACAD_REACTORS
330
2A
102
}
102
{ACAD_XDICTIONARY
360
90
102
}
330
2A
100
AcDbVisualStyle
  2
GouraudWithEdges
 70
     3
 71
     2
 72
     2
 73
     1
 90
        2
 40
-0.6
 41
30.0
 62
     5
 63
     7
 74
     1
 91
        4
 64
     7
 65
   257
 75
     1
175
     1
 42
1.0
 92
        0
 66
   257
 43
1.0
 76
     1
 77
     6
 78
     2
 67
     7
 79
     5
170
     0
171
     0
290
     0
174
     0
 93
       13
 44
0.0
173
     0
291
     1
 45
0.0
1001
ACAD
1000
AcDbSavedByObjectVersion
1070
     0
  0
VISUALSTYLE
  5
38
102
{ACAD_REACTORS
330
2A
102
}
102
{ACAD_XDICTIONARY
360
A4
102
}
330
2A
100
AcDbVisualStyle
  2
Linepattern
 70
    14
 71
     2
 72
     2
 73
     0
 90
        0
 40
-0.6
 41
-30.0
 62
     5
 63
     7
 74
     1
 91
        4
 64
     7
 65
   257
 75
     7
175
     7
 42
1.0
 92
        8
 66
     7
 43
1.0
 76
     1
 77
     6
 78
     2
 67
     7
 79
     5
170
     0
171
     0
290
     0
174
     0
 93
        1
 44
0.0
173
     0
291
     1
 45
0.0
1001
ACAD
1000
AcDbSavedByObjectVersion
1070
     0
  0
VISUALSTYLE
  5
33
102
{ACAD_REACTORS
330
2A
102
}
102
{ACAD_XDICTIONARY
360
9A
102
}
330
2A
100
AcDbVisualStyle
  2
Realistic
 70
     8
 71
     2
 72
     2
 73
     0
 90
        0
 40
-0.6
 41
-30.0
 62
     5
 63
     7
 74
     1
 91
        0
 64
     7
 65
   257
 75
     1
175
     1
 42
1.0
 92
        8
 66
     8
 43
1.0
 76
     1
 77
     6
 78
     2
 67
     7
 79
     5
170
     0
171
     0
290
     0
174
     0
 93
       13
 44
0.0
173
     0
291
     0
 45
0.0
1001
ACAD
1000
AcDbSavedByObjectVersion
1070
     0
  0
VISUALSTYLE
  5
37
102
{ACAD_REACTORS
330
2A
102
}
102
{ACAD_XDICTIONARY
360
A2
102
}
330
2A
100
AcDbVisualStyle
  2
Thicken
 70
    13
 71
     2
 72
     2
 73
     0
 90
        0
 40
-0.6
 41
-30.0
 62
     5
 63
     7
 74
     1
 91
        4
 64
     7
 65
   257
 75
     1
175
     1
 42
1.0
 92
       12
 66
     7
 43
1.0
 76
     1
 77
     6
 78
     2
 67
     7
 79
     5
170
     0
171
     0
290
     0
174
     0
 93
        1
 44
0.0
173
     0
291
     1
 45
0.0
1001
ACAD
1000
AcDbSavedByObjectVersion
1070
     0
  0
DICTIONARYVAR
  5
88
102
{ACAD_REACTORS
330
85
102
}
330
85
100
DictionaryVariables
280
     0
  1
2
  0
DICTIONARYVAR
  5
89
102
{ACAD_REACTORS
330
85
102
}
330
85
100
DictionaryVariables
280
     0
  1
1
  0
DICTIONARY
  5
AC
330
3D
100
AcDbDictionary
280
     1
281
     1
  3
ACAD_XREC_ROUNDTRIP
360
AD
  0
DICTIONARY
  5
AA
330
3C
100
AcDbDictionary
280
     1
281
     1
  3
ACAD_XREC_ROUNDTRIP
360
AB
  0
DICTIONARY
  5
AE
330
3E
100
AcDbDictionary
280
     1
281
     1
  3
ACAD_XREC_ROUNDTRIP
360
AF
  0
DICTIONARY
  5
92
330
2F
100
AcDbDictionary
280
     1
281
     1
  3
ACAD_XREC_ROUNDTRIP
360
93
  0
DICTIONARY
  5
96
330
31
100
AcDbDictionary
280
     1
281
     1
  3
ACAD_XREC_ROUNDTRIP
360
97
  0
DICTIONARY
  5
94
330
30
100
AcDbDictionary
280
     1
281
     1
  3
ACAD_XREC_ROUNDTRIP
360
95
  0
DICTIONARY
  5
98
330
32
100
AcDbDictionary
280
     1
281
     1
  3
ACAD_XREC_ROUNDTRIP
360
99
  0
DICTIONARY
  5
A0
330
36
100
AcDbDictionary
280
     1
281
     1
  3
ACAD_XREC_ROUNDTRIP
360
A1
  0
DICTIONARY
  5
A8
330
3A
100
AcDbDictionary
280
     1
281
     1
  3
ACAD_XREC_ROUNDTRIP
360
A9
  0
DICTIONARY
  5
9C
330
34
100
AcDbDictionary
280
     1
281
     1
  3
ACAD_XREC_ROUNDTRIP
360
9D
  0
DICTIONARY
  5
9E
330
35
100
AcDbDictionary
280
     1
281
     1
  3
ACAD_XREC_ROUNDTRIP
360
9F
  0
DICTIONARY
  5
A6
330
39
100
AcDbDictionary
280
     1
281
     1
  3
ACAD_XREC_ROUNDTRIP
360
A7
  0
DICTIONARY
  5
8A
330
2B
100
AcDbDictionary
280
     1
281
     1
  3
ACAD_XREC_ROUNDTRIP
360
8B
  0
DICTIONARY
  5
8C
330
2C
100
AcDbDictionary
280
     1
281
     1
  3
ACAD_XREC_ROUNDTRIP
360
8D
  0
DICTIONARY
  5
8E
330
2D
100
AcDbDictionary
280
     1
281
     1
  3
ACAD_XREC_ROUNDTRIP
360
8F
  0
DICTIONARY
  5
90
330
2E
100
AcDbDictionary
280
     1
281
     1
  3
ACAD_XREC_ROUNDTRIP
360
91
  0
DICTIONARY
  5
A4
330
38
100
AcDbDictionary
280
     1
281
     1
  3
ACAD_XREC_ROUNDTRIP
360
A5
  0
DICTIONARY
  5
9A
330
33
100
AcDbDictionary
280
     1
281
     1
  3
ACAD_XREC_ROUNDTRIP
360
9B
  0
DICTIONARY
  5
A2
330
37
100
AcDbDictionary
280
     1
281
     1
  3
ACAD_XREC_ROUNDTRIP
360
A3
  0
XRECORD
  5
AD
102
{ACAD_REACTORS
330
AC
102
}
330
AC
100
AcDbXrecord
280
     1
102
MATERIAL
148
0.0
149
0.0
149
0.0
 93
        0
 94
      127
282
     0
 72
     1
 77
     1
171
     1
175
     1
179
     1
273
     0
  0
XRECORD
  5
AB
102
{ACAD_REACTORS
330
AA
102
}
330
AA
100
AcDbXrecord
280
     1
102
MATERIAL
148
0.0
149
0.0
149
0.0
 93
        0
 94
      127
282
     0
 72
     1
 77
     1
171
     1
175
     1
179
     1
273
     0
  0
XRECORD
  5
AF
102
{ACAD_REACTORS
330
AE
102
}
330
AE
100
AcDbXrecord
280
     1
102
MATERIAL
148
0.0
149
0.0
149
0.0
 93
        0
 94
      127
282
     0
 72
     1
 77
     1
171
     1
175
     1
179
     1
273
     0
  0
XRECORD
  5
93
102
{ACAD_REACTORS
330
92
102
}
330
92
100
AcDbXrecord
280
     1
102
RTVSPropertyOp0
 70
     1
102
RTVSPropertyOp1
 70
     1
102
RTVSPropertyOp2
 70
     1
102
RTVSPropertyOp3
 70
     1
102
RTVSPropertyOp4
 70
     1
102
RTVSPropertyOp5
 70
     1
102
RTVSPropertyOp6
 70
     1
102
RTVSPropertyOp7
 70
     1
102
RTVSPropertyOp8
 70
     1
102
RTVSPropertyOp9
 70
     1
102
RTVSPropertyOp10
 70
     1
102
RTVSPropertyOp11
 70
     1
102
RTVSPropertyOp12
 70
     1
102
RTVSPropertyOp13
 70
     1
102
RTVSPropertyOp14
 70
     1
102
RTVSPropertyOp15
 70
     1
102
RTVSPropertyOp16
 70
     1
102
RTVSPropertyOp17
 70
     1
102
RTVSPropertyOp18
 70
     1
102
RTVSPropertyOp19
 70
     1
102
RTVSPropertyOp20
 70
     1
102
RTVSPropertyOp21
 70
     1
102
RTVSPropertyOp22
 70
     1
102
RTVSPropertyOp23
 70
     1
102
RTVSPropertyOp24
 70
     1
102
RTVSPropertyOp25
 70
     1
102
RTVSPropertyOp26
 70
     1
102
RTVSPropertyOp27
 70
     1
  0
XRECORD
  5
97
102
{ACAD_REACTORS
330
96
102
}
330
96
100
AcDbXrecord
280
     1
102
RTVSPropertyOp0
 70
     1
102
RTVSPropertyOp1
 70
     1
102
RTVSPropertyOp2
 70
     1
102
RTVSPropertyOp3
 70
     1
102
RTVSPropertyOp4
 70
     1
102
RTVSPropertyOp5
 70
     1
102
RTVSPropertyOp6
 70
     1
102
RTVSPropertyOp7
 70
     1
102
RTVSPropertyOp8
 70
     1
102
RTVSPropertyOp9
 70
     1
102
RTVSPropertyOp10
 70
     1
102
RTVSPropertyOp11
 70
     1
102
RTVSPropertyOp12
 70
     1
102
RTVSPropertyOp13
 70
     1
102
RTVSPropertyOp14
 70
     1
102
RTVSPropertyOp15
 70
     1
102
RTVSPropertyOp16
 70
     1
102
RTVSPropertyOp17
 70
     1
102
RTVSPropertyOp18
 70
     1
102
RTVSPropertyOp19
 70
     1
102
RTVSPropertyOp20
 70
     1
102
RTVSPropertyOp21
 70
     1
102
RTVSPropertyOp22
 70
     1
102
RTVSPropertyOp23
 70
     1
102
RTVSPropertyOp24
 70
     1
102
RTVSPropertyOp25
 70
     1
102
RTVSPropertyOp26
 70
     1
102
RTVSPropertyOp27
 70
     1
  0
XRECORD
  5
95
102
{ACAD_REACTORS
330
94
102
}
330
94
100
AcDbXrecord
280
     1
102
RTVSPropertyOp0
 70
     1
102
RTVSPropertyOp1
 70
     1
102
RTVSPropertyOp2
 70
     1
102
RTVSPropertyOp3
 70
     1
102
RTVSPropertyOp4
 70
     1
102
RTVSPropertyOp5
 70
     1
102
RTVSPropertyOp6
 70
     1
102
RTVSPropertyOp7
 70
     1
102
RTVSPropertyOp8
 70
     1
102
RTVSPropertyOp9
 70
     1
102
RTVSPropertyOp10
 70
     1
102
RTVSPropertyOp11
 70
     1
102
RTVSPropertyOp12
 70
     1
102
RTVSPropertyOp13
 70
     1
102
RTVSPropertyOp14
 70
     1
102
RTVSPropertyOp15
 70
     1
102
RTVSPropertyOp16
 70
     1
102
RTVSPropertyOp17
 70
     1
102
RTVSPropertyOp18
 70
     1
102
RTVSPropertyOp19
 70
     1
102
RTVSPropertyOp20
 70
     1
102
RTVSPropertyOp21
 70
     1
102
RTVSPropertyOp22
 70
     1
102
RTVSPropertyOp23
 70
     1
102
RTVSPropertyOp24
 70
     1
102
RTVSPropertyOp25
 70
     1
102
RTVSPropertyOp26
 70
     1
102
RTVSPropertyOp27
 70
     1
  0
XRECORD
  5
99
102
{ACAD_REACTORS
330
98
102
}
330
98
100
AcDbXrecord
280
     1
102
RTVSPropertyOp0
 70
     1
102
RTVSPropertyOp1
 70
     1
102
RTVSPropertyOp2
 70
     1
102
RTVSPropertyOp3
 70
     1
102
RTVSPropertyOp4
 70
     1
102
RTVSPropertyOp5
 70
     1
102
RTVSPropertyOp6
 70
     1
102
RTVSPropertyOp7
 70
     1
102
RTVSPropertyOp8
 70
     1
102
RTVSPropertyOp9
 70
     1
102
RTVSPropertyOp10
 70
     1
102
RTVSPropertyOp11
 70
     1
102
RTVSPropertyOp12
 70
     1
102
RTVSPropertyOp13
 70
     1
102
RTVSPropertyOp14
 70
     1
102
RTVSPropertyOp15
 70
     1
102
RTVSPropertyOp16
 70
     1
102
RTVSPropertyOp17
 70
     1
102
RTVSPropertyOp18
 70
     1
102
RTVSPropertyOp19
 70
     1
102
RTVSPropertyOp20
 70
     1
102
RTVSPropertyOp21
 70
     1
102
RTVSPropertyOp22
 70
     1
102
RTVSPropertyOp23
 70
     1
102
RTVSPropertyOp24
 70
     1
102
RTVSPropertyOp25
 70
     1
102
RTVSPropertyOp26
 70
     1
102
RTVSPropertyOp27
 70
     1
  0
XRECORD
  5
A1
102
{ACAD_REACTORS
330
A0
102
}
330
A0
100
AcDbXrecord
280
     1
102
RTVSPropertyOp0
 70
     1
102
RTVSPropertyOp1
 70
     1
102
RTVSPropertyOp2
 70
     1
102
RTVSPropertyOp3
 70
     1
102
RTVSPropertyOp4
 70
     1
102
RTVSPropertyOp5
 70
     1
102
RTVSPropertyOp6
 70
     1
102
RTVSPropertyOp7
 70
     1
102
RTVSPropertyOp8
 70
     1
102
RTVSPropertyOp9
 70
     1
102
RTVSPropertyOp10
 70
     1
102
RTVSPropertyOp11
 70
     1
102
RTVSPropertyOp12
 70
     1
102
RTVSPropertyOp13
 70
     1
102
RTVSPropertyOp14
 70
     1
102
RTVSPropertyOp15
 70
     1
102
RTVSPropertyOp16
 70
     1
102
RTVSPropertyOp17
 70
     1
102
RTVSPropertyOp18
 70
     1
102
RTVSPropertyOp19
 70
     1
102
RTVSPropertyOp20
 70
     1
102
RTVSPropertyOp21
 70
     1
102
RTVSPropertyOp22
 70
     1
102
RTVSPropertyOp23
 70
     1
102
RTVSPropertyOp24
 70
     1
102
RTVSPropertyOp25
 70
     1
102
RTVSPropertyOp26
 70
     1
102
RTVSPropertyOp27
 70
     1
  0
XRECORD
  5
A9
102
{ACAD_REACTORS
330
A8
102
}
330
A8
100
AcDbXrecord
280
     1
102
RTVSPropertyOp0
 70
     1
102
RTVSPropertyOp1
 70
     1
102
RTVSPropertyOp2
 70
     1
102
RTVSPropertyOp3
 70
     1
102
RTVSPropertyOp4
 70
     1
102
RTVSPropertyOp5
 70
     1
102
RTVSPropertyOp6
 70
     1
102
RTVSPropertyOp7
 70
     1
102
RTVSPropertyOp8
 70
     1
102
RTVSPropertyOp9
 70
     1
102
RTVSPropertyOp10
 70
     1
102
RTVSPropertyOp11
 70
     1
102
RTVSPropertyOp12
 70
     1
102
RTVSPropertyOp13
 70
     1
102
RTVSPropertyOp14
 70
     1
102
RTVSPropertyOp15
 70
     1
102
RTVSPropertyOp16
 70
     1
102
RTVSPropertyOp17
 70
     1
102
RTVSPropertyOp18
 70
     1
102
RTVSPropertyOp19
 70
     1
102
RTVSPropertyOp20
 70
     1
102
RTVSPropertyOp21
 70
     1
102
RTVSPropertyOp22
 70
     1
102
RTVSPropertyOp23
 70
     1
102
RTVSPropertyOp24
 70
     1
102
RTVSPropertyOp25
 70
     1
102
RTVSPropertyOp26
 70
     1
102
RTVSPropertyOp27
 70
     1
  0
XRECORD
  5
9D
102
{ACAD_REACTORS
330
9C
102
}
330
9C
100
AcDbXrecord
280
     1
102
RTVSPropertyOp0
 70
     1
102
RTVSPropertyOp1
 70
     1
102
RTVSPropertyOp2
 70
     1
102
RTVSPropertyOp3
 70
     1
102
RTVSPropertyOp4
 70
     1
102
RTVSPropertyOp5
 70
     1
102
RTVSPropertyOp6
 70
     1
102
RTVSPropertyOp7
 70
     1
102
RTVSPropertyOp8
 70
     1
102
RTVSPropertyOp9
 70
     1
102
RTVSPropertyOp10
 70
     1
102
RTVSPropertyOp11
 70
     1
102
RTVSPropertyOp12
 70
     1
102
RTVSPropertyOp13
 70
     1
102
RTVSPropertyOp14
 70
     1
102
RTVSPropertyOp15
 70
     1
102
RTVSPropertyOp16
 70
     1
102
RTVSPropertyOp17
 70
     1
102
RTVSPropertyOp18
 70
     1
102
RTVSPropertyOp19
 70
     1
102
RTVSPropertyOp20
 70
     1
102
RTVSPropertyOp21
 70
     1
102
RTVSPropertyOp22
 70
     1
102
RTVSPropertyOp23
 70
     1
102
RTVSPropertyOp24
 70
     1
102
RTVSPropertyOp25
 70
     1
102
RTVSPropertyOp26
 70
     1
102
RTVSPropertyOp27
 70
     1
  0
XRECORD
  5
9F
102
{ACAD_REACTORS
330
9E
102
}
330
9E
100
AcDbXrecord
280
     1
102
RTVSPropertyOp0
 70
     1
102
RTVSPropertyOp1
 70
     1
102
RTVSPropertyOp2
 70
     1
102
RTVSPropertyOp3
 70
     1
102
RTVSPropertyOp4
 70
     1
102
RTVSPropertyOp5
 70
     1
102
RTVSPropertyOp6
 70
     1
102
RTVSPropertyOp7
 70
     1
102
RTVSPropertyOp8
 70
     1
102
RTVSPropertyOp9
 70
     1
102
RTVSPropertyOp10
 70
     1
102
RTVSPropertyOp11
 70
     1
102
RTVSPropertyOp12
 70
     1
102
RTVSPropertyOp13
 70
     1
102
RTVSPropertyOp14
 70
     1
102
RTVSPropertyOp15
 70
     1
102
RTVSPropertyOp16
 70
     1
102
RTVSPropertyOp17
 70
     1
102
RTVSPropertyOp18
 70
     1
102
RTVSPropertyOp19
 70
     1
102
RTVSPropertyOp20
 70
     1
102
RTVSPropertyOp21
 70
     1
102
RTVSPropertyOp22
 70
     1
102
RTVSPropertyOp23
 70
     1
102
RTVSPropertyOp24
 70
     1
102
RTVSPropertyOp25
 70
     1
102
RTVSPropertyOp26
 70
     1
102
RTVSPropertyOp27
 70
     1
  0
XRECORD
  5
A7
102
{ACAD_REACTORS
330
A6
102
}
330
A6
100
AcDbXrecord
280
     1
102
RTVSPropertyOp0
 70
     1
102
RTVSPropertyOp1
 70
     1
102
RTVSPropertyOp2
 70
     1
102
RTVSPropertyOp3
 70
     1
102
RTVSPropertyOp4
 70
     1
102
RTVSPropertyOp5
 70
     1
102
RTVSPropertyOp6
 70
     1
102
RTVSPropertyOp7
 70
     1
102
RTVSPropertyOp8
 70
     1
102
RTVSPropertyOp9
 70
     1
102
RTVSPropertyOp10
 70
     1
102
RTVSPropertyOp11
 70
     1
102
RTVSPropertyOp12
 70
     1
102
RTVSPropertyOp13
 70
     1
102
RTVSPropertyOp14
 70
     1
102
RTVSPropertyOp15
 70
     1
102
RTVSPropertyOp16
 70
     1
102
RTVSPropertyOp17
 70
     1
102
RTVSPropertyOp18
 70
     1
102
RTVSPropertyOp19
 70
     1
102
RTVSPropertyOp20
 70
     1
102
RTVSPropertyOp21
 70
     1
102
RTVSPropertyOp22
 70
     1
102
RTVSPropertyOp23
 70
     1
102
RTVSPropertyOp24
 70
     1
102
RTVSPropertyOp25
 70
     1
102
RTVSPropertyOp26
 70
     1
102
RTVSPropertyOp27
 70
     1
  0
XRECORD
  5
8B
102
{ACAD_REACTORS
330
8A
102
}
330
8A
100
AcDbXrecord
280
     1
102
RTVSPropertyOp0
 70
     1
102
RTVSPropertyOp1
 70
     1
102
RTVSPropertyOp2
 70
     1
102
RTVSPropertyOp3
 70
     1
102
RTVSPropertyOp4
 70
     1
102
RTVSPropertyOp5
 70
     1
102
RTVSPropertyOp6
 70
     1
102
RTVSPropertyOp7
 70
     1
102
RTVSPropertyOp8
 70
     1
102
RTVSPropertyOp9
 70
     1
102
RTVSPropertyOp10
 70
     1
102
RTVSPropertyOp11
 70
     1
102
RTVSPropertyOp12
 70
     1
102
RTVSPropertyOp13
 70
     1
102
RTVSPropertyOp14
 70
     1
102
RTVSPropertyOp15
 70
     1
102
RTVSPropertyOp16
 70
     1
102
RTVSPropertyOp17
 70
     1
102
RTVSPropertyOp18
 70
     1
102
RTVSPropertyOp19
 70
     1
102
RTVSPropertyOp20
 70
     1
102
RTVSPropertyOp21
 70
     1
102
RTVSPropertyOp22
 70
     1
102
RTVSPropertyOp23
 70
     1
102
RTVSPropertyOp24
 70
     1
102
RTVSPropertyOp25
 70
     1
102
RTVSPropertyOp26
 70
     1
102
RTVSPropertyOp27
 70
     1
  0
XRECORD
  5
8D
102
{ACAD_REACTORS
330
8C
102
}
330
8C
100
AcDbXrecord
280
     1
102
RTVSPropertyOp0
 70
     1
102
RTVSPropertyOp1
 70
     1
102
RTVSPropertyOp2
 70
     1
102
RTVSPropertyOp3
 70
     1
102
RTVSPropertyOp4
 70
     1
102
RTVSPropertyOp5
 70
     1
102
RTVSPropertyOp6
 70
     1
102
RTVSPropertyOp7
 70
     1
102
RTVSPropertyOp8
 70
     1
102
RTVSPropertyOp9
 70
     1
102
RTVSPropertyOp10
 70
     1
102
RTVSPropertyOp11
 70
     1
102
RTVSPropertyOp12
 70
     1
102
RTVSPropertyOp13
 70
     1
102
RTVSPropertyOp14
 70
     1
102
RTVSPropertyOp15
 70
     1
102
RTVSPropertyOp16
 70
     1
102
RTVSPropertyOp17
 70
     1
102
RTVSPropertyOp18
 70
     1
102
RTVSPropertyOp19
 70
     1
102
RTVSPropertyOp20
 70
     1
102
RTVSPropertyOp21
 70
     1
102
RTVSPropertyOp22
 70
     1
102
RTVSPropertyOp23
 70
     1
102
RTVSPropertyOp24
 70
     1
102
RTVSPropertyOp25
 70
     1
102
RTVSPropertyOp26
 70
     1
102
RTVSPropertyOp27
 70
     1
  0
XRECORD
  5
8F
102
{ACAD_REACTORS
330
8E
102
}
330
8E
100
AcDbXrecord
280
     1
102
RTVSPropertyOp0
 70
     1
102
RTVSPropertyOp1
 70
     1
102
RTVSPropertyOp2
 70
     1
102
RTVSPropertyOp3
 70
     1
102
RTVSPropertyOp4
 70
     1
102
RTVSPropertyOp5
 70
     1
102
RTVSPropertyOp6
 70
     1
102
RTVSPropertyOp7
 70
     1
102
RTVSPropertyOp8
 70
     1
102
RTVSPropertyOp9
 70
     1
102
RTVSPropertyOp10
 70
     1
102
RTVSPropertyOp11
 70
     1
102
RTVSPropertyOp12
 70
     1
102
RTVSPropertyOp13
 70
     1
102
RTVSPropertyOp14
 70
     1
102
RTVSPropertyOp15
 70
     1
102
RTVSPropertyOp16
 70
     1
102
RTVSPropertyOp17
 70
     1
102
RTVSPropertyOp18
 70
     1
102
RTVSPropertyOp19
 70
     1
102
RTVSPropertyOp20
 70
     1
102
RTVSPropertyOp21
 70
     1
102
RTVSPropertyOp22
 70
     1
102
RTVSPropertyOp23
 70
     1
102
RTVSPropertyOp24
 70
     1
102
RTVSPropertyOp25
 70
     1
102
RTVSPropertyOp26
 70
     1
102
RTVSPropertyOp27
 70
     1
  0
XRECORD
  5
91
102
{ACAD_REACTORS
330
90
102
}
330
90
100
AcDbXrecord
280
     1
102
RTVSPropertyOp0
 70
     1
102
RTVSPropertyOp1
 70
     1
102
RTVSPropertyOp2
 70
     1
102
RTVSPropertyOp3
 70
     1
102
RTVSPropertyOp4
 70
     1
102
RTVSPropertyOp5
 70
     1
102
RTVSPropertyOp6
 70
     1
102
RTVSPropertyOp7
 70
     1
102
RTVSPropertyOp8
 70
     1
102
RTVSPropertyOp9
 70
     1
102
RTVSPropertyOp10
 70
     1
102
RTVSPropertyOp11
 70
     1
102
RTVSPropertyOp12
 70
     1
102
RTVSPropertyOp13
 70
     1
102
RTVSPropertyOp14
 70
     1
102
RTVSPropertyOp15
 70
     1
102
RTVSPropertyOp16
 70
     1
102
RTVSPropertyOp17
 70
     1
102
RTVSPropertyOp18
 70
     1
102
RTVSPropertyOp19
 70
     1
102
RTVSPropertyOp20
 70
     1
102
RTVSPropertyOp21
 70
     1
102
RTVSPropertyOp22
 70
     1
102
RTVSPropertyOp23
 70
     1
102
RTVSPropertyOp24
 70
     1
102
RTVSPropertyOp25
 70
     1
102
RTVSPropertyOp26
 70
     1
102
RTVSPropertyOp27
 70
     1
  0
XRECORD
  5
A5
102
{ACAD_REACTORS
330
A4
102
}
330
A4
100
AcDbXrecord
280
     1
102
RTVSPropertyOp0
 70
     1
102
RTVSPropertyOp1
 70
     1
102
RTVSPropertyOp2
 70
     1
102
RTVSPropertyOp3
 70
     1
102
RTVSPropertyOp4
 70
     1
102
RTVSPropertyOp5
 70
     1
102
RTVSPropertyOp6
 70
     1
102
RTVSPropertyOp7
 70
     1
102
RTVSPropertyOp8
 70
     1
102
RTVSPropertyOp9
 70
     1
102
RTVSPropertyOp10
 70
     1
102
RTVSPropertyOp11
 70
     1
102
RTVSPropertyOp12
 70
     1
102
RTVSPropertyOp13
 70
     1
102
RTVSPropertyOp14
 70
     1
102
RTVSPropertyOp15
 70
     1
102
RTVSPropertyOp16
 70
     1
102
RTVSPropertyOp17
 70
     1
102
RTVSPropertyOp18
 70
     1
102
RTVSPropertyOp19
 70
     1
102
RTVSPropertyOp20
 70
     1
102
RTVSPropertyOp21
 70
     1
102
RTVSPropertyOp22
 70
     1
102
RTVSPropertyOp23
 70
     1
102
RTVSPropertyOp24
 70
     1
102
RTVSPropertyOp25
 70
     1
102
RTVSPropertyOp26
 70
     1
102
RTVSPropertyOp27
 70
     1
  0
XRECORD
  5
9B
102
{ACAD_REACTORS
330
9A
102
}
330
9A
100
AcDbXrecord
280
     1
102
RTVSPropertyOp0
 70
     1
102
RTVSPropertyOp1
 70
     1
102
RTVSPropertyOp2
 70
     1
102
RTVSPropertyOp3
 70
     1
102
RTVSPropertyOp4
 70
     1
102
RTVSPropertyOp5
 70
     1
102
RTVSPropertyOp6
 70
     1
102
RTVSPropertyOp7
 70
     1
102
RTVSPropertyOp8
 70
     1
102
RTVSPropertyOp9
 70
     1
102
RTVSPropertyOp10
 70
     1
102
RTVSPropertyOp11
 70
     1
102
RTVSPropertyOp12
 70
     1
102
RTVSPropertyOp13
 70
     1
102
RTVSPropertyOp14
 70
     1
102
RTVSPropertyOp15
 70
     1
102
RTVSPropertyOp16
 70
     1
102
RTVSPropertyOp17
 70
     1
102
RTVSPropertyOp18
 70
     1
102
RTVSPropertyOp19
 70
     1
102
RTVSPropertyOp20
 70
     1
102
RTVSPropertyOp21
 70
     1
102
RTVSPropertyOp22
 70
     1
102
RTVSPropertyOp23
 70
     1
102
RTVSPropertyOp24
 70
     1
102
RTVSPropertyOp25
 70
     1
102
RTVSPropertyOp26
 70
     1
102
RTVSPropertyOp27
 70
     1
  0
XRECORD
  5
A3
102
{ACAD_REACTORS
330
A2
102
}
330
A2
100
AcDbXrecord
280
     1
102
RTVSPropertyOp0
 70
     1
102
RTVSPropertyOp1
 70
     1
102
RTVSPropertyOp2
 70
     1
102
RTVSPropertyOp3
 70
     1
102
RTVSPropertyOp4
 70
     1
102
RTVSPropertyOp5
 70
     1
102
RTVSPropertyOp6
 70
     1
102
RTVSPropertyOp7
 70
     1
102
RTVSPropertyOp8
 70
     1
102
RTVSPropertyOp9
 70
     1
102
RTVSPropertyOp10
 70
     1
102
RTVSPropertyOp11
 70
     1
102
RTVSPropertyOp12
 70
     1
102
RTVSPropertyOp13
 70
     1
102
RTVSPropertyOp14
 70
     1
102
RTVSPropertyOp15
 70
     1
102
RTVSPropertyOp16
 70
     1
102
RTVSPropertyOp17
 70
     1
102
RTVSPropertyOp18
 70
     1
102
RTVSPropertyOp19
 70
     1
102
RTVSPropertyOp20
 70
     1
102
RTVSPropertyOp21
 70
     1
102
RTVSPropertyOp22
 70
     1
102
RTVSPropertyOp23
 70
     1
102
RTVSPropertyOp24
 70
     1
102
RTVSPropertyOp25
 70
     1
102
RTVSPropertyOp26
 70
     1
102
RTVSPropertyOp27
 70
     1
  0
ENDSEC
  0
EOF
