  0
SECTION
  2
HEADER
  9
$ACADVER
  1
AC1014
  9
$ACADMAINTVER
 70
     9
  9
$DWGCODEPAGE
  3
ANSI_1250
  9
$INSBASE
 10
0.0
 20
0.0
 30
0.0
  9
$EXTMIN
 10
-29.7723
 20
-18.4462
 30
0.0
  9
$EXTMAX
 10
29.7729
 20
18.3647
 30
0.0
  9
$LIMMIN
 10
0.0
 20
0.0
  9
$LIMMAX
 10
12.0
 20
9.0
  9
$ORTHOMODE
 70
     0
  9
$REGENMODE
 70
     1
  9
$FILLMODE
 70
     1
  9
$QTEXTMODE
 70
     0
  9
$MIRRTEXT
 70
     1
  9
$DRAGMODE
 70
     2
  9
$LTSCALE
 40
1.0
  9
$OSMODE
 70
    37
  9
$ATTMODE
 70
     1
  9
$TEXTSIZE
 40
0.2
  9
$TRACEWID
 40
0.05
  9
$TEXTSTYLE
  7
STANDARD
  9
$CLAYER
  8
0
  9
$CELTYPE
  6
BYLAYER
  9
$CECOLOR
 62
   256
  9
$CELTSCALE
 40
1.0
  9
$DELOBJ
 70
     1
  9
$DISPSILH
 70
     0
  9
$DIMSCALE
 40
1.0
  9
$DIMASZ
 40
0.18
  9
$DIMEXO
 40
0.0625
  9
$DIMDLI
 40
0.38
  9
$DIMRND
 40
0.0
  9
$DIMDLE
 40
0.0
  9
$DIMEXE
 40
0.18
  9
$DIMTP
 40
0.0
  9
$DIMTM
 40
0.0
  9
$DIMTXT
 40
0.18
  9
$DIMCEN
 40
0.09
  9
$DIMTSZ
 40
0.0
  9
$DIMTOL
 70
     0
  9
$DIMLIM
 70
     0
  9
$DIMTIH
 70
     1
  9
$DIMTOH
 70
     1
  9
$DIMSE1
 70
     0
  9
$DIMSE2
 70
     0
  9
$DIMTAD
 70
     0
  9
$DIMZIN
 70
     0
  9
$DIMBLK
  1

  9
$DIMASO
 70
     1
  9
$DIMSHO
 70
     1
  9
$DIMPOST
  1

  9
$DIMAPOST
  1

  9
$DIMALT
 70
     0
  9
$DIMALTD
 70
     2
  9
$DIMALTF
 40
25.4
  9
$DIMLFAC
 40
1.0
  9
$DIMTOFL
 70
     0
  9
$DIMTVP
 40
0.0
  9
$DIMTIX
 70
     0
  9
$DIMSOXD
 70
     0
  9
$DIMSAH
 70
     0
  9
$DIMBLK1
  1

  9
$DIMBLK2
  1

  9
$DIMSTYLE
  2
STANDARD
  9
$DIMCLRD
 70
     0
  9
$DIMCLRE
 70
     0
  9
$DIMCLRT
 70
     0
  9
$DIMTFAC
 40
1.0
  9
$DIMGAP
 40
0.09
  9
$DIMJUST
 70
     0
  9
$DIMSD1
 70
     0
  9
$DIMSD2
 70
     0
  9
$DIMTOLJ
 70
     1
  9
$DIMTZIN
 70
     0
  9
$DIMALTZ
 70
     0
  9
$DIMALTTZ
 70
     0
  9
$DIMFIT
 70
     3
  9
$DIMUPT
 70
     0
  9
$DIMUNIT
 70
     2
  9
$DIMDEC
 70
     4
  9
$DIMTDEC
 70
     4
  9
$DIMALTU
 70
     2
  9
$DIMALTTD
 70
     2
  9
$DIMTXSTY
  7
STANDARD
  9
$DIMAUNIT
 70
     0
  9
$LUNITS
 70
     2
  9
$LUPREC
 70
     4
  9
$SKETCHINC
 40
0.1
  9
$FILLETRAD
 40
0.5
  9
$AUNITS
 70
     0
  9
$AUPREC
 70
     0
  9
$MENU
  1
.
  9
$ELEVATION
 40
0.0
  9
$PELEVATION
 40
0.0
  9
$THICKNESS
 40
0.0
  9
$LIMCHECK
 70
     0
  9
$CHAMFERA
 40
0.5
  9
$CHAMFERB
 40
0.5
  9
$CHAMFERC
 40
1.0
  9
$CHAMFERD
 40
0.0
  9
$SKPOLY
 70
     0
  9
$TDCREATE
 40
2456220.565172963
  9
$TDUPDATE
 40
2456220.565172974
  9
$TDINDWG
 40
0.0000000116
  9
$TDUSRTIMER
 40
0.0000000116
  9
$USRTIMER
 70
     1
  9
$ANGBASE
 50
0.0
  9
$ANGDIR
 70
     0
  9
$PDMODE
 70
     0
  9
$PDSIZE
 40
0.0
  9
$PLINEWID
 40
0.0
  9
$COORDS
 70
     1
  9
$SPLFRAME
 70
     0
  9
$SPLINETYPE
 70
     6
  9
$SPLINESEGS
 70
     8
  9
$ATTDIA
 70
     0
  9
$ATTREQ
 70
     1
  9
$HANDLING
 70
     1
  9
$HANDSEED
  5
F5
  9
$SURFTAB1
 70
     6
  9
$SURFTAB2
 70
     6
  9
$SURFTYPE
 70
     6
  9
$SURFU
 70
     6
  9
$SURFV
 70
     6
  9
$UCSNAME
  2

  9
$UCSORG
 10
0.0
 20
0.0
 30
0.0
  9
$UCSXDIR
 10
1.0
 20
0.0
 30
0.0
  9
$UCSYDIR
 10
0.0
 20
1.0
 30
0.0
  9
$PUCSNAME
  2

  9
$PUCSORG
 10
0.0
 20
0.0
 30
0.0
  9
$PUCSXDIR
 10
1.0
 20
0.0
 30
0.0
  9
$PUCSYDIR
 10
0.0
 20
1.0
 30
0.0
  9
$USERI1
 70
     0
  9
$USERI2
 70
     0
  9
$USERI3
 70
     0
  9
$USERI4
 70
     0
  9
$USERI5
 70
     0
  9
$USERR1
 40
0.0
  9
$USERR2
 40
0.0
  9
$USERR3
 40
0.0
  9
$USERR4
 40
0.0
  9
$USERR5
 40
0.0
  9
$WORLDVIEW
 70
     1
  9
$SHADEDGE
 70
     3
  9
$SHADEDIF
 70
    70
  9
$TILEMODE
 70
     1
  9
$MAXACTVP
 70
    64
  9
$PINSBASE
 10
0.0
 20
0.0
 30
0.0
  9
$PLIMCHECK
 70
     0
  9
$PEXTMIN
 10
1.000000000000000E+20
 20
1.000000000000000E+20
 30
1.000000000000000E+20
  9
$PEXTMAX
 10
-1.000000000000000E+20
 20
-1.000000000000000E+20
 30
-1.000000000000000E+20
  9
$PLIMMIN
 10
0.0
 20
0.0
  9
$PLIMMAX
 10
12.0
 20
9.0
  9
$UNITMODE
 70
     0
  9
$VISRETAIN
 70
     1
  9
$PLINEGEN
 70
     0
  9
$PSLTSCALE
 70
     1
  9
$TREEDEPTH
 70
  3020
  9
$PICKSTYLE
 70
     1
  9
$CMLSTYLE
  2
STANDARD
  9
$CMLJUST
 70
     0
  9
$CMLSCALE
 40
1.0
  9
$PROXYGRAPHICS
 70
     1
  9
$MEASUREMENT
 70
     0
  0
ENDSEC
  0
SECTION
  2
CLASSES
  0
CLASS
  1
ACDBDICTIONARYWDFLT
  2
AcDbDictionaryWithDefault
  3
ObjectDBX Classes
 90
        0
280
     0
281
     0
  0
CLASS
  1
VISUALSTYLE
  2
AcDbVisualStyle
  3
ObjectDBX Classes
 90
     4095
280
     0
281
     0
  0
CLASS
  1
MATERIAL
  2
AcDbMaterial
  3
ObjectDBX Classes
 90
     1153
280
     0
281
     0
  0
CLASS
  1
DICTIONARYVAR
  2
AcDbDictionaryVar
  3
ObjectDBX Classes
 90
        0
280
     0
281
     0
  0
CLASS
  1
XRECORD
  2
AcDbXrecord
  3
AutoCAD 2000
 90
        0
280
     0
281
     0
  0
CLASS
  1
LWPOLYLINE
  2
AcDbPolyline
  3
AutoCAD 2000
 90
        0
280
     0
281
     1
  0
CLASS
  1
HATCH
  2
AcDbHatch
  3
AutoCAD 2000
 90
        0
280
     0
281
     1
  0
CLASS
  1
ACDBPLACEHOLDER
  2
AcDbPlaceHolder
  3
ObjectDBX Classes
 90
        0
280
     0
281
     0
  0
CLASS
  1
LAYOUT
  2
AcDbLayout
  3
ObjectDBX Classes
 90
        0
280
     0
281
     0
  0
ENDSEC
  0
SECTION
  2
TABLES
  0
TABLE
  2
VPORT
  5
8
330
0
100
AcDbSymbolTable
 70
     1
  0
VPORT
  5
29
330
8
100
AcDbSymbolTableRecord
100
AcDbViewportTableRecord
  2
*ACTIVE
 70
     0
 10
0.0
 20
0.0
 11
1.0
 21
1.0
 12
10.42990654205607
 22
4.5
 13
0.0
 23
0.0
 14
0.5
 24
0.5
 15
0.5
 25
0.5
 16
0.0
 26
0.0
 36
1.0
 17
0.0
 27
0.0
 37
0.0
 40
9.0
 41
1.972972972850329
 42
50.0
 43
0.0
 44
0.0
 50
0.0
 51
0.0
 71
     0
 72
   100
 73
     1
 74
     3
 75
     0
 76
     0
 77
     0
 78
     0
  0
ENDTAB
  0
TABLE
  2
LTYPE
  5
5
330
0
100
AcDbSymbolTable
 70
     1
  0
LTYPE
  5
14
330
5
100
AcDbSymbolTableRecord
100
AcDbLinetypeTableRecord
  2
BYBLOCK
 70
     0
  3

 72
    65
 73
     0
 40
0.0
  0
LTYPE
  5
15
330
5
100
AcDbSymbolTableRecord
100
AcDbLinetypeTableRecord
  2
BYLAYER
 70
     0
  3

 72
    65
 73
     0
 40
0.0
  0
LTYPE
  5
16
330
5
100
AcDbSymbolTableRecord
100
AcDbLinetypeTableRecord
  2
CONTINUOUS
 70
     0
  3
Solid line
 72
    65
 73
     0
 40
0.0
  0
ENDTAB
  0
TABLE
  2
LAYER
  5
2
330
0
100
AcDbSymbolTable
 70
     2
  0
LAYER
  5
10
330
2
100
AcDbSymbolTableRecord
100
AcDbLayerTableRecord
  2
0
 70
     0
 62
     7
  6
CONTINUOUS
  0
LAYER
  5
40
330
2
100
AcDbSymbolTableRecord
100
AcDbLayerTableRecord
  2
AXIS
 70
     0
 62
     7
  6
CONTINUOUS
  0
ENDTAB
  0
TABLE
  2
STYLE
  5
3
330
0
100
AcDbSymbolTable
 70
     1
  0
STYLE
  5
11
330
3
100
AcDbSymbolTableRecord
100
AcDbTextStyleTableRecord
  2
STANDARD
 70
     0
 40
0.0
 41
1.0
 50
0.0
 71
     0
 42
0.2
  3
txt
  4

  0
ENDTAB
  0
TABLE
  2
VIEW
  5
6
330
0
100
AcDbSymbolTable
 70
     0
  0
ENDTAB
  0
TABLE
  2
UCS
  5
7
330
0
100
AcDbSymbolTable
 70
     0
  0
ENDTAB
  0
TABLE
  2
APPID
  5
9
330
0
100
AcDbSymbolTable
 70
     2
  0
APPID
  5
12
330
9
100
AcDbSymbolTableRecord
100
AcDbRegAppTableRecord
  2
ACAD
 70
     0
  0
APPID
  5
3F
330
9
100
AcDbSymbolTableRecord
100
AcDbRegAppTableRecord
  2
ODA
 70
     0
  0
ENDTAB
  0
TABLE
  2
DIMSTYLE
  5
A
330
0
100
AcDbSymbolTable
 70
     1
  0
DIMSTYLE
105
27
330
A
100
AcDbSymbolTableRecord
100
AcDbDimStyleTableRecord
  2
STANDARD
 70
     0
  3

  4

  5

  6

  7

 40
1.0
 41
0.18
 42
0.0625
 43
0.38
 44
0.18
 45
0.0
 46
0.0
 47
0.0
 48
0.0
140
0.18
141
0.09
142
0.0
143
25.4
144
1.0
145
0.0
146
1.0
147
0.09
 71
     0
 72
     0
 73
     1
 74
     1
 75
     0
 76
     0
 77
     0
 78
     0
170
     0
171
     2
172
     0
173
     0
174
     0
175
     0
176
     0
177
     0
178
     0
270
     2
271
     4
272
     4
273
     2
274
     2
340
11
275
     0
280
     0
281
     0
282
     0
283
     1
284
     0
285
     0
286
     0
287
     3
288
     0
  0
ENDTAB
  0
TABLE
  2
BLOCK_RECORD
  5
1
330
0
100
AcDbSymbolTable
 70
     1
  0
BLOCK_RECORD
  5
1F
330
1
100
AcDbSymbolTableRecord
100
AcDbBlockTableRecord
  2
*MODEL_SPACE
  0
BLOCK_RECORD
  5
1B
330
1
100
AcDbSymbolTableRecord
100
AcDbBlockTableRecord
  2
*PAPER_SPACE
  0
ENDTAB
  0
ENDSEC
  0
SECTION
  2
BLOCKS
  0
BLOCK
  5
20
330
1F
100
AcDbEntity
  8
0
100
AcDbBlockBegin
  2
*MODEL_SPACE
 70
     0
 10
0.0
 20
0.0
 30
0.0
  3
*MODEL_SPACE
  1

  0
ENDBLK
  5
21
330
1F
100
AcDbEntity
  8
0
100
AcDbBlockEnd
  0
BLOCK
  5
1C
330
1B
100
AcDbEntity
 67
     1
  8
0
100
AcDbBlockBegin
  2
*PAPER_SPACE
 70
     0
 10
0.0
 20
0.0
 30
0.0
  3
*PAPER_SPACE
  1

  0
ENDBLK
  5
1D
330
1B
100
AcDbEntity
 67
     1
  8
0
100
AcDbBlockEnd
  0
ENDSEC
  0
SECTION
  2
ENTITIES
  0
SPLINE
  5
41
330
1F
100
AcDbEntity
  8
AXIS
 62
   250
100
AcDbSpline
210
0.0
220
0.0
230
1.0
 70
    24
 71
     3
 72
     8
 73
     4
 74
     0
 42
0.0000000001
 43
0.0000000001
 40
0.0
 40
0.0
 40
0.0
 40
0.0
 40
1.0
 40
1.0
 40
1.0
 40
1.0
 10
-24.4418
 20
-13.8915
 30
0.0
 10
-24.4418
 20
-13.8915
 30
0.0
 10
15.0099
 20
-13.8915
 30
0.0
 10
15.0099
 20
-13.8915
 30
0.0
  0
SPLINE
  5
42
330
1F
100
AcDbEntity
  8
AXIS
 62
   250
100
AcDbSpline
210
0.0
220
0.0
230
1.0
 70
    24
 71
     3
 72
     8
 73
     4
 74
     0
 42
0.0000000001
 43
0.0000000001
 40
0.0
 40
0.0
 40
0.0
 40
0.0
 40
1.0
 40
1.0
 40
1.0
 40
1.0
 10
-24.4418
 20
13.5794
 30
0.0
 10
-24.4418
 20
13.5794
 30
0.0
 10
15.01
 20
13.5794
 30
0.0
 10
15.01
 20
13.5794
 30
0.0
  0
SPLINE
  5
43
330
1F
100
AcDbEntity
  8
AXIS
 62
   250
100
AcDbSpline
210
0.0
220
0.0
230
1.0
 70
    24
 71
     3
 72
     8
 73
     4
 74
     0
 42
0.0000000001
 43
0.0000000001
 40
0.0
 40
0.0
 40
0.0
 40
0.0
 40
1.0
 40
1.0
 40
1.0
 40
1.0
 10
1.7592
 20
4.2821
 30
0.0
 10
1.7592
 20
4.2821
 30
0.0
 10
-0.8195
 20
-0.2199
 30
0.0
 10
-0.8195
 20
-0.2199
 30
0.0
  0
SPLINE
  5
44
330
1F
100
AcDbEntity
  8
AXIS
 62
   250
100
AcDbSpline
210
0.0
220
0.0
230
1.0
 70
     8
 71
     3
 72
     8
 73
     4
 74
     0
 42
0.0000000001
 43
0.0000000001
 40
0.0
 40
0.0
 40
0.0
 40
0.0
 40
1.0
 40
1.0
 40
1.0
 40
1.0
 10
3.7931
 20
7.6652
 30
0.0
 10
3.7336
 20
7.6652
 30
0.0
 10
3.6788
 20
7.6331
 30
0.0
 10
3.649
 20
7.5812
 30
0.0
  0
SPLINE
  5
45
330
1F
100
AcDbEntity
  8
AXIS
 62
   250
100
AcDbSpline
210
0.0
220
0.0
230
1.0
 70
     8
 71
     3
 72
     8
 73
     4
 74
     0
 42
0.0000000001
 43
0.0000000001
 40
0.0
 40
0.0
 40
0.0
 40
0.0
 40
1.0
 40
1.0
 40
1.0
 40
1.0
 10
9.5352
 20
7.4974
 30
0.0
 10
9.5352
 20
7.5901
 30
0.0
 10
9.4607
 20
7.6652
 30
0.0
 10
9.3688
 20
7.6652
 30
0.0
  0
SPLINE
  5
46
330
1F
100
AcDbEntity
  8
AXIS
 62
   250
100
AcDbSpline
210
0.0
220
0.0
230
1.0
 70
     8
 71
     3
 72
    20
 73
    16
 74
     0
 42
0.0000000001
 43
0.0000000001
 40
0.0
 40
0.0
 40
0.0
 40
0.0
 40
0.2
 40
0.2
 40
0.2
 40
0.2
 40
0.4
 40
0.4
 40
0.4
 40
0.4
 40
0.6
 40
0.6
 40
0.6
 40
0.6
 40
1.0
 40
1.0
 40
1.0
 40
1.0
 10
9.7016
 20
7.8409
 30
0.0
 10
9.7016
 20
7.8409
 30
0.0
 10
9.689
 20
7.9053
 30
0.0
 10
9.689
 20
7.9053
 30
0.0
 10
9.689
 20
7.9053
 30
0.0
 10
9.689
 20
7.9053
 30
0.0
 10
9.653
 20
7.9598
 30
0.0
 10
9.653
 20
7.9598
 30
0.0
 10
9.653
 20
7.9598
 30
0.0
 10
9.653
 20
7.9598
 30
0.0
 10
9.5989
 20
7.9962
 30
0.0
 10
9.5989
 20
7.9962
 30
0.0
 10
9.5989
 20
7.9962
 30
0.0
 10
9.5989
 20
7.9962
 30
0.0
 10
9.5352
 20
8.0091
 30
0.0
 10
9.5352
 20
8.0091
 30
0.0
  0
SPLINE
  5
47
330
1F
100
AcDbEntity
  8
AXIS
 62
   250
100
AcDbSpline
210
0.0
220
0.0
230
1.0
 70
    24
 71
     3
 72
     8
 73
     4
 74
     0
 42
0.0000000001
 43
0.0000000001
 40
0.0
 40
0.0
 40
0.0
 40
0.0
 40
1.0
 40
1.0
 40
1.0
 40
1.0
 10
-19.0927
 20
-8.0246
 30
0.0
 10
-19.0927
 20
-8.0246
 30
0.0
 10
-19.0911
 20
-8.031
 30
0.0
 10
-19.0911
 20
-8.031
 30
0.0
  0
SPLINE
  5
48
330
1F
100
AcDbEntity
  8
AXIS
 62
   250
100
AcDbSpline
210
0.0
220
0.0
230
1.0
 70
     8
 71
     3
 72
    24
 73
    20
 74
     0
 42
0.0000000001
 43
0.0000000001
 40
0.0
 40
0.0
 40
0.0
 40
0.0
 40
0.1666666666666667
 40
0.1666666666666667
 40
0.1666666666666667
 40
0.1666666666666667
 40
0.3333333333333333
 40
0.3333333333333333
 40
0.3333333333333333
 40
0.3333333333333333
 40
0.5
 40
0.5
 40
0.5
 40
0.5
 40
0.6666666666666666
 40
0.6666666666666666
 40
0.6666666666666666
 40
0.6666666666666666
 40
1.0
 40
1.0
 40
1.0
 40
1.0
 10
3.2168
 20
7.7172
 30
0.0
 10
3.2168
 20
7.7172
 30
0.0
 10
3.2738
 20
7.7072
 30
0.0
 10
3.2738
 20
7.7072
 30
0.0
 10
3.2738
 20
7.7072
 30
0.0
 10
3.2738
 20
7.7072
 30
0.0
 10
3.3239
 20
7.678
 30
0.0
 10
3.3239
 20
7.678
 30
0.0
 10
3.3239
 20
7.678
 30
0.0
 10
3.3239
 20
7.678
 30
0.0
 10
3.3611
 20
7.6334
 30
0.0
 10
3.3611
 20
7.6334
 30
0.0
 10
3.3611
 20
7.6334
 30
0.0
 10
3.3611
 20
7.6334
 30
0.0
 10
3.3809
 20
7.5786
 30
0.0
 10
3.3809
 20
7.5786
 30
0.0
 10
3.3809
 20
7.5786
 30
0.0
 10
3.3809
 20
7.5786
 30
0.0
 10
3.3834
 20
7.5495
 30
0.0
 10
3.3834
 20
7.5495
 30
0.0
  0
SPLINE
  5
49
330
1F
100
AcDbEntity
  8
AXIS
 62
   250
100
AcDbSpline
210
0.0
220
0.0
230
1.0
 70
     8
 71
     3
 72
    20
 73
    16
 74
     0
 42
0.0000000001
 43
0.0000000001
 40
0.0
 40
0.0
 40
0.0
 40
0.0
 40
0.2
 40
0.2
 40
0.2
 40
0.2
 40
0.4
 40
0.4
 40
0.4
 40
0.4
 40
0.6
 40
0.6
 40
0.6
 40
0.6
 40
1.0
 40
1.0
 40
1.0
 40
1.0
 10
-19.0927
 20
7.5495
 30
0.0
 10
-19.0927
 20
7.5495
 30
0.0
 10
-19.0801
 20
7.6136
 30
0.0
 10
-19.0801
 20
7.6136
 30
0.0
 10
-19.0801
 20
7.6136
 30
0.0
 10
-19.0801
 20
7.6136
 30
0.0
 10
-19.044
 20
7.6681
 30
0.0
 10
-19.044
 20
7.6681
 30
0.0
 10
-19.044
 20
7.6681
 30
0.0
 10
-19.044
 20
7.6681
 30
0.0
 10
-18.9899
 20
7.7046
 30
0.0
 10
-18.9899
 20
7.7046
 30
0.0
 10
-18.9899
 20
7.7046
 30
0.0
 10
-18.9899
 20
7.7046
 30
0.0
 10
-18.9263
 20
7.7172
 30
0.0
 10
-18.9263
 20
7.7172
 30
0.0
  0
SPLINE
  5
4A
330
1F
100
AcDbEntity
  8
AXIS
 62
   250
100
AcDbSpline
210
0.0
220
0.0
230
1.0
 70
     8
 71
     3
 72
    20
 73
    16
 74
     0
 42
0.0000000001
 43
0.0000000001
 40
0.0
 40
0.0
 40
0.0
 40
0.0
 40
0.2
 40
0.2
 40
0.2
 40
0.2
 40
0.4
 40
0.4
 40
0.4
 40
0.4
 40
0.6
 40
0.6
 40
0.6
 40
0.6
 40
1.0
 40
1.0
 40
1.0
 40
1.0
 10
9.5194
 20
-7.9531
 30
0.0
 10
9.5194
 20
-7.9531
 30
0.0
 10
9.515
 20
-4.2503
 30
0.0
 10
9.515
 20
-4.2503
 30
0.0
 10
9.515
 20
-4.2503
 30
0.0
 10
9.515
 20
-4.2503
 30
0.0
 10
9.5141
 20
-0.3969
 30
0.0
 10
9.5141
 20
-0.3969
 30
0.0
 10
9.5141
 20
-0.3969
 30
0.0
 10
9.5141
 20
-0.3969
 30
0.0
 10
9.5172
 20
3.4871
 30
0.0
 10
9.5172
 20
3.4871
 30
0.0
 10
9.5172
 20
3.4871
 30
0.0
 10
9.5172
 20
3.4871
 30
0.0
 10
9.524
 20
7.3874
 30
0.0
 10
9.524
 20
7.3874
 30
0.0
  0
SPLINE
  5
4B
330
1F
100
AcDbEntity
  8
AXIS
 62
   250
100
AcDbSpline
210
0.0
220
0.0
230
1.0
 70
    24
 71
     3
 72
     8
 73
     4
 74
     0
 42
0.0000000001
 43
0.0000000001
 40
0.0
 40
0.0
 40
0.0
 40
0.0
 40
1.0
 40
1.0
 40
1.0
 40
1.0
 10
9.5196
 20
-8.0595
 30
0.0
 10
9.5196
 20
-8.0595
 30
0.0
 10
9.5194
 20
-7.9531
 30
0.0
 10
9.5194
 20
-7.9531
 30
0.0
  0
SPLINE
  5
4C
330
1F
100
AcDbEntity
  8
AXIS
 62
   250
100
AcDbSpline
210
0.0
220
0.0
230
1.0
 70
    24
 71
     3
 72
     8
 73
     4
 74
     0
 42
0.0000000001
 43
0.0000000001
 40
0.0
 40
0.0
 40
0.0
 40
0.0
 40
1.0
 40
1.0
 40
1.0
 40
1.0
 10
9.5196
 20
-8.0595
 30
0.0
 10
9.5196
 20
-8.0595
 30
0.0
 10
9.5174
 20
-8.0659
 30
0.0
 10
9.5174
 20
-8.0659
 30
0.0
  0
SPLINE
  5
4D
330
1F
100
AcDbEntity
  8
AXIS
 62
   250
100
AcDbSpline
210
0.0
220
0.0
230
1.0
 70
     8
 71
     3
 72
     8
 73
     4
 74
     0
 42
0.0000000001
 43
0.0000000001
 40
0.0
 40
0.0
 40
0.0
 40
0.0
 40
1.0
 40
1.0
 40
1.0
 40
1.0
 10
9.5194
 20
-8.0659
 30
0.0
 10
9.5196
 20
-8.0638
 30
0.0
 10
9.5196
 20
-8.0617
 30
0.0
 10
9.5196
 20
-8.0595
 30
0.0
  0
SPLINE
  5
4E
330
1F
100
AcDbEntity
  8
AXIS
 62
   250
100
AcDbSpline
210
0.0
220
0.0
230
1.0
 70
     8
 71
     3
 72
     8
 73
     4
 74
     0
 42
0.0000000001
 43
0.0000000001
 40
0.0
 40
0.0
 40
0.0
 40
0.0
 40
1.0
 40
1.0
 40
1.0
 40
1.0
 10
9.4787
 20
-8.1714
 30
0.0
 10
9.4893
 20
-8.1589
 30
0.0
 10
9.4978
 20
-8.1447
 30
0.0
 10
9.5043
 20
-8.1294
 30
0.0
  0
SPLINE
  5
4F
330
1F
100
AcDbEntity
  8
AXIS
 62
   250
100
AcDbSpline
210
0.0
220
0.0
230
1.0
 70
     8
 71
     3
 72
     8
 73
     4
 74
     0
 42
0.0000000001
 43
0.0000000001
 40
0.0
 40
0.0
 40
0.0
 40
0.0
 40
1.0
 40
1.0
 40
1.0
 40
1.0
 10
-5.2114
 20
-7.9667
 30
0.0
 10
-5.2111
 20
-7.9689
 30
0.0
 10
-5.2106
 20
-7.9714
 30
0.0
 10
-5.2101
 20
-7.9736
 30
0.0
  0
SPLINE
  5
50
330
1F
100
AcDbEntity
  8
AXIS
 62
   250
100
AcDbSpline
210
0.0
220
0.0
230
1.0
 70
     8
 71
     3
 72
     8
 73
     4
 74
     0
 42
0.0000000001
 43
0.0000000001
 40
0.0
 40
0.0
 40
0.0
 40
0.0
 40
1.0
 40
1.0
 40
1.0
 40
1.0
 10
-5.2114
 20
-7.9079
 30
0.0
 10
-5.215
 20
-7.9273
 30
0.0
 10
-5.2148
 20
-7.9472
 30
0.0
 10
-5.2114
 20
-7.9667
 30
0.0
  0
SPLINE
  5
51
330
1F
100
AcDbEntity
  8
AXIS
 62
   250
100
AcDbSpline
210
0.0
220
0.0
230
1.0
 70
     8
 71
     3
 72
     8
 73
     4
 74
     0
 42
0.0000000001
 43
0.0000000001
 40
0.0
 40
0.0
 40
0.0
 40
0.0
 40
1.0
 40
1.0
 40
1.0
 40
1.0
 10
9.5182
 20
-8.081
 30
0.0
 10
9.5189
 20
-8.076
 30
0.0
 10
9.5192
 20
-8.0709
 30
0.0
 10
9.5194
 20
-8.0659
 30
0.0
  0
SPLINE
  5
52
330
1F
100
AcDbEntity
  8
AXIS
 62
   250
100
AcDbSpline
210
0.0
220
0.0
230
1.0
 70
     8
 71
     3
 72
     8
 73
     4
 74
     0
 42
0.0000000001
 43
0.0000000001
 40
0.0
 40
0.0
 40
0.0
 40
0.0
 40
1.0
 40
1.0
 40
1.0
 40
1.0
 10
9.5068
 20
-8.1239
 30
0.0
 10
9.5124
 20
-8.1102
 30
0.0
 10
9.5163
 20
-8.0958
 30
0.0
 10
9.5182
 20
-8.0812
 30
0.0
  0
SPLINE
  5
53
330
1F
100
AcDbEntity
  8
AXIS
 62
   250
100
AcDbSpline
210
0.0
220
0.0
230
1.0
 70
     8
 71
     3
 72
     8
 73
     4
 74
     0
 42
0.0000000001
 43
0.0000000001
 40
0.0
 40
0.0
 40
0.0
 40
0.0
 40
1.0
 40
1.0
 40
1.0
 40
1.0
 10
9.5352
 20
-8.2871
 30
0.0
 10
9.6271
 20
-8.2871
 30
0.0
 10
9.7016
 20
-8.2111
 30
0.0
 10
9.7016
 20
-8.1174
 30
0.0
  0
SPLINE
  5
54
330
1F
100
AcDbEntity
  8
AXIS
 62
   250
100
AcDbSpline
210
0.0
220
0.0
230
1.0
 70
     8
 71
     3
 72
     8
 73
     4
 74
     0
 42
0.0000000001
 43
0.0000000001
 40
0.0
 40
0.0
 40
0.0
 40
0.0
 40
1.0
 40
1.0
 40
1.0
 40
1.0
 10
-19.2591
 20
-8.1174
 30
0.0
 10
-19.2591
 20
-8.2111
 30
0.0
 10
-19.1845
 20
-8.2871
 30
0.0
 10
-19.0927
 20
-8.2871
 30
0.0
  0
SPLINE
  5
55
330
1F
100
AcDbEntity
  8
AXIS
 62
   250
100
AcDbSpline
210
0.0
220
0.0
230
1.0
 70
     8
 71
     3
 72
     8
 73
     4
 74
     0
 42
0.0000000001
 43
0.0000000001
 40
0.0
 40
0.0
 40
0.0
 40
0.0
 40
1.0
 40
1.0
 40
1.0
 40
1.0
 10
-19.0927
 20
8.0058
 30
0.0
 10
-19.1845
 20
8.0058
 30
0.0
 10
-19.2591
 20
7.9298
 30
0.0
 10
-19.2591
 20
7.8361
 30
0.0
  0
SPLINE
  5
56
330
1F
100
AcDbEntity
  8
AXIS
 62
   250
100
AcDbSpline
210
0.0
220
0.0
230
1.0
 70
     8
 71
     3
 72
     8
 73
     4
 74
     0
 42
0.0000000001
 43
0.0000000001
 40
0.0
 40
0.0
 40
0.0
 40
0.0
 40
1.0
 40
1.0
 40
1.0
 40
1.0
 10
9.7016
 20
7.8361
 30
0.0
 10
9.7016
 20
7.9298
 30
0.0
 10
9.6271
 20
8.0058
 30
0.0
 10
9.5352
 20
8.0058
 30
0.0
  0
SPLINE
  5
57
330
1F
100
AcDbEntity
  8
AXIS
 62
   250
100
AcDbSpline
210
0.0
220
0.0
230
1.0
 70
    24
 71
     3
 72
     8
 73
     4
 74
     0
 42
0.0000000001
 43
0.0000000001
 40
0.0
 40
0.0
 40
0.0
 40
0.0
 40
1.0
 40
1.0
 40
1.0
 40
1.0
 10
9.4786
 20
-8.1716
 30
0.0
 10
9.4786
 20
-8.1716
 30
0.0
 10
9.4787
 20
-8.1714
 30
0.0
 10
9.4787
 20
-8.1714
 30
0.0
  0
SPLINE
  5
58
330
1F
100
AcDbEntity
  8
AXIS
 62
   250
100
AcDbSpline
210
0.0
220
0.0
230
1.0
 70
     8
 71
     3
 72
    12
 73
     8
 74
     0
 42
0.0000000001
 43
0.0000000001
 40
0.0
 40
0.0
 40
0.0
 40
0.0
 40
0.3333333333333333
 40
0.3333333333333333
 40
0.3333333333333333
 40
0.3333333333333333
 40
1.0
 40
1.0
 40
1.0
 40
1.0
 10
9.4787
 20
-8.1714
 30
0.0
 10
9.4787
 20
-8.1714
 30
0.0
 10
9.4952
 20
-8.148
 30
0.0
 10
9.4952
 20
-8.148
 30
0.0
 10
9.4952
 20
-8.148
 30
0.0
 10
9.4952
 20
-8.148
 30
0.0
 10
9.5119
 20
-8.1103
 30
0.0
 10
9.5119
 20
-8.1103
 30
0.0
  0
SPLINE
  5
59
330
1F
100
AcDbEntity
  8
AXIS
 62
   250
100
AcDbSpline
210
0.0
220
0.0
230
1.0
 70
    24
 71
     3
 72
     8
 73
     4
 74
     0
 42
0.0000000001
 43
0.0000000001
 40
0.0
 40
0.0
 40
0.0
 40
0.0
 40
1.0
 40
1.0
 40
1.0
 40
1.0
 10
9.5119
 20
-8.1103
 30
0.0
 10
9.5119
 20
-8.1103
 30
0.0
 10
9.5182
 20
-8.0812
 30
0.0
 10
9.5182
 20
-8.0812
 30
0.0
  0
SPLINE
  5
5A
330
1F
100
AcDbEntity
  8
AXIS
 62
   250
100
AcDbSpline
210
0.0
220
0.0
230
1.0
 70
    24
 71
     3
 72
     8
 73
     4
 74
     0
 42
0.0000000001
 43
0.0000000001
 40
0.0
 40
0.0
 40
0.0
 40
0.0
 40
1.0
 40
1.0
 40
1.0
 40
1.0
 10
9.524
 20
7.3874
 30
0.0
 10
9.524
 20
7.3874
 30
0.0
 10
9.5352
 20
7.4974
 30
0.0
 10
9.5352
 20
7.4974
 30
0.0
  0
SPLINE
  5
5B
330
1F
100
AcDbEntity
  8
AXIS
 62
   250
100
AcDbSpline
210
0.0
220
0.0
230
1.0
 70
    24
 71
     3
 72
     8
 73
     4
 74
     0
 42
0.0000000001
 43
0.0000000001
 40
0.0
 40
0.0
 40
0.0
 40
0.0
 40
1.0
 40
1.0
 40
1.0
 40
1.0
 10
9.7016
 20
7.8409
 30
0.0
 10
9.7016
 20
7.8409
 30
0.0
 10
9.7016
 20
-8.1202
 30
0.0
 10
9.7016
 20
-8.1202
 30
0.0
  0
SPLINE
  5
5C
330
1F
100
AcDbEntity
  8
AXIS
 62
   250
100
AcDbSpline
210
0.0
220
0.0
230
1.0
 70
    24
 71
     3
 72
     8
 73
     4
 74
     0
 42
0.0000000001
 43
0.0000000001
 40
0.0
 40
0.0
 40
0.0
 40
0.0
 40
1.0
 40
1.0
 40
1.0
 40
1.0
 10
9.5352
 20
8.0058
 30
0.0
 10
9.5352
 20
8.0058
 30
0.0
 10
9.5352
 20
8.0091
 30
0.0
 10
9.5352
 20
8.0091
 30
0.0
  0
SPLINE
  5
5D
330
1F
100
AcDbEntity
  8
AXIS
 62
   250
100
AcDbSpline
210
0.0
220
0.0
230
1.0
 70
    24
 71
     3
 72
     8
 73
     4
 74
     0
 42
0.0000000001
 43
0.0000000001
 40
0.0
 40
0.0
 40
0.0
 40
0.0
 40
1.0
 40
1.0
 40
1.0
 40
1.0
 10
9.5352
 20
-8.2871
 30
0.0
 10
9.5352
 20
-8.2871
 30
0.0
 10
9.5352
 20
-8.289
 30
0.0
 10
9.5352
 20
-8.289
 30
0.0
  0
SPLINE
  5
5E
330
1F
100
AcDbEntity
  8
AXIS
 62
   250
100
AcDbSpline
210
0.0
220
0.0
230
1.0
 70
     8
 71
     3
 72
    12
 73
     8
 74
     0
 42
0.0000000001
 43
0.0000000001
 40
0.0
 40
0.0
 40
0.0
 40
0.0
 40
0.3333333333333333
 40
0.3333333333333333
 40
0.3333333333333333
 40
0.3333333333333333
 40
1.0
 40
1.0
 40
1.0
 40
1.0
 10
9.3789
 20
-8.2297
 30
0.0
 10
9.3789
 20
-8.2297
 30
0.0
 10
9.4382
 20
-8.2066
 30
0.0
 10
9.4382
 20
-8.2066
 30
0.0
 10
9.4382
 20
-8.2066
 30
0.0
 10
9.4382
 20
-8.2066
 30
0.0
 10
9.4786
 20
-8.1716
 30
0.0
 10
9.4786
 20
-8.1716
 30
0.0
  0
SPLINE
  5
5F
330
1F
100
AcDbEntity
  8
AXIS
 62
   250
100
AcDbSpline
210
0.0
220
0.0
230
1.0
 70
    24
 71
     3
 72
     8
 73
     4
 74
     0
 42
0.0000000001
 43
0.0000000001
 40
0.0
 40
0.0
 40
0.0
 40
0.0
 40
1.0
 40
1.0
 40
1.0
 40
1.0
 10
9.5352
 20
8.0058
 30
0.0
 10
9.5352
 20
8.0058
 30
0.0
 10
-19.0927
 20
8.0058
 30
0.0
 10
-19.0927
 20
8.0058
 30
0.0
  0
SPLINE
  5
60
330
1F
100
AcDbEntity
  8
AXIS
 62
   250
100
AcDbSpline
210
0.0
220
0.0
230
1.0
 70
    24
 71
     3
 72
     8
 73
     4
 74
     0
 42
0.0000000001
 43
0.0000000001
 40
0.0
 40
0.0
 40
0.0
 40
0.0
 40
1.0
 40
1.0
 40
1.0
 40
1.0
 10
-16.0134
 20
7.7172
 30
0.0
 10
-16.0134
 20
7.7172
 30
0.0
 10
-18.9263
 20
7.7172
 30
0.0
 10
-18.9263
 20
7.7172
 30
0.0
  0
SPLINE
  5
61
330
1F
100
AcDbEntity
  8
AXIS
 62
   250
100
AcDbSpline
210
0.0
220
0.0
230
1.0
 70
    24
 71
     3
 72
     8
 73
     4
 74
     0
 42
0.0000000001
 43
0.0000000001
 40
0.0
 40
0.0
 40
0.0
 40
0.0
 40
1.0
 40
1.0
 40
1.0
 40
1.0
 10
3.2168
 20
7.7172
 30
0.0
 10
3.2168
 20
7.7172
 30
0.0
 10
-0.2017
 20
7.7172
 30
0.0
 10
-0.2017
 20
7.7172
 30
0.0
  0
SPLINE
  5
62
330
1F
100
AcDbEntity
  8
AXIS
 62
   250
100
AcDbSpline
210
0.0
220
0.0
230
1.0
 70
    24
 71
     3
 72
     8
 73
     4
 74
     0
 42
0.0000000001
 43
0.0000000001
 40
0.0
 40
0.0
 40
0.0
 40
0.0
 40
1.0
 40
1.0
 40
1.0
 40
1.0
 10
9.3688
 20
7.6652
 30
0.0
 10
9.3688
 20
7.6652
 30
0.0
 10
3.7923
 20
7.6652
 30
0.0
 10
3.7923
 20
7.6652
 30
0.0
  0
SPLINE
  5
63
330
1F
100
AcDbEntity
  8
AXIS
 62
   250
100
AcDbSpline
210
0.0
220
0.0
230
1.0
 70
    24
 71
     3
 72
     8
 73
     4
 74
     0
 42
0.0000000001
 43
0.0000000001
 40
0.0
 40
0.0
 40
0.0
 40
0.0
 40
1.0
 40
1.0
 40
1.0
 40
1.0
 10
3.3834
 20
7.4497
 30
0.0
 10
3.3834
 20
7.4497
 30
0.0
 10
3.3834
 20
7.5495
 30
0.0
 10
3.3834
 20
7.5495
 30
0.0
  0
SPLINE
  5
64
330
1F
100
AcDbEntity
  8
AXIS
 62
   250
100
AcDbSpline
210
0.0
220
0.0
230
1.0
 70
     8
 71
     3
 72
    32
 73
    28
 74
     0
 42
0.0000000001
 43
0.0000000001
 40
0.0
 40
0.0
 40
0.0
 40
0.0
 40
0.125
 40
0.125
 40
0.125
 40
0.125
 40
0.25
 40
0.25
 40
0.25
 40
0.25
 40
0.375
 40
0.375
 40
0.375
 40
0.375
 40
0.5
 40
0.5
 40
0.5
 40
0.5
 40
0.625
 40
0.625
 40
0.625
 40
0.625
 40
0.75
 40
0.75
 40
0.75
 40
0.75
 40
1.0
 40
1.0
 40
1.0
 40
1.0
 10
3.2822
 20
7.2021
 30
0.0
 10
3.2822
 20
7.2021
 30
0.0
 10
3.3082
 20
7.2496
 30
0.0
 10
3.3082
 20
7.2496
 30
0.0
 10
3.3082
 20
7.2496
 30
0.0
 10
3.3082
 20
7.2496
 30
0.0
 10
3.3307
 20
7.2927
 30
0.0
 10
3.3307
 20
7.2927
 30
0.0
 10
3.3307
 20
7.2927
 30
0.0
 10
3.3307
 20
7.2927
 30
0.0
 10
3.3485
 20
7.3289
 30
0.0
 10
3.3485
 20
7.3289
 30
0.0
 10
3.3485
 20
7.3289
 30
0.0
 10
3.3485
 20
7.3289
 30
0.0
 10
3.362
 20
7.3588
 30
0.0
 10
3.362
 20
7.3588
 30
0.0
 10
3.362
 20
7.3588
 30
0.0
 10
3.362
 20
7.3588
 30
0.0
 10
3.3722
 20
7.3853
 30
0.0
 10
3.3722
 20
7.3853
 30
0.0
 10
3.3722
 20
7.3853
 30
0.0
 10
3.3722
 20
7.3853
 30
0.0
 10
3.3809
 20
7.4197
 30
0.0
 10
3.3809
 20
7.4197
 30
0.0
 10
3.3809
 20
7.4197
 30
0.0
 10
3.3809
 20
7.4197
 30
0.0
 10
3.3834
 20
7.4504
 30
0.0
 10
3.3834
 20
7.4504
 30
0.0
  0
SPLINE
  5
65
330
1F
100
AcDbEntity
  8
AXIS
 62
   250
100
AcDbSpline
210
0.0
220
0.0
230
1.0
 70
    24
 71
     3
 72
     8
 73
     4
 74
     0
 42
0.0000000001
 43
0.0000000001
 40
0.0
 40
0.0
 40
0.0
 40
0.0
 40
1.0
 40
1.0
 40
1.0
 40
1.0
 10
-3.2458
 20
-4.2749
 30
0.0
 10
-3.2458
 20
-4.2749
 30
0.0
 10
-1.055
 20
-0.4562
 30
0.0
 10
-1.055
 20
-0.4562
 30
0.0
  0
SPLINE
  5
66
330
1F
100
AcDbEntity
  8
AXIS
 62
   250
100
AcDbSpline
210
0.0
220
0.0
230
1.0
 70
    24
 71
     3
 72
     8
 73
     4
 74
     0
 42
0.0000000001
 43
0.0000000001
 40
0.0
 40
0.0
 40
0.0
 40
0.0
 40
1.0
 40
1.0
 40
1.0
 40
1.0
 10
1.7592
 20
4.2821
 30
0.0
 10
1.7592
 20
4.2821
 30
0.0
 10
3.649
 20
7.5812
 30
0.0
 10
3.649
 20
7.5812
 30
0.0
  0
SPLINE
  5
67
330
1F
100
AcDbEntity
  8
AXIS
 62
   250
100
AcDbSpline
210
0.0
220
0.0
230
1.0
 70
    24
 71
     3
 72
     8
 73
     4
 74
     0
 42
0.0000000001
 43
0.0000000001
 40
0.0
 40
0.0
 40
0.0
 40
0.0
 40
1.0
 40
1.0
 40
1.0
 40
1.0
 10
-5.1515
 20
-7.6244
 30
0.0
 10
-5.1515
 20
-7.6244
 30
0.0
 10
-3.6617
 20
-5.0232
 30
0.0
 10
-3.6617
 20
-5.0232
 30
0.0
  0
SPLINE
  5
68
330
1F
100
AcDbEntity
  8
AXIS
 62
   250
100
AcDbSpline
210
0.0
220
0.0
230
1.0
 70
    24
 71
     3
 72
     8
 73
     4
 74
     0
 42
0.0000000001
 43
0.0000000001
 40
0.0
 40
0.0
 40
0.0
 40
0.0
 40
1.0
 40
1.0
 40
1.0
 40
1.0
 10
-1.055
 20
-0.4562
 30
0.0
 10
-1.055
 20
-0.4562
 30
0.0
 10
1.1333
 20
3.3915
 30
0.0
 10
1.1333
 20
3.3915
 30
0.0
  0
SPLINE
  5
69
330
1F
100
AcDbEntity
  8
AXIS
 62
   250
100
AcDbSpline
210
0.0
220
0.0
230
1.0
 70
    24
 71
     3
 72
     8
 73
     4
 74
     0
 42
0.0000000001
 43
0.0000000001
 40
0.0
 40
0.0
 40
0.0
 40
0.0
 40
1.0
 40
1.0
 40
1.0
 40
1.0
 10
1.1333
 20
3.3915
 30
0.0
 10
1.1333
 20
3.3915
 30
0.0
 10
3.2822
 20
7.2021
 30
0.0
 10
3.2822
 20
7.2021
 30
0.0
  0
SPLINE
  5
6A
330
1F
100
AcDbEntity
  8
AXIS
 62
   250
100
AcDbSpline
210
0.0
220
0.0
230
1.0
 70
    24
 71
     3
 72
     8
 73
     4
 74
     0
 42
0.0000000001
 43
0.0000000001
 40
0.0
 40
0.0
 40
0.0
 40
0.0
 40
1.0
 40
1.0
 40
1.0
 40
1.0
 10
-5.1713
 20
-7.679
 30
0.0
 10
-5.1713
 20
-7.679
 30
0.0
 10
-5.1515
 20
-7.6244
 30
0.0
 10
-5.1515
 20
-7.6244
 30
0.0
  0
SPLINE
  5
6B
330
1F
100
AcDbEntity
  8
AXIS
 62
   250
100
AcDbSpline
210
0.0
220
0.0
230
1.0
 70
    24
 71
     3
 72
     8
 73
     4
 74
     0
 42
0.0000000001
 43
0.0000000001
 40
0.0
 40
0.0
 40
0.0
 40
0.0
 40
1.0
 40
1.0
 40
1.0
 40
1.0
 10
-5.1713
 20
-7.679
 30
0.0
 10
-5.1713
 20
-7.679
 30
0.0
 10
-5.2114
 20
-7.9079
 30
0.0
 10
-5.2114
 20
-7.9079
 30
0.0
  0
SPLINE
  5
6C
330
1F
100
AcDbEntity
  8
AXIS
 62
   250
100
AcDbSpline
210
0.0
220
0.0
230
1.0
 70
    24
 71
     3
 72
     8
 73
     4
 74
     0
 42
0.0000000001
 43
0.0000000001
 40
0.0
 40
0.0
 40
0.0
 40
0.0
 40
1.0
 40
1.0
 40
1.0
 40
1.0
 10
-5.2101
 20
-7.9736
 30
0.0
 10
-5.2101
 20
-7.9736
 30
0.0
 10
-5.1825
 20
-8.0987
 30
0.0
 10
-5.1825
 20
-8.0987
 30
0.0
  0
SPLINE
  5
6D
330
1F
100
AcDbEntity
  8
AXIS
 62
   250
100
AcDbSpline
210
0.0
220
0.0
230
1.0
 70
     8
 71
     3
 72
    24
 73
    20
 74
     0
 42
0.0000000001
 43
0.0000000001
 40
0.0
 40
0.0
 40
0.0
 40
0.0
 40
0.1666666666666667
 40
0.1666666666666667
 40
0.1666666666666667
 40
0.1666666666666667
 40
0.3333333333333333
 40
0.3333333333333333
 40
0.3333333333333333
 40
0.3333333333333333
 40
0.5
 40
0.5
 40
0.5
 40
0.5
 40
0.6666666666666666
 40
0.6666666666666666
 40
0.6666666666666666
 40
0.6666666666666666
 40
1.0
 40
1.0
 40
1.0
 40
1.0
 10
-5.1827
 20
-8.0975
 30
0.0
 10
-5.1827
 20
-8.0975
 30
0.0
 10
-5.1742
 20
-8.1254
 30
0.0
 10
-5.1742
 20
-8.1254
 30
0.0
 10
-5.1742
 20
-8.1254
 30
0.0
 10
-5.1742
 20
-8.1254
 30
0.0
 10
-5.149
 20
-8.169
 30
0.0
 10
-5.149
 20
-8.169
 30
0.0
 10
-5.149
 20
-8.169
 30
0.0
 10
-5.149
 20
-8.169
 30
0.0
 10
-5.1102
 20
-8.2047
 30
0.0
 10
-5.1102
 20
-8.2047
 30
0.0
 10
-5.1102
 20
-8.2047
 30
0.0
 10
-5.1102
 20
-8.2047
 30
0.0
 10
-5.0598
 20
-8.2273
 30
0.0
 10
-5.0598
 20
-8.2273
 30
0.0
 10
-5.0598
 20
-8.2273
 30
0.0
 10
-5.0598
 20
-8.2273
 30
0.0
 10
-5.0185
 20
-8.2325
 30
0.0
 10
-5.0185
 20
-8.2325
 30
0.0
  0
SPLINE
  5
6E
330
1F
100
AcDbEntity
  8
AXIS
 62
   250
100
AcDbSpline
210
0.0
220
0.0
230
1.0
 70
    27
 71
     3
 72
     8
 73
     4
 74
     0
 42
0.0000000001
 43
0.0000000001
 40
0.0
 40
0.0
 40
0.0
 40
0.0
 40
1.0
 40
1.0
 40
1.0
 40
1.0
 10
-5.0185
 20
-8.2326
 30
0.0
 10
-5.0185
 20
-8.2326
 30
0.0
 10
-5.0185
 20
-8.2326
 30
0.0
 10
-5.0185
 20
-8.2326
 30
0.0
  0
SPLINE
  5
6F
330
1F
100
AcDbEntity
  8
AXIS
 62
   250
100
AcDbSpline
210
0.0
220
0.0
230
1.0
 70
    24
 71
     3
 72
     8
 73
     4
 74
     0
 42
0.0000000001
 43
0.0000000001
 40
0.0
 40
0.0
 40
0.0
 40
0.0
 40
1.0
 40
1.0
 40
1.0
 40
1.0
 10
-18.9196
 20
-8.1986
 30
0.0
 10
-18.9196
 20
-8.1986
 30
0.0
 10
-5.6217
 20
-8.1986
 30
0.0
 10
-5.6217
 20
-8.1986
 30
0.0
  0
SPLINE
  5
70
330
1F
100
AcDbEntity
  8
AXIS
 62
   250
100
AcDbSpline
210
0.0
220
0.0
230
1.0
 70
    24
 71
     3
 72
     8
 73
     4
 74
     0
 42
0.0000000001
 43
0.0000000001
 40
0.0
 40
0.0
 40
0.0
 40
0.0
 40
1.0
 40
1.0
 40
1.0
 40
1.0
 10
-5.0174
 20
-8.2326
 30
0.0
 10
-5.0174
 20
-8.2326
 30
0.0
 10
9.3479
 20
-8.2326
 30
0.0
 10
9.3479
 20
-8.2326
 30
0.0
  0
SPLINE
  5
71
330
1F
100
AcDbEntity
  8
AXIS
 62
   250
100
AcDbSpline
210
0.0
220
0.0
230
1.0
 70
    24
 71
     3
 72
     8
 73
     4
 74
     0
 42
0.0000000001
 43
0.0000000001
 40
0.0
 40
0.0
 40
0.0
 40
0.0
 40
1.0
 40
1.0
 40
1.0
 40
1.0
 10
9.5352
 20
-8.2871
 30
0.0
 10
9.5352
 20
-8.2871
 30
0.0
 10
-19.0927
 20
-8.2871
 30
0.0
 10
-19.0927
 20
-8.2871
 30
0.0
  0
SPLINE
  5
72
330
1F
100
AcDbEntity
  8
AXIS
 62
   250
100
AcDbSpline
210
0.0
220
0.0
230
1.0
 70
     8
 71
     3
 72
    40
 73
    36
 74
     0
 42
0.0000000001
 43
0.0000000001
 40
0.0
 40
0.0
 40
0.0
 40
0.0
 40
0.1
 40
0.1
 40
0.1
 40
0.1
 40
0.2
 40
0.2
 40
0.2
 40
0.2
 40
0.3
 40
0.3
 40
0.3
 40
0.3
 40
0.4
 40
0.4
 40
0.4
 40
0.4
 40
0.5
 40
0.5
 40
0.5
 40
0.5
 40
0.6
 40
0.6
 40
0.6
 40
0.6
 40
0.7
 40
0.7
 40
0.7
 40
0.7
 40
0.8
 40
0.8
 40
0.8
 40
0.8
 40
1.0
 40
1.0
 40
1.0
 40
1.0
 10
-5.6227
 20
-8.1986
 30
0.0
 10
-5.6227
 20
-8.1986
 30
0.0
 10
-5.5798
 20
-8.1929
 30
0.0
 10
-5.5798
 20
-8.1929
 30
0.0
 10
-5.5798
 20
-8.1929
 30
0.0
 10
-5.5798
 20
-8.1929
 30
0.0
 10
-5.541
 20
-8.1771
 30
0.0
 10
-5.541
 20
-8.1771
 30
0.0
 10
-5.541
 20
-8.1771
 30
0.0
 10
-5.541
 20
-8.1771
 30
0.0
 10
-5.5099
 20
-8.1546
 30
0.0
 10
-5.5099
 20
-8.1546
 30
0.0
 10
-5.5099
 20
-8.1546
 30
0.0
 10
-5.5099
 20
-8.1546
 30
0.0
 10
-5.4871
 20
-8.1308
 30
0.0
 10
-5.4871
 20
-8.1308
 30
0.0
 10
-5.4871
 20
-8.1308
 30
0.0
 10
-5.4871
 20
-8.1308
 30
0.0
 10
-5.4683
 20
-8.1062
 30
0.0
 10
-5.4683
 20
-8.1062
 30
0.0
 10
-5.4683
 20
-8.1062
 30
0.0
 10
-5.4683
 20
-8.1062
 30
0.0
 10
-5.4478
 20
-8.0755
 30
0.0
 10
-5.4478
 20
-8.0755
 30
0.0
 10
-5.4478
 20
-8.0755
 30
0.0
 10
-5.4478
 20
-8.0755
 30
0.0
 10
-5.4239
 20
-8.0376
 30
0.0
 10
-5.4239
 20
-8.0376
 30
0.0
 10
-5.4239
 20
-8.0376
 30
0.0
 10
-5.4239
 20
-8.0376
 30
0.0
 10
-5.3976
 20
-7.9936
 30
0.0
 10
-5.3976
 20
-7.9936
 30
0.0
 10
-5.3976
 20
-7.9936
 30
0.0
 10
-5.3976
 20
-7.9936
 30
0.0
 10
-3.2458
 20
-4.2749
 30
0.0
 10
-3.2458
 20
-4.2749
 30
0.0
  0
SPLINE
  5
73
330
1F
100
AcDbEntity
  8
AXIS
 62
   250
100
AcDbSpline
210
0.0
220
0.0
230
1.0
 70
    24
 71
     3
 72
     8
 73
     4
 74
     0
 42
0.0000000001
 43
0.0000000001
 40
0.0
 40
0.0
 40
0.0
 40
0.0
 40
1.0
 40
1.0
 40
1.0
 40
1.0
 10
9.3481
 20
-8.2326
 30
0.0
 10
9.3481
 20
-8.2326
 30
0.0
 10
9.3789
 20
-8.2297
 30
0.0
 10
9.3789
 20
-8.2297
 30
0.0
  0
SPLINE
  5
74
330
1F
100
AcDbEntity
  8
AXIS
 62
   250
100
AcDbSpline
210
0.0
220
0.0
230
1.0
 70
    24
 71
     3
 72
     8
 73
     4
 74
     0
 42
0.0000000001
 43
0.0000000001
 40
0.0
 40
0.0
 40
0.0
 40
0.0
 40
1.0
 40
1.0
 40
1.0
 40
1.0
 10
-19.0927
 20
8.0058
 30
0.0
 10
-19.0927
 20
8.0058
 30
0.0
 10
-19.0927
 20
8.0091
 30
0.0
 10
-19.0927
 20
8.0091
 30
0.0
  0
SPLINE
  5
75
330
1F
100
AcDbEntity
  8
AXIS
 62
   250
100
AcDbSpline
210
0.0
220
0.0
230
1.0
 70
    24
 71
     3
 72
     8
 73
     4
 74
     0
 42
0.0000000001
 43
0.0000000001
 40
0.0
 40
0.0
 40
0.0
 40
0.0
 40
1.0
 40
1.0
 40
1.0
 40
1.0
 10
-19.0927
 20
-8.0246
 30
0.0
 10
-19.0927
 20
-8.0246
 30
0.0
 10
-19.0927
 20
7.5495
 30
0.0
 10
-19.0927
 20
7.5495
 30
0.0
  0
SPLINE
  5
76
330
1F
100
AcDbEntity
  8
AXIS
 62
   250
100
AcDbSpline
210
0.0
220
0.0
230
1.0
 70
    24
 71
     3
 72
     8
 73
     4
 74
     0
 42
0.0000000001
 43
0.0000000001
 40
0.0
 40
0.0
 40
0.0
 40
0.0
 40
1.0
 40
1.0
 40
1.0
 40
1.0
 10
-19.0927
 20
-8.2871
 30
0.0
 10
-19.0927
 20
-8.2871
 30
0.0
 10
-19.0927
 20
-8.289
 30
0.0
 10
-19.0927
 20
-8.289
 30
0.0
  0
SPLINE
  5
77
330
1F
100
AcDbEntity
  8
AXIS
 62
   250
100
AcDbSpline
210
0.0
220
0.0
230
1.0
 70
    24
 71
     3
 72
     8
 73
     4
 74
     0
 42
0.0000000001
 43
0.0000000001
 40
0.0
 40
0.0
 40
0.0
 40
0.0
 40
1.0
 40
1.0
 40
1.0
 40
1.0
 10
-19.2591
 20
-8.1202
 30
0.0
 10
-19.2591
 20
-8.1202
 30
0.0
 10
-19.2591
 20
7.8409
 30
0.0
 10
-19.2591
 20
7.8409
 30
0.0
  0
SPLINE
  5
78
330
1F
100
AcDbEntity
  8
AXIS
 62
   250
100
AcDbSpline
210
0.0
220
0.0
230
1.0
 70
    24
 71
     3
 72
     8
 73
     4
 74
     0
 42
0.0000000001
 43
0.0000000001
 40
0.0
 40
0.0
 40
0.0
 40
0.0
 40
1.0
 40
1.0
 40
1.0
 40
1.0
 10
-19.0927
 20
-8.0246
 30
0.0
 10
-19.0927
 20
-8.0246
 30
0.0
 10
-19.0842
 20
-8.0789
 30
0.0
 10
-19.0842
 20
-8.0789
 30
0.0
  0
SPLINE
  5
79
330
1F
100
AcDbEntity
  8
AXIS
 62
   250
100
AcDbSpline
210
0.0
220
0.0
230
1.0
 70
    24
 71
     3
 72
     8
 73
     4
 74
     0
 42
0.0000000001
 43
0.0000000001
 40
0.0
 40
0.0
 40
0.0
 40
0.0
 40
1.0
 40
1.0
 40
1.0
 40
1.0
 10
-19.0658
 20
-8.1183
 30
0.0
 10
-19.0658
 20
-8.1183
 30
0.0
 10
-19.0644
 20
-8.1206
 30
0.0
 10
-19.0644
 20
-8.1206
 30
0.0
  0
SPLINE
  5
7A
330
1F
100
AcDbEntity
  8
AXIS
 62
   250
100
AcDbSpline
210
0.0
220
0.0
230
1.0
 70
     8
 71
     3
 72
    16
 73
    12
 74
     0
 42
0.0000000001
 43
0.0000000001
 40
0.0
 40
0.0
 40
0.0
 40
0.0
 40
0.25
 40
0.25
 40
0.25
 40
0.25
 40
0.5
 40
0.5
 40
0.5
 40
0.5
 40
1.0
 40
1.0
 40
1.0
 40
1.0
 10
-19.0644
 20
-8.1206
 30
0.0
 10
-19.0644
 20
-8.1206
 30
0.0
 10
-19.0238
 20
-8.1643
 30
0.0
 10
-19.0238
 20
-8.1643
 30
0.0
 10
-19.0238
 20
-8.1643
 30
0.0
 10
-19.0238
 20
-8.1643
 30
0.0
 10
-18.9654
 20
-8.1927
 30
0.0
 10
-18.9654
 20
-8.1927
 30
0.0
 10
-18.9654
 20
-8.1927
 30
0.0
 10
-18.9654
 20
-8.1927
 30
0.0
 10
-18.9212
 20
-8.1986
 30
0.0
 10
-18.9212
 20
-8.1986
 30
0.0
  0
SPLINE
  5
7B
330
1F
100
AcDbEntity
  8
AXIS
 62
   250
100
AcDbSpline
210
0.0
220
0.0
230
1.0
 70
    24
 71
     3
 72
     8
 73
     4
 74
     0
 42
0.0000000001
 43
0.0000000001
 40
0.0
 40
0.0
 40
0.0
 40
0.0
 40
1.0
 40
1.0
 40
1.0
 40
1.0
 10
-19.0842
 20
-8.0789
 30
0.0
 10
-19.0842
 20
-8.0789
 30
0.0
 10
-19.0658
 20
-8.1183
 30
0.0
 10
-19.0658
 20
-8.1183
 30
0.0
  0
SPLINE
  5
7C
330
1F
100
AcDbEntity
  8
AXIS
 62
   250
100
AcDbSpline
210
0.0
220
0.0
230
1.0
 70
    24
 71
     3
 72
     8
 73
     4
 74
     0
 42
0.0000000001
 43
0.0000000001
 40
0.0
 40
0.0
 40
0.0
 40
0.0
 40
1.0
 40
1.0
 40
1.0
 40
1.0
 10
-16.0134
 20
7.7172
 30
0.0
 10
-16.0134
 20
7.7172
 30
0.0
 10
-0.2017
 20
7.7172
 30
0.0
 10
-0.2017
 20
7.7172
 30
0.0
  0
SPLINE
  5
7D
330
1F
100
AcDbEntity
  8
AXIS
 62
   250
100
AcDbSpline
210
0.0
220
0.0
230
1.0
 70
    24
 71
     3
 72
     8
 73
     4
 74
     0
 42
0.0000000001
 43
0.0000000001
 40
0.0
 40
0.0
 40
0.0
 40
0.0
 40
1.0
 40
1.0
 40
1.0
 40
1.0
 10
-0.8195
 20
-0.2199
 30
0.0
 10
-0.8195
 20
-0.2199
 30
0.0
 10
-3.6617
 20
-5.0232
 30
0.0
 10
-3.6617
 20
-5.0232
 30
0.0
  0
SPLINE
  5
7E
330
1F
100
AcDbEntity
  8
AXIS
 62
   250
100
AcDbSpline
210
0.0
220
0.0
230
1.0
 70
    24
 71
     3
 72
     8
 73
     4
 74
     0
 42
0.0000000001
 43
0.0000000001
 40
0.0
 40
0.0
 40
0.0
 40
0.0
 40
1.0
 40
1.0
 40
1.0
 40
1.0
 10
-25.2775
 20
-13.0568
 30
0.0
 10
-25.2775
 20
-13.0568
 30
0.0
 10
-25.2775
 20
12.7429
 30
0.0
 10
-25.2775
 20
12.7429
 30
0.0
  0
SPLINE
  5
7F
330
1F
100
AcDbEntity
  8
AXIS
 62
   250
100
AcDbSpline
210
0.0
220
0.0
230
1.0
 70
    24
 71
     3
 72
     8
 73
     4
 74
     0
 42
0.0000000001
 43
0.0000000001
 40
0.0
 40
0.0
 40
0.0
 40
0.0
 40
1.0
 40
1.0
 40
1.0
 40
1.0
 10
-24.4472
 20
-13.8914
 30
0.0
 10
-24.4472
 20
-13.8914
 30
0.0
 10
-24.4418
 20
-13.8915
 30
0.0
 10
-24.4418
 20
-13.8915
 30
0.0
  0
SPLINE
  5
80
330
1F
100
AcDbEntity
  8
AXIS
 62
   250
100
AcDbSpline
210
0.0
220
0.0
230
1.0
 70
    27
 71
     3
 72
     8
 73
     4
 74
     0
 42
0.0000000001
 43
0.0000000001
 40
0.0
 40
0.0
 40
0.0
 40
0.0
 40
1.0
 40
1.0
 40
1.0
 40
1.0
 10
15.0099
 20
-13.8915
 30
0.0
 10
15.0099
 20
-13.8915
 30
0.0
 10
15.0099
 20
-13.8915
 30
0.0
 10
15.0099
 20
-13.8915
 30
0.0
  0
SPLINE
  5
81
330
1F
100
AcDbEntity
  8
AXIS
 62
   250
100
AcDbSpline
210
0.0
220
0.0
230
1.0
 70
    24
 71
     3
 72
     8
 73
     4
 74
     0
 42
0.0000000001
 43
0.0000000001
 40
0.0
 40
0.0
 40
0.0
 40
0.0
 40
1.0
 40
1.0
 40
1.0
 40
1.0
 10
-24.3413
 20
-12.2226
 30
0.0
 10
-24.3413
 20
-12.2226
 30
0.0
 10
14.9094
 20
-12.2226
 30
0.0
 10
14.9094
 20
-12.2226
 30
0.0
  0
SPLINE
  5
82
330
1F
100
AcDbEntity
  8
AXIS
 62
   250
100
AcDbSpline
210
0.0
220
0.0
230
1.0
 70
    24
 71
     3
 72
     8
 73
     4
 74
     0
 42
0.0000000001
 43
0.0000000001
 40
0.0
 40
0.0
 40
0.0
 40
0.0
 40
1.0
 40
1.0
 40
1.0
 40
1.0
 10
-24.3848
 20
12.388
 30
0.0
 10
-24.3848
 20
12.388
 30
0.0
 10
14.953
 20
12.388
 30
0.0
 10
14.953
 20
12.388
 30
0.0
  0
SPLINE
  5
83
330
1F
100
AcDbEntity
  8
AXIS
 62
   250
100
AcDbSpline
210
0.0
220
0.0
230
1.0
 70
    24
 71
     3
 72
     8
 73
     4
 74
     0
 42
0.0000000001
 43
0.0000000001
 40
0.0
 40
0.0
 40
0.0
 40
0.0
 40
1.0
 40
1.0
 40
1.0
 40
1.0
 10
-24.4418
 20
13.5793
 30
0.0
 10
-24.4418
 20
13.5793
 30
0.0
 10
-24.4498
 20
13.5793
 30
0.0
 10
-24.4498
 20
13.5793
 30
0.0
  0
SPLINE
  5
84
330
1F
100
AcDbEntity
  8
AXIS
 62
   250
100
AcDbSpline
210
0.0
220
0.0
230
1.0
 70
    24
 71
     3
 72
     8
 73
     4
 74
     0
 42
0.0000000001
 43
0.0000000001
 40
0.0
 40
0.0
 40
0.0
 40
0.0
 40
1.0
 40
1.0
 40
1.0
 40
1.0
 10
15.01
 20
13.5794
 30
0.0
 10
15.01
 20
13.5794
 30
0.0
 10
15.0099
 20
13.5794
 30
0.0
 10
15.0099
 20
13.5794
 30
0.0
  0
SPLINE
  5
85
330
1F
100
AcDbEntity
  8
AXIS
 62
   250
100
AcDbSpline
210
0.0
220
0.0
230
1.0
 70
    24
 71
     3
 72
     8
 73
     4
 74
     0
 42
0.0000000001
 43
0.0000000001
 40
0.0
 40
0.0
 40
0.0
 40
0.0
 40
1.0
 40
1.0
 40
1.0
 40
1.0
 10
15.0176
 20
13.5793
 30
0.0
 10
15.0176
 20
13.5793
 30
0.0
 10
15.0099
 20
13.5793
 30
0.0
 10
15.0099
 20
13.5793
 30
0.0
  0
SPLINE
  5
86
330
1F
100
AcDbEntity
  8
AXIS
 62
   250
100
AcDbSpline
210
0.0
220
0.0
230
1.0
 70
    27
 71
     3
 72
     8
 73
     4
 74
     0
 42
0.0000000001
 43
0.0000000001
 40
0.0
 40
0.0
 40
0.0
 40
0.0
 40
1.0
 40
1.0
 40
1.0
 40
1.0
 10
-24.4418
 20
13.5794
 30
0.0
 10
-24.4418
 20
13.5794
 30
0.0
 10
-24.4418
 20
13.5794
 30
0.0
 10
-24.4418
 20
13.5794
 30
0.0
  0
SPLINE
  5
87
330
1F
100
AcDbEntity
  8
AXIS
 62
   250
100
AcDbSpline
210
0.0
220
0.0
230
1.0
 70
    24
 71
     3
 72
     8
 73
     4
 74
     0
 42
0.0000000001
 43
0.0000000001
 40
0.0
 40
0.0
 40
0.0
 40
0.0
 40
1.0
 40
1.0
 40
1.0
 40
1.0
 10
15.8456
 20
-13.0568
 30
0.0
 10
15.8456
 20
-13.0568
 30
0.0
 10
15.8456
 20
12.7429
 30
0.0
 10
15.8456
 20
12.7429
 30
0.0
  0
SPLINE
  5
88
330
1F
100
AcDbEntity
  8
AXIS
 62
   250
100
AcDbSpline
210
0.0
220
0.0
230
1.0
 70
     8
 71
     3
 72
    28
 73
    24
 74
     0
 42
0.0000000001
 43
0.0000000001
 40
0.0
 40
0.0
 40
0.0
 40
0.0
 40
0.1428571428571428
 40
0.1428571428571428
 40
0.1428571428571428
 40
0.1428571428571428
 40
0.2857142857142857
 40
0.2857142857142857
 40
0.2857142857142857
 40
0.2857142857142857
 40
0.4285714285714285
 40
0.4285714285714285
 40
0.4285714285714285
 40
0.4285714285714285
 40
0.5714285714285714
 40
0.5714285714285714
 40
0.5714285714285714
 40
0.5714285714285714
 40
0.7142857142857143
 40
0.7142857142857143
 40
0.7142857142857143
 40
0.7142857142857143
 40
1.0
 40
1.0
 40
1.0
 40
1.0
 10
15.8456
 20
-13.0568
 30
0.0
 10
15.8456
 20
-13.0568
 30
0.0
 10
15.8178
 20
-13.2699
 30
0.0
 10
15.8178
 20
-13.2699
 30
0.0
 10
15.8178
 20
-13.2699
 30
0.0
 10
15.8178
 20
-13.2699
 30
0.0
 10
15.7336
 20
-13.4739
 30
0.0
 10
15.7336
 20
-13.4739
 30
0.0
 10
15.7336
 20
-13.4739
 30
0.0
 10
15.7336
 20
-13.4739
 30
0.0
 10
15.6011
 20
-13.6466
 30
0.0
 10
15.6011
 20
-13.6466
 30
0.0
 10
15.6011
 20
-13.6466
 30
0.0
 10
15.6011
 20
-13.6466
 30
0.0
 10
15.4284
 20
-13.7792
 30
0.0
 10
15.4284
 20
-13.7792
 30
0.0
 10
15.4284
 20
-13.7792
 30
0.0
 10
15.4284
 20
-13.7792
 30
0.0
 10
15.2237
 20
-13.8637
 30
0.0
 10
15.2237
 20
-13.8637
 30
0.0
 10
15.2237
 20
-13.8637
 30
0.0
 10
15.2237
 20
-13.8637
 30
0.0
 10
15.0154
 20
-13.8915
 30
0.0
 10
15.0154
 20
-13.8915
 30
0.0
  0
SPLINE
  5
89
330
1F
100
AcDbEntity
  8
AXIS
 62
   250
100
AcDbSpline
210
0.0
220
0.0
230
1.0
 70
     8
 71
     3
 72
    28
 73
    24
 74
     0
 42
0.0000000001
 43
0.0000000001
 40
0.0
 40
0.0
 40
0.0
 40
0.0
 40
0.1428571428571428
 40
0.1428571428571428
 40
0.1428571428571428
 40
0.1428571428571428
 40
0.2857142857142857
 40
0.2857142857142857
 40
0.2857142857142857
 40
0.2857142857142857
 40
0.4285714285714285
 40
0.4285714285714285
 40
0.4285714285714285
 40
0.4285714285714285
 40
0.5714285714285714
 40
0.5714285714285714
 40
0.5714285714285714
 40
0.5714285714285714
 40
0.7142857142857143
 40
0.7142857142857143
 40
0.7142857142857143
 40
0.7142857142857143
 40
1.0
 40
1.0
 40
1.0
 40
1.0
 10
-25.2775
 20
12.7429
 30
0.0
 10
-25.2775
 20
12.7429
 30
0.0
 10
-25.2497
 20
12.9571
 30
0.0
 10
-25.2497
 20
12.9571
 30
0.0
 10
-25.2497
 20
12.9571
 30
0.0
 10
-25.2497
 20
12.9571
 30
0.0
 10
-25.1653
 20
13.1617
 30
0.0
 10
-25.1653
 20
13.1617
 30
0.0
 10
-25.1653
 20
13.1617
 30
0.0
 10
-25.1653
 20
13.1617
 30
0.0
 10
-25.0327
 20
13.3345
 30
0.0
 10
-25.0327
 20
13.3345
 30
0.0
 10
-25.0327
 20
13.3345
 30
0.0
 10
-25.0327
 20
13.3345
 30
0.0
 10
-24.8599
 20
13.4672
 30
0.0
 10
-24.8599
 20
13.4672
 30
0.0
 10
-24.8599
 20
13.4672
 30
0.0
 10
-24.8599
 20
13.4672
 30
0.0
 10
-24.6554
 20
13.5516
 30
0.0
 10
-24.6554
 20
13.5516
 30
0.0
 10
-24.6554
 20
13.5516
 30
0.0
 10
-24.6554
 20
13.5516
 30
0.0
 10
-24.4498
 20
13.5793
 30
0.0
 10
-24.4498
 20
13.5793
 30
0.0
  0
SPLINE
  5
8A
330
1F
100
AcDbEntity
  8
AXIS
 62
   250
100
AcDbSpline
210
0.0
220
0.0
230
1.0
 70
     8
 71
     3
 72
    28
 73
    24
 74
     0
 42
0.0000000001
 43
0.0000000001
 40
0.0
 40
0.0
 40
0.0
 40
0.0
 40
0.1428571428571428
 40
0.1428571428571428
 40
0.1428571428571428
 40
0.1428571428571428
 40
0.2857142857142857
 40
0.2857142857142857
 40
0.2857142857142857
 40
0.2857142857142857
 40
0.4285714285714285
 40
0.4285714285714285
 40
0.4285714285714285
 40
0.4285714285714285
 40
0.5714285714285714
 40
0.5714285714285714
 40
0.5714285714285714
 40
0.5714285714285714
 40
0.7142857142857143
 40
0.7142857142857143
 40
0.7142857142857143
 40
0.7142857142857143
 40
1.0
 40
1.0
 40
1.0
 40
1.0
 10
-24.4472
 20
-13.8915
 30
0.0
 10
-24.4472
 20
-13.8915
 30
0.0
 10
-24.6556
 20
-13.8637
 30
0.0
 10
-24.6556
 20
-13.8637
 30
0.0
 10
-24.6556
 20
-13.8637
 30
0.0
 10
-24.6556
 20
-13.8637
 30
0.0
 10
-24.8603
 20
-13.7792
 30
0.0
 10
-24.8603
 20
-13.7792
 30
0.0
 10
-24.8603
 20
-13.7792
 30
0.0
 10
-24.8603
 20
-13.7792
 30
0.0
 10
-25.033
 20
-13.6466
 30
0.0
 10
-25.033
 20
-13.6466
 30
0.0
 10
-25.033
 20
-13.6466
 30
0.0
 10
-25.033
 20
-13.6466
 30
0.0
 10
-25.1656
 20
-13.4739
 30
0.0
 10
-25.1656
 20
-13.4739
 30
0.0
 10
-25.1656
 20
-13.4739
 30
0.0
 10
-25.1656
 20
-13.4739
 30
0.0
 10
-25.2498
 20
-13.2699
 30
0.0
 10
-25.2498
 20
-13.2699
 30
0.0
 10
-25.2498
 20
-13.2699
 30
0.0
 10
-25.2498
 20
-13.2699
 30
0.0
 10
-25.2775
 20
-13.0568
 30
0.0
 10
-25.2775
 20
-13.0568
 30
0.0
  0
SPLINE
  5
8B
330
1F
100
AcDbEntity
  8
AXIS
 62
   250
100
AcDbSpline
210
0.0
220
0.0
230
1.0
 70
     8
 71
     3
 72
    28
 73
    24
 74
     0
 42
0.0000000001
 43
0.0000000001
 40
0.0
 40
0.0
 40
0.0
 40
0.0
 40
0.1428571428571428
 40
0.1428571428571428
 40
0.1428571428571428
 40
0.1428571428571428
 40
0.2857142857142857
 40
0.2857142857142857
 40
0.2857142857142857
 40
0.2857142857142857
 40
0.4285714285714285
 40
0.4285714285714285
 40
0.4285714285714285
 40
0.4285714285714285
 40
0.5714285714285714
 40
0.5714285714285714
 40
0.5714285714285714
 40
0.5714285714285714
 40
0.7142857142857143
 40
0.7142857142857143
 40
0.7142857142857143
 40
0.7142857142857143
 40
1.0
 40
1.0
 40
1.0
 40
1.0
 10
15.0176
 20
13.5793
 30
0.0
 10
15.0176
 20
13.5793
 30
0.0
 10
15.2235
 20
13.5516
 30
0.0
 10
15.2235
 20
13.5516
 30
0.0
 10
15.2235
 20
13.5516
 30
0.0
 10
15.2235
 20
13.5516
 30
0.0
 10
15.428
 20
13.4672
 30
0.0
 10
15.428
 20
13.4672
 30
0.0
 10
15.428
 20
13.4672
 30
0.0
 10
15.428
 20
13.4672
 30
0.0
 10
15.6008
 20
13.3345
 30
0.0
 10
15.6008
 20
13.3345
 30
0.0
 10
15.6008
 20
13.3345
 30
0.0
 10
15.6008
 20
13.3345
 30
0.0
 10
15.7333
 20
13.1617
 30
0.0
 10
15.7333
 20
13.1617
 30
0.0
 10
15.7333
 20
13.1617
 30
0.0
 10
15.7333
 20
13.1617
 30
0.0
 10
15.8177
 20
12.9571
 30
0.0
 10
15.8177
 20
12.9571
 30
0.0
 10
15.8177
 20
12.9571
 30
0.0
 10
15.8177
 20
12.9571
 30
0.0
 10
15.8456
 20
12.7429
 30
0.0
 10
15.8456
 20
12.7429
 30
0.0
  0
SPLINE
  5
8C
330
1F
100
AcDbEntity
  8
AXIS
 62
   250
100
AcDbSpline
210
0.0
220
0.0
230
1.0
 70
    24
 71
     3
 72
     8
 73
     4
 74
     0
 42
0.0000000001
 43
0.0000000001
 40
0.0
 40
0.0
 40
0.0
 40
0.0
 40
1.0
 40
1.0
 40
1.0
 40
1.0
 10
15.0099
 20
13.5794
 30
0.0
 10
15.0099
 20
13.5794
 30
0.0
 10
14.9968
 20
13.5407
 30
0.0
 10
14.9968
 20
13.5407
 30
0.0
  0
SPLINE
  5
8D
330
1F
100
AcDbEntity
  8
AXIS
 62
   250
100
AcDbSpline
210
0.0
220
0.0
230
1.0
 70
     8
 71
     3
 72
    16
 73
    12
 74
     0
 42
0.0000000001
 43
0.0000000001
 40
0.0
 40
0.0
 40
0.0
 40
0.0
 40
0.25
 40
0.25
 40
0.25
 40
0.25
 40
0.5
 40
0.5
 40
0.5
 40
0.5
 40
1.0
 40
1.0
 40
1.0
 40
1.0
 10
14.9968
 20
13.5407
 30
0.0
 10
14.9968
 20
13.5407
 30
0.0
 10
14.9843
 20
13.4268
 30
0.0
 10
14.9843
 20
13.4268
 30
0.0
 10
14.9843
 20
13.4268
 30
0.0
 10
14.9843
 20
13.4268
 30
0.0
 10
14.9732
 20
13.2436
 30
0.0
 10
14.9732
 20
13.2436
 30
0.0
 10
14.9732
 20
13.2436
 30
0.0
 10
14.9732
 20
13.2436
 30
0.0
 10
14.967
 20
13.0815
 30
0.0
 10
14.967
 20
13.0815
 30
0.0
  0
SPLINE
  5
8E
330
1F
100
AcDbEntity
  8
AXIS
 62
   250
100
AcDbSpline
210
0.0
220
0.0
230
1.0
 70
     8
 71
     3
 72
    16
 73
    12
 74
     0
 42
0.0000000001
 43
0.0000000001
 40
0.0
 40
0.0
 40
0.0
 40
0.0
 40
0.25
 40
0.25
 40
0.25
 40
0.25
 40
0.5
 40
0.5
 40
0.5
 40
0.5
 40
1.0
 40
1.0
 40
1.0
 40
1.0
 10
14.967
 20
13.0815
 30
0.0
 10
14.967
 20
13.0815
 30
0.0
 10
14.964
 20
13.0007
 30
0.0
 10
14.964
 20
13.0007
 30
0.0
 10
14.964
 20
13.0007
 30
0.0
 10
14.964
 20
13.0007
 30
0.0
 10
14.9571
 20
12.7105
 30
0.0
 10
14.9571
 20
12.7105
 30
0.0
 10
14.9571
 20
12.7105
 30
0.0
 10
14.9571
 20
12.7105
 30
0.0
 10
14.953
 20
12.388
 30
0.0
 10
14.953
 20
12.388
 30
0.0
  0
SPLINE
  5
8F
330
1F
100
AcDbEntity
  8
AXIS
 62
   250
100
AcDbSpline
210
0.0
220
0.0
230
1.0
 70
     8
 71
     3
 72
    24
 73
    20
 74
     0
 42
0.0000000001
 43
0.0000000001
 40
0.0
 40
0.0
 40
0.0
 40
0.0
 40
0.1666666666666667
 40
0.1666666666666667
 40
0.1666666666666667
 40
0.1666666666666667
 40
0.3333333333333333
 40
0.3333333333333333
 40
0.3333333333333333
 40
0.3333333333333333
 40
0.5
 40
0.5
 40
0.5
 40
0.5
 40
0.6666666666666666
 40
0.6666666666666666
 40
0.6666666666666666
 40
0.6666666666666666
 40
1.0
 40
1.0
 40
1.0
 40
1.0
 10
14.953
 20
12.388
 30
0.0
 10
14.953
 20
12.388
 30
0.0
 10
14.8809
 20
7.5097
 30
0.0
 10
14.8809
 20
7.5097
 30
0.0
 10
14.8809
 20
7.5097
 30
0.0
 10
14.8809
 20
7.5097
 30
0.0
 10
14.8404
 20
2.5807
 30
0.0
 10
14.8404
 20
2.5807
 30
0.0
 10
14.8404
 20
2.5807
 30
0.0
 10
14.8404
 20
2.5807
 30
0.0
 10
14.8317
 20
-2.3704
 30
0.0
 10
14.8317
 20
-2.3704
 30
0.0
 10
14.8317
 20
-2.3704
 30
0.0
 10
14.8317
 20
-2.3704
 30
0.0
 10
14.8547
 20
-7.3144
 30
0.0
 10
14.8547
 20
-7.3144
 30
0.0
 10
14.8547
 20
-7.3144
 30
0.0
 10
14.8547
 20
-7.3144
 30
0.0
 10
14.9094
 20
-12.2226
 30
0.0
 10
14.9094
 20
-12.2226
 30
0.0
  0
SPLINE
  5
90
330
1F
100
AcDbEntity
  8
AXIS
 62
   250
100
AcDbSpline
210
0.0
220
0.0
230
1.0
 70
     8
 71
     3
 72
    20
 73
    16
 74
     0
 42
0.0000000001
 43
0.0000000001
 40
0.0
 40
0.0
 40
0.0
 40
0.0
 40
0.2
 40
0.2
 40
0.2
 40
0.2
 40
0.4
 40
0.4
 40
0.4
 40
0.4
 40
0.6
 40
0.6
 40
0.6
 40
0.6
 40
1.0
 40
1.0
 40
1.0
 40
1.0
 10
14.9094
 20
-12.2226
 30
0.0
 10
14.9094
 20
-12.2226
 30
0.0
 10
14.9148
 20
-12.6086
 30
0.0
 10
14.9148
 20
-12.6086
 30
0.0
 10
14.9148
 20
-12.6086
 30
0.0
 10
14.9148
 20
-12.6086
 30
0.0
 10
14.924
 20
-12.966
 30
0.0
 10
14.924
 20
-12.966
 30
0.0
 10
14.924
 20
-12.966
 30
0.0
 10
14.924
 20
-12.966
 30
0.0
 10
14.9366
 20
-13.2801
 30
0.0
 10
14.9366
 20
-13.2801
 30
0.0
 10
14.9366
 20
-13.2801
 30
0.0
 10
14.9366
 20
-13.2801
 30
0.0
 10
14.9431
 20
-13.396
 30
0.0
 10
14.9431
 20
-13.396
 30
0.0
  0
SPLINE
  5
91
330
1F
100
AcDbEntity
  8
AXIS
 62
   250
100
AcDbSpline
210
0.0
220
0.0
230
1.0
 70
     8
 71
     3
 72
    20
 73
    16
 74
     0
 42
0.0000000001
 43
0.0000000001
 40
0.0
 40
0.0
 40
0.0
 40
0.0
 40
0.2
 40
0.2
 40
0.2
 40
0.2
 40
0.4
 40
0.4
 40
0.4
 40
0.4
 40
0.6
 40
0.6
 40
0.6
 40
0.6
 40
1.0
 40
1.0
 40
1.0
 40
1.0
 10
14.9431
 20
-13.396
 30
0.0
 10
14.9431
 20
-13.396
 30
0.0
 10
14.9521
 20
-13.5388
 30
0.0
 10
14.9521
 20
-13.5388
 30
0.0
 10
14.9521
 20
-13.5388
 30
0.0
 10
14.9521
 20
-13.5388
 30
0.0
 10
14.97
 20
-13.7318
 30
0.0
 10
14.97
 20
-13.7318
 30
0.0
 10
14.97
 20
-13.7318
 30
0.0
 10
14.97
 20
-13.7318
 30
0.0
 10
14.9896
 20
-13.8512
 30
0.0
 10
14.9896
 20
-13.8512
 30
0.0
 10
14.9896
 20
-13.8512
 30
0.0
 10
14.9896
 20
-13.8512
 30
0.0
 10
15.0099
 20
-13.8915
 30
0.0
 10
15.0099
 20
-13.8915
 30
0.0
  0
SPLINE
  5
92
330
1F
100
AcDbEntity
  8
AXIS
 62
   250
100
AcDbSpline
210
0.0
220
0.0
230
1.0
 70
     8
 71
     3
 72
    16
 73
    12
 74
     0
 42
0.0000000001
 43
0.0000000001
 40
0.0
 40
0.0
 40
0.0
 40
0.0
 40
0.25
 40
0.25
 40
0.25
 40
0.25
 40
0.5
 40
0.5
 40
0.5
 40
0.5
 40
1.0
 40
1.0
 40
1.0
 40
1.0
 10
-24.3848
 20
12.388
 30
0.0
 10
-24.3848
 20
12.388
 30
0.0
 10
-24.3882
 20
12.666
 30
0.0
 10
-24.3882
 20
12.666
 30
0.0
 10
-24.3882
 20
12.666
 30
0.0
 10
-24.3882
 20
12.666
 30
0.0
 10
-24.3936
 20
12.9219
 30
0.0
 10
-24.3936
 20
12.9219
 30
0.0
 10
-24.3936
 20
12.9219
 30
0.0
 10
-24.3936
 20
12.9219
 30
0.0
 10
-24.3983
 20
13.0813
 30
0.0
 10
-24.3983
 20
13.0813
 30
0.0
  0
SPLINE
  5
93
330
1F
100
AcDbEntity
  8
AXIS
 62
   250
100
AcDbSpline
210
0.0
220
0.0
230
1.0
 70
     8
 71
     3
 72
    16
 73
    12
 74
     0
 42
0.0000000001
 43
0.0000000001
 40
0.0
 40
0.0
 40
0.0
 40
0.0
 40
0.25
 40
0.25
 40
0.25
 40
0.25
 40
0.5
 40
0.5
 40
0.5
 40
0.5
 40
1.0
 40
1.0
 40
1.0
 40
1.0
 10
-24.3983
 20
13.0813
 30
0.0
 10
-24.3983
 20
13.0813
 30
0.0
 10
-24.4009
 20
13.1461
 30
0.0
 10
-24.4009
 20
13.1461
 30
0.0
 10
-24.4009
 20
13.1461
 30
0.0
 10
-24.4009
 20
13.1461
 30
0.0
 10
-24.4097
 20
13.33
 30
0.0
 10
-24.4097
 20
13.33
 30
0.0
 10
-24.4097
 20
13.33
 30
0.0
 10
-24.4097
 20
13.33
 30
0.0
 10
-24.4197
 20
13.4667
 30
0.0
 10
-24.4197
 20
13.4667
 30
0.0
  0
SPLINE
  5
94
330
1F
100
AcDbEntity
  8
AXIS
 62
   250
100
AcDbSpline
210
0.0
220
0.0
230
1.0
 70
     8
 71
     3
 72
    12
 73
     8
 74
     0
 42
0.0000000001
 43
0.0000000001
 40
0.0
 40
0.0
 40
0.0
 40
0.0
 40
0.3333333333333333
 40
0.3333333333333333
 40
0.3333333333333333
 40
0.3333333333333333
 40
1.0
 40
1.0
 40
1.0
 40
1.0
 10
-24.4197
 20
13.4667
 30
0.0
 10
-24.4197
 20
13.4667
 30
0.0
 10
-24.4305
 20
13.5509
 30
0.0
 10
-24.4305
 20
13.5509
 30
0.0
 10
-24.4305
 20
13.5509
 30
0.0
 10
-24.4305
 20
13.5509
 30
0.0
 10
-24.4418
 20
13.5794
 30
0.0
 10
-24.4418
 20
13.5794
 30
0.0
  0
SPLINE
  5
95
330
1F
100
AcDbEntity
  8
AXIS
 62
   250
100
AcDbSpline
210
0.0
220
0.0
230
1.0
 70
     8
 71
     3
 72
    24
 73
    20
 74
     0
 42
0.0000000001
 43
0.0000000001
 40
0.0
 40
0.0
 40
0.0
 40
0.0
 40
0.1666666666666667
 40
0.1666666666666667
 40
0.1666666666666667
 40
0.1666666666666667
 40
0.3333333333333333
 40
0.3333333333333333
 40
0.3333333333333333
 40
0.3333333333333333
 40
0.5
 40
0.5
 40
0.5
 40
0.5
 40
0.6666666666666666
 40
0.6666666666666666
 40
0.6666666666666666
 40
0.6666666666666666
 40
1.0
 40
1.0
 40
1.0
 40
1.0
 10
-24.3413
 20
-12.2226
 30
0.0
 10
-24.3413
 20
-12.2226
 30
0.0
 10
-24.2866
 20
-7.3144
 30
0.0
 10
-24.2866
 20
-7.3144
 30
0.0
 10
-24.2866
 20
-7.3144
 30
0.0
 10
-24.2866
 20
-7.3144
 30
0.0
 10
-24.2636
 20
-2.3704
 30
0.0
 10
-24.2636
 20
-2.3704
 30
0.0
 10
-24.2636
 20
-2.3704
 30
0.0
 10
-24.2636
 20
-2.3704
 30
0.0
 10
-24.2723
 20
2.5807
 30
0.0
 10
-24.2723
 20
2.5807
 30
0.0
 10
-24.2723
 20
2.5807
 30
0.0
 10
-24.2723
 20
2.5807
 30
0.0
 10
-24.3128
 20
7.5097
 30
0.0
 10
-24.3128
 20
7.5097
 30
0.0
 10
-24.3128
 20
7.5097
 30
0.0
 10
-24.3128
 20
7.5097
 30
0.0
 10
-24.3848
 20
12.388
 30
0.0
 10
-24.3848
 20
12.388
 30
0.0
  0
SPLINE
  5
96
330
1F
100
AcDbEntity
  8
AXIS
 62
   250
100
AcDbSpline
210
0.0
220
0.0
230
1.0
 70
     8
 71
     3
 72
    20
 73
    16
 74
     0
 42
0.0000000001
 43
0.0000000001
 40
0.0
 40
0.0
 40
0.0
 40
0.0
 40
0.2
 40
0.2
 40
0.2
 40
0.2
 40
0.4
 40
0.4
 40
0.4
 40
0.4
 40
0.6
 40
0.6
 40
0.6
 40
0.6
 40
1.0
 40
1.0
 40
1.0
 40
1.0
 10
-24.4418
 20
-13.8915
 30
0.0
 10
-24.4418
 20
-13.8915
 30
0.0
 10
-24.4215
 20
-13.8512
 30
0.0
 10
-24.4215
 20
-13.8512
 30
0.0
 10
-24.4215
 20
-13.8512
 30
0.0
 10
-24.4215
 20
-13.8512
 30
0.0
 10
-24.4019
 20
-13.7318
 30
0.0
 10
-24.4019
 20
-13.7318
 30
0.0
 10
-24.4019
 20
-13.7318
 30
0.0
 10
-24.4019
 20
-13.7318
 30
0.0
 10
-24.384
 20
-13.5388
 30
0.0
 10
-24.384
 20
-13.5388
 30
0.0
 10
-24.384
 20
-13.5388
 30
0.0
 10
-24.384
 20
-13.5388
 30
0.0
 10
-24.3749
 20
-13.396
 30
0.0
 10
-24.3749
 20
-13.396
 30
0.0
  0
SPLINE
  5
97
330
1F
100
AcDbEntity
  8
AXIS
 62
   250
100
AcDbSpline
210
0.0
220
0.0
230
1.0
 70
     8
 71
     3
 72
    20
 73
    16
 74
     0
 42
0.0000000001
 43
0.0000000001
 40
0.0
 40
0.0
 40
0.0
 40
0.0
 40
0.2
 40
0.2
 40
0.2
 40
0.2
 40
0.4
 40
0.4
 40
0.4
 40
0.4
 40
0.6
 40
0.6
 40
0.6
 40
0.6
 40
1.0
 40
1.0
 40
1.0
 40
1.0
 10
-24.3749
 20
-13.396
 30
0.0
 10
-24.3749
 20
-13.396
 30
0.0
 10
-24.3684
 20
-13.2801
 30
0.0
 10
-24.3684
 20
-13.2801
 30
0.0
 10
-24.3684
 20
-13.2801
 30
0.0
 10
-24.3684
 20
-13.2801
 30
0.0
 10
-24.3558
 20
-12.966
 30
0.0
 10
-24.3558
 20
-12.966
 30
0.0
 10
-24.3558
 20
-12.966
 30
0.0
 10
-24.3558
 20
-12.966
 30
0.0
 10
-24.3466
 20
-12.6086
 30
0.0
 10
-24.3466
 20
-12.6086
 30
0.0
 10
-24.3466
 20
-12.6086
 30
0.0
 10
-24.3466
 20
-12.6086
 30
0.0
 10
-24.3413
 20
-12.2226
 30
0.0
 10
-24.3413
 20
-12.2226
 30
0.0
  0
SPLINE
  5
98
330
1F
100
AcDbEntity
  8
AXIS
 62
   250
100
AcDbSpline
210
0.0
220
0.0
230
1.0
 70
    11
 71
     3
 72
    20
 73
    16
 74
     0
 42
0.0000000001
 43
0.0000000001
 40
0.0
 40
0.0
 40
0.0
 40
0.0
 40
0.2
 40
0.2
 40
0.2
 40
0.2
 40
0.4
 40
0.4
 40
0.4
 40
0.4
 40
0.6
 40
0.6
 40
0.6
 40
0.6
 40
1.0
 40
1.0
 40
1.0
 40
1.0
 10
-26.907
 20
-10.8382
 30
0.0
 10
-26.907
 20
-10.8382
 30
0.0
 10
-27.3304
 20
-13.8384
 30
0.0
 10
-27.3304
 20
-13.8384
 30
0.0
 10
-27.3304
 20
-13.8384
 30
0.0
 10
-27.3304
 20
-13.8384
 30
0.0
 10
-27.4244
 20
-13.8384
 30
0.0
 10
-27.4244
 20
-13.8384
 30
0.0
 10
-27.4244
 20
-13.8384
 30
0.0
 10
-27.4244
 20
-13.8384
 30
0.0
 10
-27.876
 20
-10.8382
 30
0.0
 10
-27.876
 20
-10.8382
 30
0.0
 10
-27.876
 20
-10.8382
 30
0.0
 10
-27.876
 20
-10.8382
 30
0.0
 10
-26.907
 20
-10.8382
 30
0.0
 10
-26.907
 20
-10.8382
 30
0.0
  0
SPLINE
  5
99
330
1F
100
AcDbEntity
  8
AXIS
 62
   250
100
AcDbSpline
210
0.0
220
0.0
230
1.0
 70
    11
 71
     3
 72
    20
 73
    16
 74
     0
 42
0.0000000001
 43
0.0000000001
 40
0.0
 40
0.0
 40
0.0
 40
0.0
 40
0.2
 40
0.2
 40
0.2
 40
0.2
 40
0.4
 40
0.4
 40
0.4
 40
0.4
 40
0.6
 40
0.6
 40
0.6
 40
0.6
 40
1.0
 40
1.0
 40
1.0
 40
1.0
 10
-27.8312
 20
10.4806
 30
0.0
 10
-27.8312
 20
10.4806
 30
0.0
 10
-27.4078
 20
13.4809
 30
0.0
 10
-27.4078
 20
13.4809
 30
0.0
 10
-27.4078
 20
13.4809
 30
0.0
 10
-27.4078
 20
13.4809
 30
0.0
 10
-27.3137
 20
13.4809
 30
0.0
 10
-27.3137
 20
13.4809
 30
0.0
 10
-27.3137
 20
13.4809
 30
0.0
 10
-27.3137
 20
13.4809
 30
0.0
 10
-26.8622
 20
10.4806
 30
0.0
 10
-26.8622
 20
10.4806
 30
0.0
 10
-26.8622
 20
10.4806
 30
0.0
 10
-26.8622
 20
10.4806
 30
0.0
 10
-27.8312
 20
10.4806
 30
0.0
 10
-27.8312
 20
10.4806
 30
0.0
  0
SPLINE
  5
9A
330
1F
100
AcDbEntity
  8
AXIS
 62
   250
100
AcDbSpline
210
0.0
220
0.0
230
1.0
 70
    11
 71
     3
 72
    20
 73
    16
 74
     0
 42
0.0000000001
 43
0.0000000001
 40
0.0
 40
0.0
 40
0.0
 40
0.0
 40
0.2
 40
0.2
 40
0.2
 40
0.2
 40
0.4
 40
0.4
 40
0.4
 40
0.4
 40
0.6
 40
0.6
 40
0.6
 40
0.6
 40
1.0
 40
1.0
 40
1.0
 40
1.0
 10
14.2137
 20
-5.2702
 30
0.0
 10
14.2137
 20
-5.2702
 30
0.0
 10
13.7902
 20
-8.2712
 30
0.0
 10
13.7902
 20
-8.2712
 30
0.0
 10
13.7902
 20
-8.2712
 30
0.0
 10
13.7902
 20
-8.2712
 30
0.0
 10
13.6961
 20
-8.2712
 30
0.0
 10
13.6961
 20
-8.2712
 30
0.0
 10
13.6961
 20
-8.2712
 30
0.0
 10
13.6961
 20
-8.2712
 30
0.0
 10
13.2444
 20
-5.2702
 30
0.0
 10
13.2444
 20
-5.2702
 30
0.0
 10
13.2444
 20
-5.2702
 30
0.0
 10
13.2444
 20
-5.2702
 30
0.0
 10
14.2137
 20
-5.2702
 30
0.0
 10
14.2137
 20
-5.2702
 30
0.0
  0
SPLINE
  5
9B
330
1F
100
AcDbEntity
  8
AXIS
 62
   250
100
AcDbSpline
210
0.0
220
0.0
230
1.0
 70
    11
 71
     3
 72
    20
 73
    16
 74
     0
 42
0.0000000001
 43
0.0000000001
 40
0.0
 40
0.0
 40
0.0
 40
0.0
 40
0.2
 40
0.2
 40
0.2
 40
0.2
 40
0.4
 40
0.4
 40
0.4
 40
0.4
 40
0.6
 40
0.6
 40
0.6
 40
0.6
 40
1.0
 40
1.0
 40
1.0
 40
1.0
 10
13.2903
 20
4.9669
 30
0.0
 10
13.2903
 20
4.9669
 30
0.0
 10
13.7137
 20
7.9674
 30
0.0
 10
13.7137
 20
7.9674
 30
0.0
 10
13.7137
 20
7.9674
 30
0.0
 10
13.7137
 20
7.9674
 30
0.0
 10
13.8078
 20
7.9674
 30
0.0
 10
13.8078
 20
7.9674
 30
0.0
 10
13.8078
 20
7.9674
 30
0.0
 10
13.8078
 20
7.9674
 30
0.0
 10
14.2594
 20
4.9669
 30
0.0
 10
14.2594
 20
4.9669
 30
0.0
 10
14.2594
 20
4.9669
 30
0.0
 10
14.2594
 20
4.9669
 30
0.0
 10
13.2903
 20
4.9669
 30
0.0
 10
13.2903
 20
4.9669
 30
0.0
  0
SPLINE
  5
9C
330
1F
100
AcDbEntity
  8
AXIS
 62
   250
100
AcDbSpline
210
0.0
220
0.0
230
1.0
 70
    11
 71
     3
 72
    20
 73
    16
 74
     0
 42
0.0000000001
 43
0.0000000001
 40
0.0
 40
0.0
 40
0.0
 40
0.0
 40
0.2
 40
0.2
 40
0.2
 40
0.2
 40
0.4
 40
0.4
 40
0.4
 40
0.4
 40
0.6
 40
0.6
 40
0.6
 40
0.6
 40
1.0
 40
1.0
 40
1.0
 40
1.0
 10
6.6724
 20
-16.736
 30
0.0
 10
6.6724
 20
-16.736
 30
0.0
 10
9.6739
 20
-17.1596
 30
0.0
 10
9.6739
 20
-17.1596
 30
0.0
 10
9.6739
 20
-17.1596
 30
0.0
 10
9.6739
 20
-17.1596
 30
0.0
 10
9.6739
 20
-17.2537
 30
0.0
 10
9.6739
 20
-17.2537
 30
0.0
 10
9.6739
 20
-17.2537
 30
0.0
 10
9.6739
 20
-17.2537
 30
0.0
 10
6.6724
 20
-17.7055
 30
0.0
 10
6.6724
 20
-17.7055
 30
0.0
 10
6.6724
 20
-17.7055
 30
0.0
 10
6.6724
 20
-17.7055
 30
0.0
 10
6.6724
 20
-16.736
 30
0.0
 10
6.6724
 20
-16.736
 30
0.0
  0
SPLINE
  5
9D
330
1F
100
AcDbEntity
  8
AXIS
 62
   250
100
AcDbSpline
210
0.0
220
0.0
230
1.0
 70
    11
 71
     3
 72
    20
 73
    16
 74
     0
 42
0.0000000001
 43
0.0000000001
 40
0.0
 40
0.0
 40
0.0
 40
0.0
 40
0.2
 40
0.2
 40
0.2
 40
0.2
 40
0.4
 40
0.4
 40
0.4
 40
0.4
 40
0.6
 40
0.6
 40
0.6
 40
0.6
 40
1.0
 40
1.0
 40
1.0
 40
1.0
 10
-16.2857
 20
-17.6544
 30
0.0
 10
-16.2857
 20
-17.6544
 30
0.0
 10
-19.2863
 20
-17.2309
 30
0.0
 10
-19.2863
 20
-17.2309
 30
0.0
 10
-19.2863
 20
-17.2309
 30
0.0
 10
-19.2863
 20
-17.2309
 30
0.0
 10
-19.2863
 20
-17.1369
 30
0.0
 10
-19.2863
 20
-17.1369
 30
0.0
 10
-19.2863
 20
-17.1369
 30
0.0
 10
-19.2863
 20
-17.1369
 30
0.0
 10
-16.2857
 20
-16.6852
 30
0.0
 10
-16.2857
 20
-16.6852
 30
0.0
 10
-16.2857
 20
-16.6852
 30
0.0
 10
-16.2857
 20
-16.6852
 30
0.0
 10
-16.2857
 20
-17.6544
 30
0.0
 10
-16.2857
 20
-17.6544
 30
0.0
  0
SPLINE
  5
9E
330
1F
100
AcDbEntity
  8
AXIS
 62
   250
100
AcDbSpline
210
0.0
220
0.0
230
1.0
 70
    11
 71
     3
 72
    20
 73
    16
 74
     0
 42
0.0000000001
 43
0.0000000001
 40
0.0
 40
0.0
 40
0.0
 40
0.0
 40
0.2
 40
0.2
 40
0.2
 40
0.2
 40
0.4
 40
0.4
 40
0.4
 40
0.4
 40
0.6
 40
0.6
 40
0.6
 40
0.6
 40
1.0
 40
1.0
 40
1.0
 40
1.0
 10
12.7725
 20
16.4064
 30
0.0
 10
12.7725
 20
16.4064
 30
0.0
 10
15.7755
 20
15.9826
 30
0.0
 10
15.7755
 20
15.9826
 30
0.0
 10
15.7755
 20
15.9826
 30
0.0
 10
15.7755
 20
15.9826
 30
0.0
 10
15.7755
 20
15.8885
 30
0.0
 10
15.7755
 20
15.8885
 30
0.0
 10
15.7755
 20
15.8885
 30
0.0
 10
15.7755
 20
15.8885
 30
0.0
 10
12.7725
 20
15.4365
 30
0.0
 10
12.7725
 20
15.4365
 30
0.0
 10
12.7725
 20
15.4365
 30
0.0
 10
12.7725
 20
15.4365
 30
0.0
 10
12.7725
 20
16.4064
 30
0.0
 10
12.7725
 20
16.4064
 30
0.0
  0
SPLINE
  5
9F
330
1F
100
AcDbEntity
  8
AXIS
 62
   250
100
AcDbSpline
210
0.0
220
0.0
230
1.0
 70
    11
 71
     3
 72
    20
 73
    16
 74
     0
 42
0.0000000001
 43
0.0000000001
 40
0.0
 40
0.0
 40
0.0
 40
0.0
 40
0.2
 40
0.2
 40
0.2
 40
0.2
 40
0.4
 40
0.4
 40
0.4
 40
0.4
 40
0.6
 40
0.6
 40
0.6
 40
0.6
 40
1.0
 40
1.0
 40
1.0
 40
1.0
 10
-22.1954
 20
15.4585
 30
0.0
 10
-22.1954
 20
15.4585
 30
0.0
 10
-25.1954
 20
15.8818
 30
0.0
 10
-25.1954
 20
15.8818
 30
0.0
 10
-25.1954
 20
15.8818
 30
0.0
 10
-25.1954
 20
15.8818
 30
0.0
 10
-25.1954
 20
15.9759
 30
0.0
 10
-25.1954
 20
15.9759
 30
0.0
 10
-25.1954
 20
15.9759
 30
0.0
 10
-25.1954
 20
15.9759
 30
0.0
 10
-22.1954
 20
16.4274
 30
0.0
 10
-22.1954
 20
16.4274
 30
0.0
 10
-22.1954
 20
16.4274
 30
0.0
 10
-22.1954
 20
16.4274
 30
0.0
 10
-22.1954
 20
15.4585
 30
0.0
 10
-22.1954
 20
15.4585
 30
0.0
  0
SPLINE
  5
A0
330
1F
100
AcDbEntity
  8
AXIS
 62
   250
100
AcDbSpline
210
0.0
220
0.0
230
1.0
 70
    11
 71
     3
 72
    20
 73
    16
 74
     0
 42
0.0000000001
 43
0.0000000001
 40
0.0
 40
0.0
 40
0.0
 40
0.0
 40
0.2
 40
0.2
 40
0.2
 40
0.2
 40
0.4
 40
0.4
 40
0.4
 40
0.4
 40
0.6
 40
0.6
 40
0.6
 40
0.6
 40
1.0
 40
1.0
 40
1.0
 40
1.0
 10
20.1978
 20
-17.3949
 30
0.0
 10
20.1978
 20
-17.3949
 30
0.0
 10
23.1995
 20
-17.8185
 30
0.0
 10
23.1995
 20
-17.8185
 30
0.0
 10
23.1995
 20
-17.8185
 30
0.0
 10
23.1995
 20
-17.8185
 30
0.0
 10
23.1995
 20
-17.9126
 30
0.0
 10
23.1995
 20
-17.9126
 30
0.0
 10
23.1995
 20
-17.9126
 30
0.0
 10
23.1995
 20
-17.9126
 30
0.0
 10
20.1978
 20
-18.3644
 30
0.0
 10
20.1978
 20
-18.3644
 30
0.0
 10
20.1978
 20
-18.3644
 30
0.0
 10
20.1978
 20
-18.3644
 30
0.0
 10
20.1978
 20
-17.3949
 30
0.0
 10
20.1978
 20
-17.3949
 30
0.0
  0
SPLINE
  5
A1
330
1F
100
AcDbEntity
  8
AXIS
 62
   250
100
AcDbSpline
210
0.0
220
0.0
230
1.0
 70
    11
 71
     3
 72
    20
 73
    16
 74
     0
 42
0.0000000001
 43
0.0000000001
 40
0.0
 40
0.0
 40
0.0
 40
0.0
 40
0.2
 40
0.2
 40
0.2
 40
0.2
 40
0.4
 40
0.4
 40
0.4
 40
0.4
 40
0.6
 40
0.6
 40
0.6
 40
0.6
 40
1.0
 40
1.0
 40
1.0
 40
1.0
 10
29.2296
 20
-18.3404
 30
0.0
 10
29.2296
 20
-18.3404
 30
0.0
 10
26.2274
 20
-17.9168
 30
0.0
 10
26.2274
 20
-17.9168
 30
0.0
 10
26.2274
 20
-17.9168
 30
0.0
 10
26.2274
 20
-17.9168
 30
0.0
 10
26.2274
 20
-17.8227
 30
0.0
 10
26.2274
 20
-17.8227
 30
0.0
 10
26.2274
 20
-17.8227
 30
0.0
 10
26.2274
 20
-17.8227
 30
0.0
 10
29.2296
 20
-17.3708
 30
0.0
 10
29.2296
 20
-17.3708
 30
0.0
 10
29.2296
 20
-17.3708
 30
0.0
 10
29.2296
 20
-17.3708
 30
0.0
 10
29.2296
 20
-18.3404
 30
0.0
 10
29.2296
 20
-18.3404
 30
0.0
  0
SPLINE
  5
A2
330
1F
100
AcDbEntity
  8
AXIS
 62
   250
100
AcDbSpline
210
0.0
220
0.0
230
1.0
 70
    24
 71
     3
 72
     8
 73
     4
 74
     0
 42
0.0000000001
 43
0.0000000001
 40
0.0
 40
0.0
 40
0.0
 40
0.0
 40
1.0
 40
1.0
 40
1.0
 40
1.0
 10
-25.0308
 20
-13.8911
 30
0.0
 10
-25.0308
 20
-13.8911
 30
0.0
 10
-27.6168
 20
-13.8911
 30
0.0
 10
-27.6168
 20
-13.8911
 30
0.0
  0
SPLINE
  5
A3
330
1F
100
AcDbEntity
  8
AXIS
 62
   250
100
AcDbSpline
210
0.0
220
0.0
230
1.0
 70
    24
 71
     3
 72
     8
 73
     4
 74
     0
 42
0.0000000001
 43
0.0000000001
 40
0.0
 40
0.0
 40
0.0
 40
0.0
 40
1.0
 40
1.0
 40
1.0
 40
1.0
 10
-24.9736
 20
13.5801
 30
0.0
 10
-24.9736
 20
13.5801
 30
0.0
 10
-27.6168
 20
13.5801
 30
0.0
 10
-27.6168
 20
13.5801
 30
0.0
  0
SPLINE
  5
A4
330
1F
100
AcDbEntity
  8
AXIS
 62
   250
100
AcDbSpline
210
0.0
220
0.0
230
1.0
 70
    24
 71
     3
 72
     8
 73
     4
 74
     0
 42
0.0000000001
 43
0.0000000001
 40
0.0
 40
0.0
 40
0.0
 40
0.0
 40
1.0
 40
1.0
 40
1.0
 40
1.0
 10
-27.379
 20
13.5801
 30
0.0
 10
-27.379
 20
13.5801
 30
0.0
 10
-27.379
 20
-13.4644
 30
0.0
 10
-27.379
 20
-13.4644
 30
0.0
  0
SPLINE
  5
A5
330
1F
100
AcDbEntity
  8
AXIS
 62
   250
100
AcDbSpline
210
0.0
220
0.0
230
1.0
 70
    24
 71
     3
 72
     8
 73
     4
 74
     0
 42
0.0000000001
 43
0.0000000001
 40
0.0
 40
0.0
 40
0.0
 40
0.0
 40
1.0
 40
1.0
 40
1.0
 40
1.0
 10
-19.331
 20
-8.895
 30
0.0
 10
-19.331
 20
-8.895
 30
0.0
 10
-19.331
 20
-17.5882
 30
0.0
 10
-19.331
 20
-17.5882
 30
0.0
  0
SPLINE
  5
A6
330
1F
100
AcDbEntity
  8
AXIS
 62
   250
100
AcDbSpline
210
0.0
220
0.0
230
1.0
 70
    24
 71
     3
 72
     8
 73
     4
 74
     0
 42
0.0000000001
 43
0.0000000001
 40
0.0
 40
0.0
 40
0.0
 40
0.0
 40
1.0
 40
1.0
 40
1.0
 40
1.0
 10
9.7037
 20
-9.006
 30
0.0
 10
9.7037
 20
-9.006
 30
0.0
 10
9.7037
 20
-17.6577
 30
0.0
 10
9.7037
 20
-17.6577
 30
0.0
  0
SPLINE
  5
A7
330
1F
100
AcDbEntity
  8
AXIS
 62
   250
100
AcDbSpline
210
0.0
220
0.0
230
1.0
 70
    24
 71
     3
 72
     8
 73
     4
 74
     0
 42
0.0000000001
 43
0.0000000001
 40
0.0
 40
0.0
 40
0.0
 40
0.0
 40
1.0
 40
1.0
 40
1.0
 40
1.0
 10
8.7024
 20
-17.1932
 30
0.0
 10
8.7024
 20
-17.1932
 30
0.0
 10
-19.2182
 20
-17.1932
 30
0.0
 10
-19.2182
 20
-17.1932
 30
0.0
  0
SPLINE
  5
A8
330
1F
100
AcDbEntity
  8
AXIS
 62
   250
100
AcDbSpline
210
0.0
220
0.0
230
1.0
 70
    24
 71
     3
 72
     8
 73
     4
 74
     0
 42
0.0000000001
 43
0.0000000001
 40
0.0
 40
0.0
 40
0.0
 40
0.0
 40
1.0
 40
1.0
 40
1.0
 40
1.0
 10
15.8465
 20
13.367
 30
0.0
 10
15.8465
 20
13.367
 30
0.0
 10
15.8465
 20
16.1791
 30
0.0
 10
15.8465
 20
16.1791
 30
0.0
  0
SPLINE
  5
A9
330
1F
100
AcDbEntity
  8
AXIS
 62
   250
100
AcDbSpline
210
0.0
220
0.0
230
1.0
 70
    24
 71
     3
 72
     8
 73
     4
 74
     0
 42
0.0000000001
 43
0.0000000001
 40
0.0
 40
0.0
 40
0.0
 40
0.0
 40
1.0
 40
1.0
 40
1.0
 40
1.0
 10
-25.2769
 20
13.3621
 30
0.0
 10
-25.2769
 20
13.3621
 30
0.0
 10
-25.2769
 20
16.1791
 30
0.0
 10
-25.2769
 20
16.1791
 30
0.0
  0
SPLINE
  5
AA
330
1F
100
AcDbEntity
  8
AXIS
 62
   250
100
AcDbSpline
210
0.0
220
0.0
230
1.0
 70
    24
 71
     3
 72
     8
 73
     4
 74
     0
 42
0.0000000001
 43
0.0000000001
 40
0.0
 40
0.0
 40
0.0
 40
0.0
 40
1.0
 40
1.0
 40
1.0
 40
1.0
 10
15.8465
 20
15.9412
 30
0.0
 10
15.8465
 20
15.9412
 30
0.0
 10
-24.8836
 20
15.9412
 30
0.0
 10
-24.8836
 20
15.9412
 30
0.0
  0
SPLINE
  5
AB
330
1F
100
AcDbEntity
  8
AXIS
 62
   250
100
AcDbSpline
210
0.0
220
0.0
230
1.0
 70
    24
 71
     3
 72
     8
 73
     4
 74
     0
 42
0.0000000001
 43
0.0000000001
 40
0.0
 40
0.0
 40
0.0
 40
0.0
 40
1.0
 40
1.0
 40
1.0
 40
1.0
 10
10.3095
 20
8.0326
 30
0.0
 10
10.3095
 20
8.0326
 30
0.0
 10
14.2234
 20
8.0326
 30
0.0
 10
14.2234
 20
8.0326
 30
0.0
  0
SPLINE
  5
AC
330
1F
100
AcDbEntity
  8
AXIS
 62
   250
100
AcDbSpline
210
0.0
220
0.0
230
1.0
 70
    24
 71
     3
 72
     8
 73
     4
 74
     0
 42
0.0000000001
 43
0.0000000001
 40
0.0
 40
0.0
 40
0.0
 40
0.0
 40
1.0
 40
1.0
 40
1.0
 40
1.0
 10
10.1784
 20
-8.3641
 30
0.0
 10
10.1784
 20
-8.3641
 30
0.0
 10
14.2878
 20
-8.3641
 30
0.0
 10
14.2878
 20
-8.3641
 30
0.0
  0
SPLINE
  5
AD
330
1F
100
AcDbEntity
  8
AXIS
 62
   250
100
AcDbSpline
210
0.0
220
0.0
230
1.0
 70
    24
 71
     3
 72
     8
 73
     4
 74
     0
 42
0.0000000001
 43
0.0000000001
 40
0.0
 40
0.0
 40
0.0
 40
0.0
 40
1.0
 40
1.0
 40
1.0
 40
1.0
 10
13.7639
 20
7.1117
 30
0.0
 10
13.7639
 20
7.1117
 30
0.0
 10
13.7639
 20
-8.198
 30
0.0
 10
13.7639
 20
-8.198
 30
0.0
  0
SPLINE
  5
AE
330
1F
100
AcDbEntity
  8
AXIS
 62
   250
100
AcDbSpline
210
0.0
220
0.0
230
1.0
 70
    24
 71
     3
 72
     8
 73
     4
 74
     0
 42
0.0000000001
 43
0.0000000001
 40
0.0
 40
0.0
 40
0.0
 40
0.0
 40
1.0
 40
1.0
 40
1.0
 40
1.0
 10
23.2716
 20
-14.1912
 30
0.0
 10
23.2716
 20
-14.1912
 30
0.0
 10
23.2716
 20
-18.1285
 30
0.0
 10
23.2716
 20
-18.1285
 30
0.0
  0
SPLINE
  5
AF
330
1F
100
AcDbEntity
  8
AXIS
 62
   250
100
AcDbSpline
210
0.0
220
0.0
230
1.0
 70
    24
 71
     3
 72
     8
 73
     4
 74
     0
 42
0.0000000001
 43
0.0000000001
 40
0.0
 40
0.0
 40
0.0
 40
0.0
 40
1.0
 40
1.0
 40
1.0
 40
1.0
 10
26.1522
 20
-7.3525
 30
0.0
 10
26.1522
 20
-7.3525
 30
0.0
 10
26.1522
 20
-18.1286
 30
0.0
 10
26.1522
 20
-18.1286
 30
0.0
  0
SPLINE
  5
B0
330
1F
100
AcDbEntity
  8
AXIS
 62
   250
100
AcDbSpline
210
0.0
220
0.0
230
1.0
 70
    24
 71
     3
 72
     8
 73
     4
 74
     0
 42
0.0000000001
 43
0.0000000001
 40
0.0
 40
0.0
 40
0.0
 40
0.0
 40
1.0
 40
1.0
 40
1.0
 40
1.0
 10
29.7729
 20
-17.8906
 30
0.0
 10
29.7729
 20
-17.8906
 30
0.0
 10
16.4455
 20
-17.8906
 30
0.0
 10
16.4455
 20
-17.8906
 30
0.0
  0
SPLINE
  5
B1
330
1F
100
AcDbEntity
  8
AXIS
 62
   250
100
AcDbSpline
210
0.0
220
0.0
230
1.0
 70
    24
 71
     3
 72
     8
 73
     4
 74
     0
 42
0.0000000001
 43
0.0000000001
 40
0.0
 40
0.0
 40
0.0
 40
0.0
 40
1.0
 40
1.0
 40
1.0
 40
1.0
 10
23.2716
 20
-13.891
 30
0.0
 10
23.2716
 20
-13.891
 30
0.0
 10
23.2716
 20
13.5801
 30
0.0
 10
23.2716
 20
13.5801
 30
0.0
  0
SPLINE
  5
B2
330
1F
100
AcDbEntity
  8
AXIS
 62
   250
100
AcDbSpline
210
0.0
220
0.0
230
1.0
 70
     8
 71
     3
 72
     8
 73
     4
 74
     0
 42
0.0000000001
 43
0.0000000001
 40
0.0
 40
0.0
 40
0.0
 40
0.0
 40
1.0
 40
1.0
 40
1.0
 40
1.0
 10
25.2423
 20
-12.222
 30
0.0
 10
26.605
 20
-4.0584
 30
0.0
 10
26.4341
 20
4.2877
 30
0.0
 10
24.7383
 20
12.3887
 30
0.0
  0
SPLINE
  5
B3
330
1F
100
AcDbEntity
  8
AXIS
 62
   250
100
AcDbSpline
210
0.0
220
0.0
230
1.0
 70
     8
 71
     3
 72
     8
 73
     4
 74
     0
 42
0.0000000001
 43
0.0000000001
 40
0.0
 40
0.0
 40
0.0
 40
0.0
 40
1.0
 40
1.0
 40
1.0
 40
1.0
 10
23.2716
 20
-13.891
 30
0.0
 10
24.2481
 20
-13.891
 30
0.0
 10
25.0815
 20
-13.1852
 30
0.0
 10
25.2423
 20
-12.222
 30
0.0
  0
SPLINE
  5
B4
330
1F
100
AcDbEntity
  8
AXIS
 62
   250
100
AcDbSpline
210
0.0
220
0.0
230
1.0
 70
     8
 71
     3
 72
     8
 73
     4
 74
     0
 42
0.0000000001
 43
0.0000000001
 40
0.0
 40
0.0
 40
0.0
 40
0.0
 40
1.0
 40
1.0
 40
1.0
 40
1.0
 10
24.7383
 20
12.3887
 30
0.0
 10
24.5929
 20
13.0828
 30
0.0
 10
23.9809
 20
13.5801
 30
0.0
 10
23.2716
 20
13.5801
 30
0.0
  0
SPLINE
  5
B5
330
1F
100
AcDbEntity
  8
AXIS
 62
   250
100
AcDbSpline
210
0.0
220
0.0
230
1.0
 70
     8
 71
     3
 72
     8
 73
     4
 74
     0
 42
0.0000000001
 43
0.0000000001
 40
0.0
 40
0.0
 40
0.0
 40
0.0
 40
1.0
 40
1.0
 40
1.0
 40
1.0
 10
26.1413
 20
-2.4071
 30
0.0
 10
26.1417
 20
-2.3818
 30
0.0
 10
26.1422
 20
-2.3565
 30
0.0
 10
26.1426
 20
-2.3312
 30
0.0
  0
SPLINE
  5
B6
330
1F
100
AcDbEntity
  8
AXIS
 62
   250
100
AcDbSpline
210
0.0
220
0.0
230
1.0
 70
    11
 71
     3
 72
    40
 73
    36
 74
     0
 42
0.0000000001
 43
0.0000000001
 40
0.0
 40
0.0
 40
0.0
 40
0.0
 40
0.1
 40
0.1
 40
0.1
 40
0.1
 40
0.2
 40
0.2
 40
0.2
 40
0.2
 40
0.3
 40
0.3
 40
0.3
 40
0.3
 40
0.4
 40
0.4
 40
0.4
 40
0.4
 40
0.5
 40
0.5
 40
0.5
 40
0.5
 40
0.6
 40
0.6
 40
0.6
 40
0.6
 40
0.7
 40
0.7
 40
0.7
 40
0.7
 40
0.8
 40
0.8
 40
0.8
 40
0.8
 40
1.0
 40
1.0
 40
1.0
 40
1.0
 10
17.2582
 20
-16.9601
 30
0.0
 10
17.2582
 20
-16.9601
 30
0.0
 10
17.0103
 20
-16.9601
 30
0.0
 10
17.0103
 20
-16.9601
 30
0.0
 10
17.0103
 20
-16.9601
 30
0.0
 10
17.0103
 20
-16.9601
 30
0.0
 10
17.0103
 20
-15.3797
 30
0.0
 10
17.0103
 20
-15.3797
 30
0.0
 10
17.0103
 20
-15.3797
 30
0.0
 10
16.9505
 20
-15.4366
 30
0.0
 10
16.8725
 20
-15.4935
 30
0.0
 10
16.7756
 20
-15.5504
 30
0.0
 10
16.7756
 20
-15.5504
 30
0.0
 10
16.6782
 20
-15.6073
 30
0.0
 10
16.5912
 20
-15.6501
 30
0.0
 10
16.514
 20
-15.6784
 30
0.0
 10
16.514
 20
-15.6784
 30
0.0
 10
16.514
 20
-15.6784
 30
0.0
 10
16.514
 20
-15.4389
 30
0.0
 10
16.514
 20
-15.4389
 30
0.0
 10
16.514
 20
-15.4389
 30
0.0
 10
16.6528
 20
-15.3736
 30
0.0
 10
16.7742
 20
-15.2945
 30
0.0
 10
16.8781
 20
-15.2019
 30
0.0
 10
16.8781
 20
-15.2019
 30
0.0
 10
16.9816
 20
-15.1087
 30
0.0
 10
17.0554
 20
-15.0189
 30
0.0
 10
17.0987
 20
-14.9314
 30
0.0
 10
17.0987
 20
-14.9314
 30
0.0
 10
17.0987
 20
-14.9314
 30
0.0
 10
17.2582
 20
-14.9314
 30
0.0
 10
17.2582
 20
-14.9314
 30
0.0
 10
17.2582
 20
-14.9314
 30
0.0
 10
17.2582
 20
-14.9314
 30
0.0
 10
17.2582
 20
-16.9601
 30
0.0
 10
17.2582
 20
-16.9601
 30
0.0
  0
SPLINE
  5
B7
330
1F
100
AcDbEntity
  8
AXIS
 62
   250
100
AcDbSpline
210
0.0
220
0.0
230
1.0
 70
    11
 71
     3
 72
    48
 73
    44
 74
     0
 42
0.0000000001
 43
0.0000000001
 40
0.0
 40
0.0
 40
0.0
 40
0.0
 40
0.0833333333333333
 40
0.0833333333333333
 40
0.0833333333333333
 40
0.0833333333333333
 40
0.1666666666666667
 40
0.1666666666666667
 40
0.1666666666666667
 40
0.1666666666666667
 40
0.25
 40
0.25
 40
0.25
 40
0.25
 40
0.3333333333333333
 40
0.3333333333333333
 40
0.3333333333333333
 40
0.3333333333333333
 40
0.4166666666666667
 40
0.4166666666666667
 40
0.4166666666666667
 40
0.4166666666666667
 40
0.5
 40
0.5
 40
0.5
 40
0.5
 40
0.5833333333333334
 40
0.5833333333333334
 40
0.5833333333333334
 40
0.5833333333333334
 40
0.6666666666666666
 40
0.6666666666666666
 40
0.6666666666666666
 40
0.6666666666666666
 40
0.75
 40
0.75
 40
0.75
 40
0.75
 40
0.8333333333333334
 40
0.8333333333333334
 40
0.8333333333333334
 40
0.8333333333333334
 40
1.0
 40
1.0
 40
1.0
 40
1.0
 10
17.9101
 20
-15.2047
 30
0.0
 10
17.9101
 20
-15.2047
 30
0.0
 10
17.9101
 20
-14.9662
 30
0.0
 10
17.9101
 20
-14.9662
 30
0.0
 10
17.9101
 20
-14.9662
 30
0.0
 10
17.9101
 20
-14.9662
 30
0.0
 10
19.2177
 20
-14.9662
 30
0.0
 10
19.2177
 20
-14.9662
 30
0.0
 10
19.2177
 20
-14.9662
 30
0.0
 10
19.2177
 20
-14.9662
 30
0.0
 10
19.2177
 20
-15.1591
 30
0.0
 10
19.2177
 20
-15.1591
 30
0.0
 10
19.2177
 20
-15.1591
 30
0.0
 10
19.0893
 20
-15.2959
 30
0.0
 10
18.9618
 20
-15.478
 30
0.0
 10
18.8353
 20
-15.7047
 30
0.0
 10
18.8353
 20
-15.7047
 30
0.0
 10
18.7092
 20
-15.9314
 30
0.0
 10
18.6114
 20
-16.1652
 30
0.0
 10
18.5427
 20
-16.4046
 30
0.0
 10
18.5427
 20
-16.4046
 30
0.0
 10
18.4929
 20
-16.5739
 30
0.0
 10
18.4614
 20
-16.7588
 30
0.0
 10
18.4477
 20
-16.9601
 30
0.0
 10
18.4477
 20
-16.9601
 30
0.0
 10
18.4477
 20
-16.9601
 30
0.0
 10
18.1928
 20
-16.9601
 30
0.0
 10
18.1928
 20
-16.9601
 30
0.0
 10
18.1928
 20
-16.9601
 30
0.0
 10
18.1956
 20
-16.8011
 30
0.0
 10
18.2266
 20
-16.6092
 30
0.0
 10
18.2864
 20
-16.3839
 30
0.0
 10
18.2864
 20
-16.3839
 30
0.0
 10
18.3461
 20
-16.1591
 30
0.0
 10
18.4317
 20
-15.9418
 30
0.0
 10
18.5432
 20
-15.7329
 30
0.0
 10
18.5432
 20
-15.7329
 30
0.0
 10
18.6551
 20
-15.5241
 30
0.0
 10
18.7737
 20
-15.3477
 30
0.0
 10
18.8997
 20
-15.2047
 30
0.0
 10
18.8997
 20
-15.2047
 30
0.0
 10
18.8997
 20
-15.2047
 30
0.0
 10
17.9101
 20
-15.2047
 30
0.0
 10
17.9101
 20
-15.2047
 30
0.0
  0
SPLINE
  5
B8
330
1F
100
AcDbEntity
  8
AXIS
 62
   250
100
AcDbSpline
210
0.0
220
0.0
230
1.0
 70
    11
 71
     3
 72
    40
 73
    36
 74
     0
 42
0.0000000001
 43
0.0000000001
 40
0.0
 40
0.0
 40
0.0
 40
0.0
 40
0.1
 40
0.1
 40
0.1
 40
0.1
 40
0.2
 40
0.2
 40
0.2
 40
0.2
 40
0.3
 40
0.3
 40
0.3
 40
0.3
 40
0.4
 40
0.4
 40
0.4
 40
0.4
 40
0.5
 40
0.5
 40
0.5
 40
0.5
 40
0.6
 40
0.6
 40
0.6
 40
0.6
 40
0.7
 40
0.7
 40
0.7
 40
0.7
 40
0.8
 40
0.8
 40
0.8
 40
0.8
 40
1.0
 40
1.0
 40
1.0
 40
1.0
 10
19.5968
 20
-16.9601
 30
0.0
 10
19.5968
 20
-16.9601
 30
0.0
 10
19.5968
 20
-16.6774
 30
0.0
 10
19.5968
 20
-16.6774
 30
0.0
 10
19.5968
 20
-16.6774
 30
0.0
 10
19.5968
 20
-16.6774
 30
0.0
 10
19.8795
 20
-16.6774
 30
0.0
 10
19.8795
 20
-16.6774
 30
0.0
 10
19.8795
 20
-16.6774
 30
0.0
 10
19.8795
 20
-16.6774
 30
0.0
 10
19.8795
 20
-16.9601
 30
0.0
 10
19.8795
 20
-16.9601
 30
0.0
 10
19.8795
 20
-16.9601
 30
0.0
 10
19.8795
 20
-17.0641
 30
0.0
 10
19.8612
 20
-17.1478
 30
0.0
 10
19.8245
 20
-17.2117
 30
0.0
 10
19.8245
 20
-17.2117
 30
0.0
 10
19.7873
 20
-17.2752
 30
0.0
 10
19.729
 20
-17.3246
 30
0.0
 10
19.6495
 20
-17.3599
 30
0.0
 10
19.6495
 20
-17.3599
 30
0.0
 10
19.6495
 20
-17.3599
 30
0.0
 10
19.5803
 20
-17.2536
 30
0.0
 10
19.5803
 20
-17.2536
 30
0.0
 10
19.5803
 20
-17.2536
 30
0.0
 10
19.6326
 20
-17.2306
 30
0.0
 10
19.6711
 20
-17.1967
 30
0.0
 10
19.6961
 20
-17.1525
 30
0.0
 10
19.6961
 20
-17.1525
 30
0.0
 10
19.721
 20
-17.1078
 30
0.0
 10
19.7346
 20
-17.0438
 30
0.0
 10
19.7374
 20
-16.9601
 30
0.0
 10
19.7374
 20
-16.9601
 30
0.0
 10
19.7374
 20
-16.9601
 30
0.0
 10
19.5968
 20
-16.9601
 30
0.0
 10
19.5968
 20
-16.9601
 30
0.0
  0
SPLINE
  5
B9
330
1F
100
AcDbEntity
  8
AXIS
 62
   250
100
AcDbSpline
210
0.0
220
0.0
230
1.0
 70
    11
 71
     3
 72
    92
 73
    88
 74
     0
 42
0.0000000001
 43
0.0000000001
 40
0.0
 40
0.0
 40
0.0
 40
0.0
 40
0.0434782608695652
 40
0.0434782608695652
 40
0.0434782608695652
 40
0.0434782608695652
 40
0.0869565217391304
 40
0.0869565217391304
 40
0.0869565217391304
 40
0.0869565217391304
 40
0.1304347826086956
 40
0.1304347826086956
 40
0.1304347826086956
 40
0.1304347826086956
 40
0.1739130434782609
 40
0.1739130434782609
 40
0.1739130434782609
 40
0.1739130434782609
 40
0.2173913043478261
 40
0.2173913043478261
 40
0.2173913043478261
 40
0.2173913043478261
 40
0.2608695652173913
 40
0.2608695652173913
 40
0.2608695652173913
 40
0.2608695652173913
 40
0.3043478260869565
 40
0.3043478260869565
 40
0.3043478260869565
 40
0.3043478260869565
 40
0.3478260869565217
 40
0.3478260869565217
 40
0.3478260869565217
 40
0.3478260869565217
 40
0.391304347826087
 40
0.391304347826087
 40
0.391304347826087
 40
0.391304347826087
 40
0.4347826086956522
 40
0.4347826086956522
 40
0.4347826086956522
 40
0.4347826086956522
 40
0.4782608695652174
 40
0.4782608695652174
 40
0.4782608695652174
 40
0.4782608695652174
 40
0.5217391304347826
 40
0.5217391304347826
 40
0.5217391304347826
 40
0.5217391304347826
 40
0.5652173913043478
 40
0.5652173913043478
 40
0.5652173913043478
 40
0.5652173913043478
 40
0.6086956521739131
 40
0.6086956521739131
 40
0.6086956521739131
 40
0.6086956521739131
 40
0.6521739130434783
 40
0.6521739130434783
 40
0.6521739130434783
 40
0.6521739130434783
 40
0.6956521739130435
 40
0.6956521739130435
 40
0.6956521739130435
 40
0.6956521739130435
 40
0.7391304347826086
 40
0.7391304347826086
 40
0.7391304347826086
 40
0.7391304347826086
 40
0.782608695652174
 40
0.782608695652174
 40
0.782608695652174
 40
0.782608695652174
 40
0.8260869565217391
 40
0.8260869565217391
 40
0.8260869565217391
 40
0.8260869565217391
 40
0.8695652173913043
 40
0.8695652173913043
 40
0.8695652173913043
 40
0.8695652173913043
 40
0.9130434782608695
 40
0.9130434782608695
 40
0.9130434782608695
 40
0.9130434782608695
 40
1.0
 40
1.0
 40
1.0
 40
1.0
 10
20.2473
 20
-16.4309
 30
0.0
 10
20.2473
 20
-16.4309
 30
0.0
 10
20.5079
 20
-16.4088
 30
0.0
 10
20.5079
 20
-16.4088
 30
0.0
 10
20.5079
 20
-16.4088
 30
0.0
 10
20.5272
 20
-16.5358
 30
0.0
 10
20.5719
 20
-16.6308
 30
0.0
 10
20.642
 20
-16.6948
 30
0.0
 10
20.642
 20
-16.6948
 30
0.0
 10
20.7125
 20
-16.7588
 30
0.0
 10
20.7972
 20
-16.7908
 30
0.0
 10
20.8964
 20
-16.7908
 30
0.0
 10
20.8964
 20
-16.7908
 30
0.0
 10
21.0159
 20
-16.7908
 30
0.0
 10
21.117
 20
-16.7456
 30
0.0
 10
21.1993
 20
-16.6558
 30
0.0
 10
21.1993
 20
-16.6558
 30
0.0
 10
21.2821
 20
-16.5655
 30
0.0
 10
21.3235
 20
-16.446
 30
0.0
 10
21.3235
 20
-16.2974
 30
0.0
 10
21.3235
 20
-16.2974
 30
0.0
 10
21.3235
 20
-16.1558
 30
0.0
 10
21.284
 20
-16.0443
 30
0.0
 10
21.2045
 20
-15.9625
 30
0.0
 10
21.2045
 20
-15.9625
 30
0.0
 10
21.125
 20
-15.8806
 30
0.0
 10
21.0211
 20
-15.8397
 30
0.0
 10
20.8922
 20
-15.8397
 30
0.0
 10
20.8922
 20
-15.8397
 30
0.0
 10
20.8122
 20
-15.8397
 30
0.0
 10
20.7403
 20
-15.858
 30
0.0
 10
20.6758
 20
-15.8942
 30
0.0
 10
20.6758
 20
-15.8942
 30
0.0
 10
20.6114
 20
-15.9305
 30
0.0
 10
20.5611
 20
-15.9775
 30
0.0
 10
20.5244
 20
-16.0354
 30
0.0
 10
20.5244
 20
-16.0354
 30
0.0
 10
20.5244
 20
-16.0354
 30
0.0
 10
20.2915
 20
-16.0053
 30
0.0
 10
20.2915
 20
-16.0053
 30
0.0
 10
20.2915
 20
-16.0053
 30
0.0
 10
20.2915
 20
-16.0053
 30
0.0
 10
20.4872
 20
-14.9676
 30
0.0
 10
20.4872
 20
-14.9676
 30
0.0
 10
20.4872
 20
-14.9676
 30
0.0
 10
20.4872
 20
-14.9676
 30
0.0
 10
21.4919
 20
-14.9676
 30
0.0
 10
21.4919
 20
-14.9676
 30
0.0
 10
21.4919
 20
-14.9676
 30
0.0
 10
21.4919
 20
-14.9676
 30
0.0
 10
21.4919
 20
-15.2047
 30
0.0
 10
21.4919
 20
-15.2047
 30
0.0
 10
21.4919
 20
-15.2047
 30
0.0
 10
21.4919
 20
-15.2047
 30
0.0
 10
20.6857
 20
-15.2047
 30
0.0
 10
20.6857
 20
-15.2047
 30
0.0
 10
20.6857
 20
-15.2047
 30
0.0
 10
20.6857
 20
-15.2047
 30
0.0
 10
20.5766
 20
-15.7475
 30
0.0
 10
20.5766
 20
-15.7475
 30
0.0
 10
20.5766
 20
-15.7475
 30
0.0
 10
20.6979
 20
-15.6628
 30
0.0
 10
20.8254
 20
-15.6205
 30
0.0
 10
20.9585
 20
-15.6205
 30
0.0
 10
20.9585
 20
-15.6205
 30
0.0
 10
21.1349
 20
-15.6205
 30
0.0
 10
21.2835
 20
-15.6816
 30
0.0
 10
21.4049
 20
-15.8039
 30
0.0
 10
21.4049
 20
-15.8039
 30
0.0
 10
21.5262
 20
-15.9262
 30
0.0
 10
21.5869
 20
-16.0833
 30
0.0
 10
21.5869
 20
-16.2752
 30
0.0
 10
21.5869
 20
-16.2752
 30
0.0
 10
21.5869
 20
-16.4582
 30
0.0
 10
21.5333
 20
-16.6163
 30
0.0
 10
21.427
 20
-16.7494
 30
0.0
 10
21.427
 20
-16.7494
 30
0.0
 10
21.2972
 20
-16.9126
 30
0.0
 10
21.1203
 20
-16.9944
 30
0.0
 10
20.8964
 20
-16.9944
 30
0.0
 10
20.8964
 20
-16.9944
 30
0.0
 10
20.7125
 20
-16.9944
 30
0.0
 10
20.5625
 20
-16.9432
 30
0.0
 10
20.4463
 20
-16.8402
 30
0.0
 10
20.4463
 20
-16.8402
 30
0.0
 10
20.3301
 20
-16.7371
 30
0.0
 10
20.2638
 20
-16.6007
 30
0.0
 10
20.2473
 20
-16.4309
 30
0.0
  0
SPLINE
  5
BA
330
1F
100
AcDbEntity
  8
AXIS
 62
   250
100
AcDbSpline
210
0.0
220
0.0
230
1.0
 70
    11
 71
     3
 72
    92
 73
    88
 74
     0
 42
0.0000000001
 43
0.0000000001
 40
0.0
 40
0.0
 40
0.0
 40
0.0
 40
0.0434782608695652
 40
0.0434782608695652
 40
0.0434782608695652
 40
0.0434782608695652
 40
0.0869565217391304
 40
0.0869565217391304
 40
0.0869565217391304
 40
0.0869565217391304
 40
0.1304347826086956
 40
0.1304347826086956
 40
0.1304347826086956
 40
0.1304347826086956
 40
0.1739130434782609
 40
0.1739130434782609
 40
0.1739130434782609
 40
0.1739130434782609
 40
0.2173913043478261
 40
0.2173913043478261
 40
0.2173913043478261
 40
0.2173913043478261
 40
0.2608695652173913
 40
0.2608695652173913
 40
0.2608695652173913
 40
0.2608695652173913
 40
0.3043478260869565
 40
0.3043478260869565
 40
0.3043478260869565
 40
0.3043478260869565
 40
0.3478260869565217
 40
0.3478260869565217
 40
0.3478260869565217
 40
0.3478260869565217
 40
0.391304347826087
 40
0.391304347826087
 40
0.391304347826087
 40
0.391304347826087
 40
0.4347826086956522
 40
0.4347826086956522
 40
0.4347826086956522
 40
0.4347826086956522
 40
0.4782608695652174
 40
0.4782608695652174
 40
0.4782608695652174
 40
0.4782608695652174
 40
0.5217391304347826
 40
0.5217391304347826
 40
0.5217391304347826
 40
0.5217391304347826
 40
0.5652173913043478
 40
0.5652173913043478
 40
0.5652173913043478
 40
0.5652173913043478
 40
0.6086956521739131
 40
0.6086956521739131
 40
0.6086956521739131
 40
0.6086956521739131
 40
0.6521739130434783
 40
0.6521739130434783
 40
0.6521739130434783
 40
0.6521739130434783
 40
0.6956521739130435
 40
0.6956521739130435
 40
0.6956521739130435
 40
0.6956521739130435
 40
0.7391304347826086
 40
0.7391304347826086
 40
0.7391304347826086
 40
0.7391304347826086
 40
0.782608695652174
 40
0.782608695652174
 40
0.782608695652174
 40
0.782608695652174
 40
0.8260869565217391
 40
0.8260869565217391
 40
0.8260869565217391
 40
0.8260869565217391
 40
0.8695652173913043
 40
0.8695652173913043
 40
0.8695652173913043
 40
0.8695652173913043
 40
0.9130434782608695
 40
0.9130434782608695
 40
0.9130434782608695
 40
0.9130434782608695
 40
1.0
 40
1.0
 40
1.0
 40
1.0
 10
-5.5164
 20
16.5745
 30
0.0
 10
-5.5164
 20
16.5745
 30
0.0
 10
-5.5164
 20
16.336
 30
0.0
 10
-5.5164
 20
16.336
 30
0.0
 10
-5.5164
 20
16.336
 30
0.0
 10
-5.5164
 20
16.336
 30
0.0
 10
-6.8518
 20
16.336
 30
0.0
 10
-6.8518
 20
16.336
 30
0.0
 10
-6.8518
 20
16.336
 30
0.0
 10
-6.8537
 20
16.3957
 30
0.0
 10
-6.8443
 20
16.4531
 30
0.0
 10
-6.8231
 20
16.5082
 30
0.0
 10
-6.8231
 20
16.5082
 30
0.0
 10
-6.7892
 20
16.5994
 30
0.0
 10
-6.7347
 20
16.6888
 30
0.0
 10
-6.6599
 20
16.7772
 30
0.0
 10
-6.6599
 20
16.7772
 30
0.0
 10
-6.5846
 20
16.8652
 30
0.0
 10
-6.4764
 20
16.9672
 30
0.0
 10
-6.3353
 20
17.0829
 30
0.0
 10
-6.3353
 20
17.0829
 30
0.0
 10
-6.1157
 20
17.2631
 30
0.0
 10
-5.967
 20
17.4056
 30
0.0
 10
-5.8899
 20
17.511
 30
0.0
 10
-5.8899
 20
17.511
 30
0.0
 10
-5.8128
 20
17.6159
 30
0.0
 10
-5.7742
 20
17.7156
 30
0.0
 10
-5.7742
 20
17.8092
 30
0.0
 10
-5.7742
 20
17.8092
 30
0.0
 10
-5.7742
 20
17.9075
 30
0.0
 10
-5.8095
 20
17.9903
 30
0.0
 10
-5.8795
 20
18.058
 30
0.0
 10
-5.8795
 20
18.058
 30
0.0
 10
-5.9501
 20
18.1253
 30
0.0
 10
-6.0418
 20
18.1591
 30
0.0
 10
-6.1547
 20
18.1591
 30
0.0
 10
-6.1547
 20
18.1591
 30
0.0
 10
-6.2742
 20
18.1591
 30
0.0
 10
-6.3697
 20
18.1234
 30
0.0
 10
-6.4412
 20
18.0514
 30
0.0
 10
-6.4412
 20
18.0514
 30
0.0
 10
-6.5131
 20
17.9799
 30
0.0
 10
-6.5493
 20
17.8807
 30
0.0
 10
-6.5503
 20
17.7542
 30
0.0
 10
-6.5503
 20
17.7542
 30
0.0
 10
-6.5503
 20
17.7542
 30
0.0
 10
-6.8052
 20
17.78
 30
0.0
 10
-6.8052
 20
17.78
 30
0.0
 10
-6.8052
 20
17.78
 30
0.0
 10
-6.7878
 20
17.9705
 30
0.0
 10
-6.722
 20
18.1154
 30
0.0
 10
-6.6081
 20
18.2151
 30
0.0
 10
-6.6081
 20
18.2151
 30
0.0
 10
-6.4943
 20
18.3148
 30
0.0
 10
-6.341
 20
18.3647
 30
0.0
 10
-6.1491
 20
18.3647
 30
0.0
 10
-6.1491
 20
18.3647
 30
0.0
 10
-5.9553
 20
18.3647
 30
0.0
 10
-5.8019
 20
18.3106
 30
0.0
 10
-5.689
 20
18.2034
 30
0.0
 10
-5.689
 20
18.2034
 30
0.0
 10
-5.5757
 20
18.0956
 30
0.0
 10
-5.5192
 20
17.9625
 30
0.0
 10
-5.5192
 20
17.8035
 30
0.0
 10
-5.5192
 20
17.8035
 30
0.0
 10
-5.5192
 20
17.7226
 30
0.0
 10
-5.5357
 20
17.6431
 30
0.0
 10
-5.5691
 20
17.5651
 30
0.0
 10
-5.5691
 20
17.5651
 30
0.0
 10
-5.602
 20
17.487
 30
0.0
 10
-5.6571
 20
17.4047
 30
0.0
 10
-5.7337
 20
17.3186
 30
0.0
 10
-5.7337
 20
17.3186
 30
0.0
 10
-5.8104
 20
17.232
 30
0.0
 10
-5.9379
 20
17.1135
 30
0.0
 10
-6.1161
 20
16.963
 30
0.0
 10
-6.1161
 20
16.963
 30
0.0
 10
-6.2648
 20
16.8379
 30
0.0
 10
-6.3603
 20
16.7532
 30
0.0
 10
-6.4026
 20
16.7085
 30
0.0
 10
-6.4026
 20
16.7085
 30
0.0
 10
-6.4449
 20
16.6643
 30
0.0
 10
-6.4797
 20
16.6196
 30
0.0
 10
-6.5075
 20
16.5745
 30
0.0
 10
-6.5075
 20
16.5745
 30
0.0
 10
-6.5075
 20
16.5745
 30
0.0
 10
-5.5164
 20
16.5745
 30
0.0
 10
-5.5164
 20
16.5745
 30
0.0
  0
SPLINE
  5
BB
330
1F
100
AcDbEntity
  8
AXIS
 62
   250
100
AcDbSpline
210
0.0
220
0.0
230
1.0
 70
    11
 71
     3
 72
    48
 73
    44
 74
     0
 42
0.0000000001
 43
0.0000000001
 40
0.0
 40
0.0
 40
0.0
 40
0.0
 40
0.0833333333333333
 40
0.0833333333333333
 40
0.0833333333333333
 40
0.0833333333333333
 40
0.1666666666666667
 40
0.1666666666666667
 40
0.1666666666666667
 40
0.1666666666666667
 40
0.25
 40
0.25
 40
0.25
 40
0.25
 40
0.3333333333333333
 40
0.3333333333333333
 40
0.3333333333333333
 40
0.3333333333333333
 40
0.4166666666666667
 40
0.4166666666666667
 40
0.4166666666666667
 40
0.4166666666666667
 40
0.5
 40
0.5
 40
0.5
 40
0.5
 40
0.5833333333333334
 40
0.5833333333333334
 40
0.5833333333333334
 40
0.5833333333333334
 40
0.6666666666666666
 40
0.6666666666666666
 40
0.6666666666666666
 40
0.6666666666666666
 40
0.75
 40
0.75
 40
0.75
 40
0.75
 40
0.8333333333333334
 40
0.8333333333333334
 40
0.8333333333333334
 40
0.8333333333333334
 40
1.0
 40
1.0
 40
1.0
 40
1.0
 10
-4.4558
 20
16.336
 30
0.0
 10
-4.4558
 20
16.336
 30
0.0
 10
-4.4558
 20
16.8195
 30
0.0
 10
-4.4558
 20
16.8195
 30
0.0
 10
-4.4558
 20
16.8195
 30
0.0
 10
-4.4558
 20
16.8195
 30
0.0
 10
-5.3321
 20
16.8195
 30
0.0
 10
-5.3321
 20
16.8195
 30
0.0
 10
-5.3321
 20
16.8195
 30
0.0
 10
-5.3321
 20
16.8195
 30
0.0
 10
-5.3321
 20
17.0472
 30
0.0
 10
-5.3321
 20
17.0472
 30
0.0
 10
-5.3321
 20
17.0472
 30
0.0
 10
-5.3321
 20
17.0472
 30
0.0
 10
-4.4101
 20
18.3562
 30
0.0
 10
-4.4101
 20
18.3562
 30
0.0
 10
-4.4101
 20
18.3562
 30
0.0
 10
-4.4101
 20
18.3562
 30
0.0
 10
-4.2074
 20
18.3562
 30
0.0
 10
-4.2074
 20
18.3562
 30
0.0
 10
-4.2074
 20
18.3562
 30
0.0
 10
-4.2074
 20
18.3562
 30
0.0
 10
-4.2074
 20
17.0472
 30
0.0
 10
-4.2074
 20
17.0472
 30
0.0
 10
-4.2074
 20
17.0472
 30
0.0
 10
-4.2074
 20
17.0472
 30
0.0
 10
-3.9346
 20
17.0472
 30
0.0
 10
-3.9346
 20
17.0472
 30
0.0
 10
-3.9346
 20
17.0472
 30
0.0
 10
-3.9346
 20
17.0472
 30
0.0
 10
-3.9346
 20
16.8195
 30
0.0
 10
-3.9346
 20
16.8195
 30
0.0
 10
-3.9346
 20
16.8195
 30
0.0
 10
-3.9346
 20
16.8195
 30
0.0
 10
-4.2074
 20
16.8195
 30
0.0
 10
-4.2074
 20
16.8195
 30
0.0
 10
-4.2074
 20
16.8195
 30
0.0
 10
-4.2074
 20
16.8195
 30
0.0
 10
-4.2074
 20
16.336
 30
0.0
 10
-4.2074
 20
16.336
 30
0.0
 10
-4.2074
 20
16.336
 30
0.0
 10
-4.2074
 20
16.336
 30
0.0
 10
-4.4558
 20
16.336
 30
0.0
 10
-4.4558
 20
16.336
 30
0.0
  0
SPLINE
  5
BC
330
1F
100
AcDbEntity
  8
AXIS
 62
   250
100
AcDbSpline
210
0.0
220
0.0
230
1.0
 70
    11
 71
     3
 72
    16
 73
    12
 74
     0
 42
0.0000000001
 43
0.0000000001
 40
0.0
 40
0.0
 40
0.0
 40
0.0
 40
0.25
 40
0.25
 40
0.25
 40
0.25
 40
0.5
 40
0.5
 40
0.5
 40
0.5
 40
1.0
 40
1.0
 40
1.0
 40
1.0
 10
-4.4558
 20
17.0472
 30
0.0
 10
-4.4558
 20
17.0472
 30
0.0
 10
-4.4558
 20
17.9578
 30
0.0
 10
-4.4558
 20
17.9578
 30
0.0
 10
-4.4558
 20
17.9578
 30
0.0
 10
-4.4558
 20
17.9578
 30
0.0
 10
-5.0879
 20
17.0472
 30
0.0
 10
-5.0879
 20
17.0472
 30
0.0
 10
-5.0879
 20
17.0472
 30
0.0
 10
-5.0879
 20
17.0472
 30
0.0
 10
-4.4558
 20
17.0472
 30
0.0
 10
-4.4558
 20
17.0472
 30
0.0
  0
SPLINE
  5
BD
330
1F
100
AcDbEntity
  8
AXIS
 62
   250
100
AcDbSpline
210
0.0
220
0.0
230
1.0
 70
    11
 71
     3
 72
    48
 73
    44
 74
     0
 42
0.0000000001
 43
0.0000000001
 40
0.0
 40
0.0
 40
0.0
 40
0.0
 40
0.0833333333333333
 40
0.0833333333333333
 40
0.0833333333333333
 40
0.0833333333333333
 40
0.1666666666666667
 40
0.1666666666666667
 40
0.1666666666666667
 40
0.1666666666666667
 40
0.25
 40
0.25
 40
0.25
 40
0.25
 40
0.3333333333333333
 40
0.3333333333333333
 40
0.3333333333333333
 40
0.3333333333333333
 40
0.4166666666666667
 40
0.4166666666666667
 40
0.4166666666666667
 40
0.4166666666666667
 40
0.5
 40
0.5
 40
0.5
 40
0.5
 40
0.5833333333333334
 40
0.5833333333333334
 40
0.5833333333333334
 40
0.5833333333333334
 40
0.6666666666666666
 40
0.6666666666666666
 40
0.6666666666666666
 40
0.6666666666666666
 40
0.75
 40
0.75
 40
0.75
 40
0.75
 40
0.8333333333333334
 40
0.8333333333333334
 40
0.8333333333333334
 40
0.8333333333333334
 40
1.0
 40
1.0
 40
1.0
 40
1.0
 10
-3.6646
 20
18.0914
 30
0.0
 10
-3.6646
 20
18.0914
 30
0.0
 10
-3.6646
 20
18.3299
 30
0.0
 10
-3.6646
 20
18.3299
 30
0.0
 10
-3.6646
 20
18.3299
 30
0.0
 10
-3.6646
 20
18.3299
 30
0.0
 10
-2.357
 20
18.3299
 30
0.0
 10
-2.357
 20
18.3299
 30
0.0
 10
-2.357
 20
18.3299
 30
0.0
 10
-2.357
 20
18.3299
 30
0.0
 10
-2.357
 20
18.137
 30
0.0
 10
-2.357
 20
18.137
 30
0.0
 10
-2.357
 20
18.137
 30
0.0
 10
-2.4854
 20
18.0002
 30
0.0
 10
-2.6129
 20
17.8181
 30
0.0
 10
-2.7394
 20
17.5914
 30
0.0
 10
-2.7394
 20
17.5914
 30
0.0
 10
-2.8655
 20
17.3647
 30
0.0
 10
-2.9633
 20
17.1309
 30
0.0
 10
-3.032
 20
16.8915
 30
0.0
 10
-3.032
 20
16.8915
 30
0.0
 10
-3.0818
 20
16.7222
 30
0.0
 10
-3.1133
 20
16.5373
 30
0.0
 10
-3.127
 20
16.336
 30
0.0
 10
-3.127
 20
16.336
 30
0.0
 10
-3.127
 20
16.336
 30
0.0
 10
-3.3819
 20
16.336
 30
0.0
 10
-3.3819
 20
16.336
 30
0.0
 10
-3.3819
 20
16.336
 30
0.0
 10
-3.3791
 20
16.495
 30
0.0
 10
-3.3481
 20
16.6869
 30
0.0
 10
-3.2883
 20
16.9122
 30
0.0
 10
-3.2883
 20
16.9122
 30
0.0
 10
-3.2286
 20
17.137
 30
0.0
 10
-3.143
 20
17.3543
 30
0.0
 10
-3.0315
 20
17.5632
 30
0.0
 10
-3.0315
 20
17.5632
 30
0.0
 10
-2.9196
 20
17.772
 30
0.0
 10
-2.801
 20
17.9484
 30
0.0
 10
-2.675
 20
18.0914
 30
0.0
 10
-2.675
 20
18.0914
 30
0.0
 10
-2.675
 20
18.0914
 30
0.0
 10
-3.6646
 20
18.0914
 30
0.0
 10
-3.6646
 20
18.0914
 30
0.0
  0
SPLINE
  5
BE
330
1F
100
AcDbEntity
  8
AXIS
 62
   250
100
AcDbSpline
210
0.0
220
0.0
230
1.0
 70
    11
 71
     3
 72
    40
 73
    36
 74
     0
 42
0.0000000001
 43
0.0000000001
 40
0.0
 40
0.0
 40
0.0
 40
0.0
 40
0.1
 40
0.1
 40
0.1
 40
0.1
 40
0.2
 40
0.2
 40
0.2
 40
0.2
 40
0.3
 40
0.3
 40
0.3
 40
0.3
 40
0.4
 40
0.4
 40
0.4
 40
0.4
 40
0.5
 40
0.5
 40
0.5
 40
0.5
 40
0.6
 40
0.6
 40
0.6
 40
0.6
 40
0.7
 40
0.7
 40
0.7
 40
0.7
 40
0.8
 40
0.8
 40
0.8
 40
0.8
 40
1.0
 40
1.0
 40
1.0
 40
1.0
 10
-5.1102
 20
-16.8851
 30
0.0
 10
-5.1102
 20
-16.8851
 30
0.0
 10
-5.3581
 20
-16.8851
 30
0.0
 10
-5.3581
 20
-16.8851
 30
0.0
 10
-5.3581
 20
-16.8851
 30
0.0
 10
-5.3581
 20
-16.8851
 30
0.0
 10
-5.3581
 20
-15.3047
 30
0.0
 10
-5.3581
 20
-15.3047
 30
0.0
 10
-5.3581
 20
-15.3047
 30
0.0
 10
-5.4179
 20
-15.3616
 30
0.0
 10
-5.4959
 20
-15.4185
 30
0.0
 10
-5.5928
 20
-15.4754
 30
0.0
 10
-5.5928
 20
-15.4754
 30
0.0
 10
-5.6902
 20
-15.5323
 30
0.0
 10
-5.7772
 20
-15.5751
 30
0.0
 10
-5.8544
 20
-15.6034
 30
0.0
 10
-5.8544
 20
-15.6034
 30
0.0
 10
-5.8544
 20
-15.6034
 30
0.0
 10
-5.8544
 20
-15.3639
 30
0.0
 10
-5.8544
 20
-15.3639
 30
0.0
 10
-5.8544
 20
-15.3639
 30
0.0
 10
-5.7156
 20
-15.2986
 30
0.0
 10
-5.5942
 20
-15.2195
 30
0.0
 10
-5.4903
 20
-15.1269
 30
0.0
 10
-5.4903
 20
-15.1269
 30
0.0
 10
-5.3868
 20
-15.0337
 30
0.0
 10
-5.313
 20
-14.9439
 30
0.0
 10
-5.2697
 20
-14.8564
 30
0.0
 10
-5.2697
 20
-14.8564
 30
0.0
 10
-5.2697
 20
-14.8564
 30
0.0
 10
-5.1102
 20
-14.8564
 30
0.0
 10
-5.1102
 20
-14.8564
 30
0.0
 10
-5.1102
 20
-14.8564
 30
0.0
 10
-5.1102
 20
-14.8564
 30
0.0
 10
-5.1102
 20
-16.8851
 30
0.0
 10
-5.1102
 20
-16.8851
 30
0.0
  0
SPLINE
  5
BF
330
1F
100
AcDbEntity
  8
AXIS
 62
   250
100
AcDbSpline
210
0.0
220
0.0
230
1.0
 70
    11
 71
     3
 72
    48
 73
    44
 74
     0
 42
0.0000000001
 43
0.0000000001
 40
0.0
 40
0.0
 40
0.0
 40
0.0
 40
0.0833333333333333
 40
0.0833333333333333
 40
0.0833333333333333
 40
0.0833333333333333
 40
0.1666666666666667
 40
0.1666666666666667
 40
0.1666666666666667
 40
0.1666666666666667
 40
0.25
 40
0.25
 40
0.25
 40
0.25
 40
0.3333333333333333
 40
0.3333333333333333
 40
0.3333333333333333
 40
0.3333333333333333
 40
0.4166666666666667
 40
0.4166666666666667
 40
0.4166666666666667
 40
0.4166666666666667
 40
0.5
 40
0.5
 40
0.5
 40
0.5
 40
0.5833333333333334
 40
0.5833333333333334
 40
0.5833333333333334
 40
0.5833333333333334
 40
0.6666666666666666
 40
0.6666666666666666
 40
0.6666666666666666
 40
0.6666666666666666
 40
0.75
 40
0.75
 40
0.75
 40
0.75
 40
0.8333333333333334
 40
0.8333333333333334
 40
0.8333333333333334
 40
0.8333333333333334
 40
1.0
 40
1.0
 40
1.0
 40
1.0
 10
-4.4583
 20
-15.1297
 30
0.0
 10
-4.4583
 20
-15.1297
 30
0.0
 10
-4.4583
 20
-14.8912
 30
0.0
 10
-4.4583
 20
-14.8912
 30
0.0
 10
-4.4583
 20
-14.8912
 30
0.0
 10
-4.4583
 20
-14.8912
 30
0.0
 10
-3.1507
 20
-14.8912
 30
0.0
 10
-3.1507
 20
-14.8912
 30
0.0
 10
-3.1507
 20
-14.8912
 30
0.0
 10
-3.1507
 20
-14.8912
 30
0.0
 10
-3.1507
 20
-15.0841
 30
0.0
 10
-3.1507
 20
-15.0841
 30
0.0
 10
-3.1507
 20
-15.0841
 30
0.0
 10
-3.2791
 20
-15.2209
 30
0.0
 10
-3.4066
 20
-15.403
 30
0.0
 10
-3.5331
 20
-15.6297
 30
0.0
 10
-3.5331
 20
-15.6297
 30
0.0
 10
-3.6592
 20
-15.8564
 30
0.0
 10
-3.757
 20
-16.0902
 30
0.0
 10
-3.8257
 20
-16.3296
 30
0.0
 10
-3.8257
 20
-16.3296
 30
0.0
 10
-3.8755
 20
-16.4989
 30
0.0
 10
-3.907
 20
-16.6838
 30
0.0
 10
-3.9207
 20
-16.8851
 30
0.0
 10
-3.9207
 20
-16.8851
 30
0.0
 10
-3.9207
 20
-16.8851
 30
0.0
 10
-4.1756
 20
-16.8851
 30
0.0
 10
-4.1756
 20
-16.8851
 30
0.0
 10
-4.1756
 20
-16.8851
 30
0.0
 10
-4.1728
 20
-16.7261
 30
0.0
 10
-4.1418
 20
-16.5342
 30
0.0
 10
-4.082
 20
-16.3089
 30
0.0
 10
-4.082
 20
-16.3089
 30
0.0
 10
-4.0223
 20
-16.0841
 30
0.0
 10
-3.9367
 20
-15.8668
 30
0.0
 10
-3.8252
 20
-15.6579
 30
0.0
 10
-3.8252
 20
-15.6579
 30
0.0
 10
-3.7133
 20
-15.4491
 30
0.0
 10
-3.5947
 20
-15.2727
 30
0.0
 10
-3.4687
 20
-15.1297
 30
0.0
 10
-3.4687
 20
-15.1297
 30
0.0
 10
-3.4687
 20
-15.1297
 30
0.0
 10
-4.4583
 20
-15.1297
 30
0.0
 10
-4.4583
 20
-15.1297
 30
0.0
  0
SPLINE
  5
C0
330
1F
100
AcDbEntity
  8
AXIS
 62
   250
100
AcDbSpline
210
0.0
220
0.0
230
1.0
 70
    11
 71
     3
 72
    48
 73
    44
 74
     0
 42
0.0000000001
 43
0.0000000001
 40
0.0
 40
0.0
 40
0.0
 40
0.0
 40
0.0833333333333333
 40
0.0833333333333333
 40
0.0833333333333333
 40
0.0833333333333333
 40
0.1666666666666667
 40
0.1666666666666667
 40
0.1666666666666667
 40
0.1666666666666667
 40
0.25
 40
0.25
 40
0.25
 40
0.25
 40
0.3333333333333333
 40
0.3333333333333333
 40
0.3333333333333333
 40
0.3333333333333333
 40
0.4166666666666667
 40
0.4166666666666667
 40
0.4166666666666667
 40
0.4166666666666667
 40
0.5
 40
0.5
 40
0.5
 40
0.5
 40
0.5833333333333334
 40
0.5833333333333334
 40
0.5833333333333334
 40
0.5833333333333334
 40
0.6666666666666666
 40
0.6666666666666666
 40
0.6666666666666666
 40
0.6666666666666666
 40
0.75
 40
0.75
 40
0.75
 40
0.75
 40
0.8333333333333334
 40
0.8333333333333334
 40
0.8333333333333334
 40
0.8333333333333334
 40
1.0
 40
1.0
 40
1.0
 40
1.0
 10
-2.1103
 20
-16.8851
 30
0.0
 10
-2.1103
 20
-16.8851
 30
0.0
 10
-2.1103
 20
-16.4016
 30
0.0
 10
-2.1103
 20
-16.4016
 30
0.0
 10
-2.1103
 20
-16.4016
 30
0.0
 10
-2.1103
 20
-16.4016
 30
0.0
 10
-2.9866
 20
-16.4016
 30
0.0
 10
-2.9866
 20
-16.4016
 30
0.0
 10
-2.9866
 20
-16.4016
 30
0.0
 10
-2.9866
 20
-16.4016
 30
0.0
 10
-2.9866
 20
-16.1739
 30
0.0
 10
-2.9866
 20
-16.1739
 30
0.0
 10
-2.9866
 20
-16.1739
 30
0.0
 10
-2.9866
 20
-16.1739
 30
0.0
 10
-2.0646
 20
-14.8649
 30
0.0
 10
-2.0646
 20
-14.8649
 30
0.0
 10
-2.0646
 20
-14.8649
 30
0.0
 10
-2.0646
 20
-14.8649
 30
0.0
 10
-1.8619
 20
-14.8649
 30
0.0
 10
-1.8619
 20
-14.8649
 30
0.0
 10
-1.8619
 20
-14.8649
 30
0.0
 10
-1.8619
 20
-14.8649
 30
0.0
 10
-1.8619
 20
-16.1739
 30
0.0
 10
-1.8619
 20
-16.1739
 30
0.0
 10
-1.8619
 20
-16.1739
 30
0.0
 10
-1.8619
 20
-16.1739
 30
0.0
 10
-1.5891
 20
-16.1739
 30
0.0
 10
-1.5891
 20
-16.1739
 30
0.0
 10
-1.5891
 20
-16.1739
 30
0.0
 10
-1.5891
 20
-16.1739
 30
0.0
 10
-1.5891
 20
-16.4016
 30
0.0
 10
-1.5891
 20
-16.4016
 30
0.0
 10
-1.5891
 20
-16.4016
 30
0.0
 10
-1.5891
 20
-16.4016
 30
0.0
 10
-1.8619
 20
-16.4016
 30
0.0
 10
-1.8619
 20
-16.4016
 30
0.0
 10
-1.8619
 20
-16.4016
 30
0.0
 10
-1.8619
 20
-16.4016
 30
0.0
 10
-1.8619
 20
-16.8851
 30
0.0
 10
-1.8619
 20
-16.8851
 30
0.0
 10
-1.8619
 20
-16.8851
 30
0.0
 10
-1.8619
 20
-16.8851
 30
0.0
 10
-2.1103
 20
-16.8851
 30
0.0
 10
-2.1103
 20
-16.8851
 30
0.0
  0
SPLINE
  5
C1
330
1F
100
AcDbEntity
  8
AXIS
 62
   250
100
AcDbSpline
210
0.0
220
0.0
230
1.0
 70
    11
 71
     3
 72
    16
 73
    12
 74
     0
 42
0.0000000001
 43
0.0000000001
 40
0.0
 40
0.0
 40
0.0
 40
0.0
 40
0.25
 40
0.25
 40
0.25
 40
0.25
 40
0.5
 40
0.5
 40
0.5
 40
0.5
 40
1.0
 40
1.0
 40
1.0
 40
1.0
 10
-2.1103
 20
-16.1739
 30
0.0
 10
-2.1103
 20
-16.1739
 30
0.0
 10
-2.1103
 20
-15.2633
 30
0.0
 10
-2.1103
 20
-15.2633
 30
0.0
 10
-2.1103
 20
-15.2633
 30
0.0
 10
-2.1103
 20
-15.2633
 30
0.0
 10
-2.7424
 20
-16.1739
 30
0.0
 10
-2.7424
 20
-16.1739
 30
0.0
 10
-2.7424
 20
-16.1739
 30
0.0
 10
-2.7424
 20
-16.1739
 30
0.0
 10
-2.1103
 20
-16.1739
 30
0.0
 10
-2.1103
 20
-16.1739
 30
0.0
  0
SPLINE
  5
C2
330
1F
100
AcDbEntity
  8
AXIS
 62
   250
100
AcDbSpline
210
0.0
220
0.0
230
1.0
 70
    11
 71
     3
 72
    40
 73
    36
 74
     0
 42
0.0000000001
 43
0.0000000001
 40
0.0
 40
0.0
 40
0.0
 40
0.0
 40
0.1
 40
0.1
 40
0.1
 40
0.1
 40
0.2
 40
0.2
 40
0.2
 40
0.2
 40
0.3
 40
0.3
 40
0.3
 40
0.3
 40
0.4
 40
0.4
 40
0.4
 40
0.4
 40
0.5
 40
0.5
 40
0.5
 40
0.5
 40
0.6
 40
0.6
 40
0.6
 40
0.6
 40
0.7
 40
0.7
 40
0.7
 40
0.7
 40
0.8
 40
0.8
 40
0.8
 40
0.8
 40
1.0
 40
1.0
 40
1.0
 40
1.0
 10
-27.7436
 20
-1.3538
 30
0.0
 10
-27.7436
 20
-1.3538
 30
0.0
 10
-27.7436
 20
-1.6017
 30
0.0
 10
-27.7436
 20
-1.6017
 30
0.0
 10
-27.7436
 20
-1.6017
 30
0.0
 10
-27.7436
 20
-1.6017
 30
0.0
 10
-29.324
 20
-1.6017
 30
0.0
 10
-29.324
 20
-1.6017
 30
0.0
 10
-29.324
 20
-1.6017
 30
0.0
 10
-29.2671
 20
-1.6615
 30
0.0
 10
-29.2102
 20
-1.7395
 30
0.0
 10
-29.1533
 20
-1.8364
 30
0.0
 10
-29.1533
 20
-1.8364
 30
0.0
 10
-29.0964
 20
-1.9338
 30
0.0
 10
-29.0536
 20
-2.0208
 30
0.0
 10
-29.0253
 20
-2.098
 30
0.0
 10
-29.0253
 20
-2.098
 30
0.0
 10
-29.0253
 20
-2.098
 30
0.0
 10
-29.2648
 20
-2.098
 30
0.0
 10
-29.2648
 20
-2.098
 30
0.0
 10
-29.2648
 20
-2.098
 30
0.0
 10
-29.3301
 20
-1.9592
 30
0.0
 10
-29.4092
 20
-1.8378
 30
0.0
 10
-29.5018
 20
-1.7339
 30
0.0
 10
-29.5018
 20
-1.7339
 30
0.0
 10
-29.595
 20
-1.6304
 30
0.0
 10
-29.6848
 20
-1.5566
 30
0.0
 10
-29.7723
 20
-1.5133
 30
0.0
 10
-29.7723
 20
-1.5133
 30
0.0
 10
-29.7723
 20
-1.5133
 30
0.0
 10
-29.7723
 20
-1.3538
 30
0.0
 10
-29.7723
 20
-1.3538
 30
0.0
 10
-29.7723
 20
-1.3538
 30
0.0
 10
-29.7723
 20
-1.3538
 30
0.0
 10
-27.7436
 20
-1.3538
 30
0.0
 10
-27.7436
 20
-1.3538
 30
0.0
  0
SPLINE
  5
C3
330
1F
100
AcDbEntity
  8
AXIS
 62
   250
100
AcDbSpline
210
0.0
220
0.0
230
1.0
 70
    11
 71
     3
 72
    80
 73
    76
 74
     0
 42
0.0000000001
 43
0.0000000001
 40
0.0
 40
0.0
 40
0.0
 40
0.0
 40
0.05
 40
0.05
 40
0.05
 40
0.05
 40
0.1
 40
0.1
 40
0.1
 40
0.1
 40
0.15
 40
0.15
 40
0.15
 40
0.15
 40
0.2
 40
0.2
 40
0.2
 40
0.2
 40
0.25
 40
0.25
 40
0.25
 40
0.25
 40
0.3
 40
0.3
 40
0.3
 40
0.3
 40
0.35
 40
0.35
 40
0.35
 40
0.35
 40
0.4
 40
0.4
 40
0.4
 40
0.4
 40
0.45
 40
0.45
 40
0.45
 40
0.45
 40
0.5
 40
0.5
 40
0.5
 40
0.5
 40
0.55
 40
0.55
 40
0.55
 40
0.55
 40
0.6
 40
0.6
 40
0.6
 40
0.6
 40
0.65
 40
0.65
 40
0.65
 40
0.65
 40
0.7
 40
0.7
 40
0.7
 40
0.7
 40
0.75
 40
0.75
 40
0.75
 40
0.75
 40
0.8
 40
0.8
 40
0.8
 40
0.8
 40
0.85
 40
0.85
 40
0.85
 40
0.85
 40
0.9
 40
0.9
 40
0.9
 40
0.9
 40
1.0
 40
1.0
 40
1.0
 40
1.0
 10
-29.269
 20
0.5685
 30
0.0
 10
-29.269
 20
0.5685
 30
0.0
 10
-29.2497
 20
0.3221
 30
0.0
 10
-29.2497
 20
0.3221
 30
0.0
 10
-29.2497
 20
0.3221
 30
0.0
 10
-29.3471
 20
0.3
 30
0.0
 10
-29.4181
 20
0.2689
 30
0.0
 10
-29.4618
 20
0.2285
 30
0.0
 10
-29.4618
 20
0.2285
 30
0.0
 10
-29.5329
 20
0.1612
 30
0.0
 10
-29.5682
 20
0.0784
 30
0.0
 10
-29.5682
 20
-0.0199
 30
0.0
 10
-29.5682
 20
-0.0199
 30
0.0
 10
-29.5682
 20
-0.0989
 30
0.0
 10
-29.546
 20
-0.168
 30
0.0
 10
-29.5018
 20
-0.2278
 30
0.0
 10
-29.5018
 20
-0.2278
 30
0.0
 10
-29.4449
 20
-0.3059
 30
0.0
 10
-29.3617
 20
-0.3675
 30
0.0
 10
-29.2525
 20
-0.4126
 30
0.0
 10
-29.2525
 20
-0.4126
 30
0.0
 10
-29.1434
 20
-0.4573
 30
0.0
 10
-28.9877
 20
-0.4808
 30
0.0
 10
-28.7855
 20
-0.4827
 30
0.0
 10
-28.7855
 20
-0.4827
 30
0.0
 10
-28.8762
 20
-0.423
 30
0.0
 10
-28.944
 20
-0.3501
 30
0.0
 10
-28.9882
 20
-0.2635
 30
0.0
 10
-28.9882
 20
-0.2635
 30
0.0
 10
-29.0319
 20
-0.1775
 30
0.0
 10
-29.054
 20
-0.0867
 30
0.0
 10
-29.054
 20
0.0079
 30
0.0
 10
-29.054
 20
0.0079
 30
0.0
 10
-29.054
 20
0.1734
 30
0.0
 10
-28.9934
 20
0.3141
 30
0.0
 10
-28.8715
 20
0.4303
 30
0.0
 10
-28.8715
 20
0.4303
 30
0.0
 10
-28.7497
 20
0.5464
 30
0.0
 10
-28.5926
 20
0.6048
 30
0.0
 10
-28.3998
 20
0.6048
 30
0.0
 10
-28.3998
 20
0.6048
 30
0.0
 10
-28.2728
 20
0.6048
 30
0.0
 10
-28.1552
 20
0.577
 30
0.0
 10
-28.046
 20
0.5224
 30
0.0
 10
-28.046
 20
0.5224
 30
0.0
 10
-27.9374
 20
0.4679
 30
0.0
 10
-27.8537
 20
0.3926
 30
0.0
 10
-27.7958
 20
0.2971
 30
0.0
 10
-27.7958
 20
0.2971
 30
0.0
 10
-27.738
 20
0.2017
 30
0.0
 10
-27.7093
 20
0.0935
 30
0.0
 10
-27.7093
 20
-0.0279
 30
0.0
 10
-27.7093
 20
-0.0279
 30
0.0
 10
-27.7093
 20
-0.2348
 30
0.0
 10
-27.785
 20
-0.4032
 30
0.0
 10
-27.9374
 20
-0.5335
 30
0.0
 10
-27.9374
 20
-0.5335
 30
0.0
 10
-28.0893
 20
-0.6643
 30
0.0
 10
-28.34
 20
-0.7292
 30
0.0
 10
-28.689
 20
-0.7292
 30
0.0
 10
-28.689
 20
-0.7292
 30
0.0
 10
-29.0794
 20
-0.7292
 30
0.0
 10
-29.3631
 20
-0.6572
 30
0.0
 10
-29.5404
 20
-0.5128
 30
0.0
 10
-29.5404
 20
-0.5128
 30
0.0
 10
-29.6947
 20
-0.3872
 30
0.0
 10
-29.7723
 20
-0.2179
 30
0.0
 10
-29.7723
 20
-0.0044
 30
0.0
 10
-29.7723
 20
-0.0044
 30
0.0
 10
-29.7723
 20
0.1542
 30
0.0
 10
-29.7276
 20
0.2844
 30
0.0
 10
-29.6382
 20
0.386
 30
0.0
 10
-29.6382
 20
0.386
 30
0.0
 10
-29.5493
 20
0.4876
 30
0.0
 10
-29.4261
 20
0.5483
 30
0.0
 10
-29.269
 20
0.5685
 30
0.0
  0
SPLINE
  5
C4
330
1F
100
AcDbEntity
  8
AXIS
 62
   250
100
AcDbSpline
210
0.0
220
0.0
230
1.0
 70
    11
 71
     3
 72
    40
 73
    36
 74
     0
 42
0.0000000001
 43
0.0000000001
 40
0.0
 40
0.0
 40
0.0
 40
0.0
 40
0.1
 40
0.1
 40
0.1
 40
0.1
 40
0.2
 40
0.2
 40
0.2
 40
0.2
 40
0.3
 40
0.3
 40
0.3
 40
0.3
 40
0.4
 40
0.4
 40
0.4
 40
0.4
 40
0.5
 40
0.5
 40
0.5
 40
0.5
 40
0.6
 40
0.6
 40
0.6
 40
0.6
 40
0.7
 40
0.7
 40
0.7
 40
0.7
 40
0.8
 40
0.8
 40
0.8
 40
0.8
 40
1.0
 40
1.0
 40
1.0
 40
1.0
 10
-28.3984
 20
-0.4442
 30
0.0
 10
-28.3127
 20
-0.4442
 30
0.0
 10
-28.2309
 20
-0.4258
 30
0.0
 10
-28.1528
 20
-0.3896
 30
0.0
 10
-28.1528
 20
-0.3896
 30
0.0
 10
-28.0747
 20
-0.3534
 30
0.0
 10
-28.0155
 20
-0.3026
 30
0.0
 10
-27.9746
 20
-0.2377
 30
0.0
 10
-27.9746
 20
-0.2377
 30
0.0
 10
-27.9336
 20
-0.1723
 30
0.0
 10
-27.9129
 20
-0.1036
 30
0.0
 10
-27.9129
 20
-0.0321
 30
0.0
 10
-27.9129
 20
-0.0321
 30
0.0
 10
-27.9129
 20
0.0728
 30
0.0
 10
-27.9553
 20
0.1626
 30
0.0
 10
-28.0399
 20
0.2379
 30
0.0
 10
-28.0399
 20
0.2379
 30
0.0
 10
-28.1246
 20
0.3131
 30
0.0
 10
-28.2394
 20
0.3508
 30
0.0
 10
-28.3842
 20
0.3508
 30
0.0
 10
-28.3842
 20
0.3508
 30
0.0
 10
-28.5239
 20
0.3508
 30
0.0
 10
-28.634
 20
0.3136
 30
0.0
 10
-28.7144
 20
0.2393
 30
0.0
 10
-28.7144
 20
0.2393
 30
0.0
 10
-28.7949
 20
0.165
 30
0.0
 10
-28.8349
 20
0.0714
 30
0.0
 10
-28.8349
 20
-0.0415
 30
0.0
 10
-28.8349
 20
-0.0415
 30
0.0
 10
-28.8349
 20
-0.1539
 30
0.0
 10
-28.7949
 20
-0.249
 30
0.0
 10
-28.7144
 20
-0.327
 30
0.0
 10
-28.7144
 20
-0.327
 30
0.0
 10
-28.634
 20
-0.4051
 30
0.0
 10
-28.5286
 20
-0.4442
 30
0.0
 10
-28.3984
 20
-0.4442
 30
0.0
  0
SPLINE
  5
C5
330
1F
100
AcDbEntity
  8
AXIS
 62
   250
100
AcDbSpline
210
0.0
220
0.0
230
1.0
 70
    11
 71
     3
 72
    92
 73
    88
 74
     0
 42
0.0000000001
 43
0.0000000001
 40
0.0
 40
0.0
 40
0.0
 40
0.0
 40
0.0434782608695652
 40
0.0434782608695652
 40
0.0434782608695652
 40
0.0434782608695652
 40
0.0869565217391304
 40
0.0869565217391304
 40
0.0869565217391304
 40
0.0869565217391304
 40
0.1304347826086956
 40
0.1304347826086956
 40
0.1304347826086956
 40
0.1304347826086956
 40
0.1739130434782609
 40
0.1739130434782609
 40
0.1739130434782609
 40
0.1739130434782609
 40
0.2173913043478261
 40
0.2173913043478261
 40
0.2173913043478261
 40
0.2173913043478261
 40
0.2608695652173913
 40
0.2608695652173913
 40
0.2608695652173913
 40
0.2608695652173913
 40
0.3043478260869565
 40
0.3043478260869565
 40
0.3043478260869565
 40
0.3043478260869565
 40
0.3478260869565217
 40
0.3478260869565217
 40
0.3478260869565217
 40
0.3478260869565217
 40
0.391304347826087
 40
0.391304347826087
 40
0.391304347826087
 40
0.391304347826087
 40
0.4347826086956522
 40
0.4347826086956522
 40
0.4347826086956522
 40
0.4347826086956522
 40
0.4782608695652174
 40
0.4782608695652174
 40
0.4782608695652174
 40
0.4782608695652174
 40
0.5217391304347826
 40
0.5217391304347826
 40
0.5217391304347826
 40
0.5217391304347826
 40
0.5652173913043478
 40
0.5652173913043478
 40
0.5652173913043478
 40
0.5652173913043478
 40
0.6086956521739131
 40
0.6086956521739131
 40
0.6086956521739131
 40
0.6086956521739131
 40
0.6521739130434783
 40
0.6521739130434783
 40
0.6521739130434783
 40
0.6521739130434783
 40
0.6956521739130435
 40
0.6956521739130435
 40
0.6956521739130435
 40
0.6956521739130435
 40
0.7391304347826086
 40
0.7391304347826086
 40
0.7391304347826086
 40
0.7391304347826086
 40
0.782608695652174
 40
0.782608695652174
 40
0.782608695652174
 40
0.782608695652174
 40
0.8260869565217391
 40
0.8260869565217391
 40
0.8260869565217391
 40
0.8260869565217391
 40
0.8695652173913043
 40
0.8695652173913043
 40
0.8695652173913043
 40
0.8695652173913043
 40
0.9130434782608695
 40
0.9130434782608695
 40
0.9130434782608695
 40
0.9130434782608695
 40
1.0
 40
1.0
 40
1.0
 40
1.0
 10
-28.2728
 20
0.8512
 30
0.0
 10
-28.2728
 20
0.8512
 30
0.0
 10
-28.2949
 20
1.1118
 30
0.0
 10
-28.2949
 20
1.1118
 30
0.0
 10
-28.2949
 20
1.1118
 30
0.0
 10
-28.1679
 20
1.1311
 30
0.0
 10
-28.0729
 20
1.1758
 30
0.0
 10
-28.0089
 20
1.2459
 30
0.0
 10
-28.0089
 20
1.2459
 30
0.0
 10
-27.9449
 20
1.3164
 30
0.0
 10
-27.9129
 20
1.4011
 30
0.0
 10
-27.9129
 20
1.5003
 30
0.0
 10
-27.9129
 20
1.5003
 30
0.0
 10
-27.9129
 20
1.6198
 30
0.0
 10
-27.9581
 20
1.7209
 30
0.0
 10
-28.0479
 20
1.8032
 30
0.0
 10
-28.0479
 20
1.8032
 30
0.0
 10
-28.1382
 20
1.886
 30
0.0
 10
-28.2577
 20
1.9274
 30
0.0
 10
-28.4063
 20
1.9274
 30
0.0
 10
-28.4063
 20
1.9274
 30
0.0
 10
-28.5479
 20
1.9274
 30
0.0
 10
-28.6594
 20
1.8879
 30
0.0
 10
-28.7412
 20
1.8084
 30
0.0
 10
-28.7412
 20
1.8084
 30
0.0
 10
-28.8231
 20
1.7289
 30
0.0
 10
-28.864
 20
1.625
 30
0.0
 10
-28.864
 20
1.4961
 30
0.0
 10
-28.864
 20
1.4961
 30
0.0
 10
-28.864
 20
1.4161
 30
0.0
 10
-28.8457
 20
1.3442
 30
0.0
 10
-28.8095
 20
1.2797
 30
0.0
 10
-28.8095
 20
1.2797
 30
0.0
 10
-28.7732
 20
1.2153
 30
0.0
 10
-28.7262
 20
1.165
 30
0.0
 10
-28.6683
 20
1.1283
 30
0.0
 10
-28.6683
 20
1.1283
 30
0.0
 10
-28.6683
 20
1.1283
 30
0.0
 10
-28.6984
 20
0.8954
 30
0.0
 10
-28.6984
 20
0.8954
 30
0.0
 10
-28.6984
 20
0.8954
 30
0.0
 10
-28.6984
 20
0.8954
 30
0.0
 10
-29.7361
 20
1.0911
 30
0.0
 10
-29.7361
 20
1.0911
 30
0.0
 10
-29.7361
 20
1.0911
 30
0.0
 10
-29.7361
 20
1.0911
 30
0.0
 10
-29.7361
 20
2.0958
 30
0.0
 10
-29.7361
 20
2.0958
 30
0.0
 10
-29.7361
 20
2.0958
 30
0.0
 10
-29.7361
 20
2.0958
 30
0.0
 10
-29.499
 20
2.0958
 30
0.0
 10
-29.499
 20
2.0958
 30
0.0
 10
-29.499
 20
2.0958
 30
0.0
 10
-29.499
 20
2.0958
 30
0.0
 10
-29.499
 20
1.2896
 30
0.0
 10
-29.499
 20
1.2896
 30
0.0
 10
-29.499
 20
1.2896
 30
0.0
 10
-29.499
 20
1.2896
 30
0.0
 10
-28.9562
 20
1.1805
 30
0.0
 10
-28.9562
 20
1.1805
 30
0.0
 10
-28.9562
 20
1.1805
 30
0.0
 10
-29.0409
 20
1.3018
 30
0.0
 10
-29.0832
 20
1.4293
 30
0.0
 10
-29.0832
 20
1.5624
 30
0.0
 10
-29.0832
 20
1.5624
 30
0.0
 10
-29.0832
 20
1.7388
 30
0.0
 10
-29.0221
 20
1.8874
 30
0.0
 10
-28.8998
 20
2.0088
 30
0.0
 10
-28.8998
 20
2.0088
 30
0.0
 10
-28.7775
 20
2.1301
 30
0.0
 10
-28.6204
 20
2.1908
 30
0.0
 10
-28.4285
 20
2.1908
 30
0.0
 10
-28.4285
 20
2.1908
 30
0.0
 10
-28.2455
 20
2.1908
 30
0.0
 10
-28.0874
 20
2.1372
 30
0.0
 10
-27.9543
 20
2.0309
 30
0.0
 10
-27.9543
 20
2.0309
 30
0.0
 10
-27.7911
 20
1.9011
 30
0.0
 10
-27.7093
 20
1.7242
 30
0.0
 10
-27.7093
 20
1.5003
 30
0.0
 10
-27.7093
 20
1.5003
 30
0.0
 10
-27.7093
 20
1.3164
 30
0.0
 10
-27.7605
 20
1.1664
 30
0.0
 10
-27.8635
 20
1.0502
 30
0.0
 10
-27.8635
 20
1.0502
 30
0.0
 10
-27.9666
 20
0.934
 30
0.0
 10
-28.103
 20
0.8677
 30
0.0
 10
-28.2728
 20
0.8512
 30
0.0
  0
SPLINE
  5
C6
330
1F
100
AcDbEntity
  8
AXIS
 62
   250
100
AcDbSpline
210
0.0
220
0.0
230
1.0
 70
    11
 71
     3
 72
    92
 73
    88
 74
     0
 42
0.0000000001
 43
0.0000000001
 40
0.0
 40
0.0
 40
0.0
 40
0.0
 40
0.0434782608695652
 40
0.0434782608695652
 40
0.0434782608695652
 40
0.0434782608695652
 40
0.0869565217391304
 40
0.0869565217391304
 40
0.0869565217391304
 40
0.0869565217391304
 40
0.1304347826086956
 40
0.1304347826086956
 40
0.1304347826086956
 40
0.1304347826086956
 40
0.1739130434782609
 40
0.1739130434782609
 40
0.1739130434782609
 40
0.1739130434782609
 40
0.2173913043478261
 40
0.2173913043478261
 40
0.2173913043478261
 40
0.2173913043478261
 40
0.2608695652173913
 40
0.2608695652173913
 40
0.2608695652173913
 40
0.2608695652173913
 40
0.3043478260869565
 40
0.3043478260869565
 40
0.3043478260869565
 40
0.3043478260869565
 40
0.3478260869565217
 40
0.3478260869565217
 40
0.3478260869565217
 40
0.3478260869565217
 40
0.391304347826087
 40
0.391304347826087
 40
0.391304347826087
 40
0.391304347826087
 40
0.4347826086956522
 40
0.4347826086956522
 40
0.4347826086956522
 40
0.4347826086956522
 40
0.4782608695652174
 40
0.4782608695652174
 40
0.4782608695652174
 40
0.4782608695652174
 40
0.5217391304347826
 40
0.5217391304347826
 40
0.5217391304347826
 40
0.5217391304347826
 40
0.5652173913043478
 40
0.5652173913043478
 40
0.5652173913043478
 40
0.5652173913043478
 40
0.6086956521739131
 40
0.6086956521739131
 40
0.6086956521739131
 40
0.6086956521739131
 40
0.6521739130434783
 40
0.6521739130434783
 40
0.6521739130434783
 40
0.6521739130434783
 40
0.6956521739130435
 40
0.6956521739130435
 40
0.6956521739130435
 40
0.6956521739130435
 40
0.7391304347826086
 40
0.7391304347826086
 40
0.7391304347826086
 40
0.7391304347826086
 40
0.782608695652174
 40
0.782608695652174
 40
0.782608695652174
 40
0.782608695652174
 40
0.8260869565217391
 40
0.8260869565217391
 40
0.8260869565217391
 40
0.8260869565217391
 40
0.8695652173913043
 40
0.8695652173913043
 40
0.8695652173913043
 40
0.8695652173913043
 40
0.9130434782608695
 40
0.9130434782608695
 40
0.9130434782608695
 40
0.9130434782608695
 40
1.0
 40
1.0
 40
1.0
 40
1.0
 10
13.0338
 20
-2.7415
 30
0.0
 10
13.0338
 20
-2.7415
 30
0.0
 10
13.0117
 20
-2.503
 30
0.0
 10
13.0117
 20
-2.503
 30
0.0
 10
13.0117
 20
-2.503
 30
0.0
 10
13.1237
 20
-2.4828
 30
0.0
 10
13.205
 20
-2.4442
 30
0.0
 10
13.2558
 20
-2.3873
 30
0.0
 10
13.2558
 20
-2.3873
 30
0.0
 10
13.3062
 20
-2.3304
 30
0.0
 10
13.3316
 20
-2.2575
 30
0.0
 10
13.3316
 20
-2.1681
 30
0.0
 10
13.3316
 20
-2.1681
 30
0.0
 10
13.3316
 20
-2.0919
 30
0.0
 10
13.3142
 20
-2.0252
 30
0.0
 10
13.2789
 20
-1.9678
 30
0.0
 10
13.2789
 20
-1.9678
 30
0.0
 10
13.2441
 20
-1.9104
 30
0.0
 10
13.1975
 20
-1.8633
 30
0.0
 10
13.1392
 20
-1.8267
 30
0.0
 10
13.1392
 20
-1.8267
 30
0.0
 10
13.0809
 20
-1.7895
 30
0.0
 10
13.0018
 20
-1.7589
 30
0.0
 10
12.9031
 20
-1.734
 30
0.0
 10
12.9031
 20
-1.734
 30
0.0
 10
12.8038
 20
-1.7095
 30
0.0
 10
12.7027
 20
-1.6968
 30
0.0
 10
12.5997
 20
-1.6968
 30
0.0
 10
12.5997
 20
-1.6968
 30
0.0
 10
12.5889
 20
-1.6968
 30
0.0
 10
12.5719
 20
-1.6973
 30
0.0
 10
12.5503
 20
-1.6982
 30
0.0
 10
12.5503
 20
-1.6982
 30
0.0
 10
12.6288
 20
-1.7481
 30
0.0
 10
12.6933
 20
-1.8158
 30
0.0
 10
12.7422
 20
-1.9014
 30
0.0
 10
12.7422
 20
-1.9014
 30
0.0
 10
12.7916
 20
-1.9875
 30
0.0
 10
12.816
 20
-2.0807
 30
0.0
 10
12.816
 20
-2.1804
 30
0.0
 10
12.816
 20
-2.1804
 30
0.0
 10
12.816
 20
-2.3478
 30
0.0
 10
12.7554
 20
-2.4894
 30
0.0
 10
12.634
 20
-2.6051
 30
0.0
 10
12.634
 20
-2.6051
 30
0.0
 10
12.5127
 20
-2.7208
 30
0.0
 10
12.3532
 20
-2.7787
 30
0.0
 10
12.1547
 20
-2.7787
 30
0.0
 10
12.1547
 20
-2.7787
 30
0.0
 10
11.9496
 20
-2.7787
 30
0.0
 10
11.785
 20
-2.7185
 30
0.0
 10
11.6599
 20
-2.5976
 30
0.0
 10
11.6599
 20
-2.5976
 30
0.0
 10
11.5348
 20
-2.4767
 30
0.0
 10
11.4722
 20
-2.3252
 30
0.0
 10
11.4722
 20
-2.1432
 30
0.0
 10
11.4722
 20
-2.1432
 30
0.0
 10
11.4722
 20
-2.012
 30
0.0
 10
11.508
 20
-1.892
 30
0.0
 10
11.5785
 20
-1.7829
 30
0.0
 10
11.5785
 20
-1.7829
 30
0.0
 10
11.6491
 20
-1.6743
 30
0.0
 10
11.7502
 20
-1.5915
 30
0.0
 10
11.881
 20
-1.535
 30
0.0
 10
11.881
 20
-1.535
 30
0.0
 10
12.0117
 20
-1.4786
 30
0.0
 10
12.2013
 20
-1.4504
 30
0.0
 10
12.4496
 20
-1.4504
 30
0.0
 10
12.4496
 20
-1.4504
 30
0.0
 10
12.7074
 20
-1.4504
 30
0.0
 10
12.9129
 20
-1.4781
 30
0.0
 10
13.0663
 20
-1.5341
 30
0.0
 10
13.0663
 20
-1.5341
 30
0.0
 10
13.2192
 20
-1.5905
 30
0.0
 10
13.3353
 20
-1.6738
 30
0.0
 10
13.4153
 20
-1.7843
 30
0.0
 10
13.4153
 20
-1.7843
 30
0.0
 10
13.4953
 20
-1.8953
 30
0.0
 10
13.5352
 20
-2.0247
 30
0.0
 10
13.5352
 20
-2.1738
 30
0.0
 10
13.5352
 20
-2.1738
 30
0.0
 10
13.5352
 20
-2.3318
 30
0.0
 10
13.4915
 20
-2.4607
 30
0.0
 10
13.4035
 20
-2.5609
 30
0.0
 10
13.4035
 20
-2.5609
 30
0.0
 10
13.316
 20
-2.6611
 30
0.0
 10
13.1928
 20
-2.7213
 30
0.0
 10
13.0338
 20
-2.7415
 30
0.0
  0
SPLINE
  5
C7
330
1F
100
AcDbEntity
  8
AXIS
 62
   250
100
AcDbSpline
210
0.0
220
0.0
230
1.0
 70
    11
 71
     3
 72
    36
 73
    32
 74
     0
 42
0.0000000001
 43
0.0000000001
 40
0.0
 40
0.0
 40
0.0
 40
0.0
 40
0.1111111111111111
 40
0.1111111111111111
 40
0.1111111111111111
 40
0.1111111111111111
 40
0.2222222222222222
 40
0.2222222222222222
 40
0.2222222222222222
 40
0.2222222222222222
 40
0.3333333333333333
 40
0.3333333333333333
 40
0.3333333333333333
 40
0.3333333333333333
 40
0.4444444444444444
 40
0.4444444444444444
 40
0.4444444444444444
 40
0.4444444444444444
 40
0.5555555555555556
 40
0.5555555555555556
 40
0.5555555555555556
 40
0.5555555555555556
 40
0.6666666666666666
 40
0.6666666666666666
 40
0.6666666666666666
 40
0.6666666666666666
 40
0.7777777777777778
 40
0.7777777777777778
 40
0.7777777777777778
 40
0.7777777777777778
 40
1.0
 40
1.0
 40
1.0
 40
1.0
 10
12.142
 20
-1.726
 30
0.0
 10
12.0
 20
-1.726
 30
0.0
 10
11.8866
 20
-1.7636
 30
0.0
 10
11.8033
 20
-1.8394
 30
0.0
 10
11.8033
 20
-1.8394
 30
0.0
 10
11.7196
 20
-1.9156
 30
0.0
 10
11.6778
 20
-2.0063
 30
0.0
 10
11.6778
 20
-2.1131
 30
0.0
 10
11.6778
 20
-2.1131
 30
0.0
 10
11.6778
 20
-2.2232
 30
0.0
 10
11.7229
 20
-2.3191
 30
0.0
 10
11.8128
 20
-2.401
 30
0.0
 10
11.8128
 20
-2.401
 30
0.0
 10
11.9031
 20
-2.4828
 30
0.0
 10
12.0197
 20
-2.5237
 30
0.0
 10
12.1627
 20
-2.5237
 30
0.0
 10
12.1627
 20
-2.5237
 30
0.0
 10
12.2916
 20
-2.5237
 30
0.0
 10
12.396
 20
-2.4847
 30
0.0
 10
12.4764
 20
-2.4071
 30
0.0
 10
12.4764
 20
-2.4071
 30
0.0
 10
12.5569
 20
-2.3295
 30
0.0
 10
12.5969
 20
-2.234
 30
0.0
 10
12.5969
 20
-2.1202
 30
0.0
 10
12.5969
 20
-2.1202
 30
0.0
 10
12.5969
 20
-2.0049
 30
0.0
 10
12.5569
 20
-1.9109
 30
0.0
 10
12.4764
 20
-1.837
 30
0.0
 10
12.4764
 20
-1.837
 30
0.0
 10
12.396
 20
-1.7627
 30
0.0
 10
12.2845
 20
-1.726
 30
0.0
 10
12.142
 20
-1.726
 30
0.0
  0
SPLINE
  5
C8
330
1F
100
AcDbEntity
  8
AXIS
 62
   250
100
AcDbSpline
210
0.0
220
0.0
230
1.0
 70
    11
 71
     3
 72
    80
 73
    76
 74
     0
 42
0.0000000001
 43
0.0000000001
 40
0.0
 40
0.0
 40
0.0
 40
0.0
 40
0.05
 40
0.05
 40
0.05
 40
0.05
 40
0.1
 40
0.1
 40
0.1
 40
0.1
 40
0.15
 40
0.15
 40
0.15
 40
0.15
 40
0.2
 40
0.2
 40
0.2
 40
0.2
 40
0.25
 40
0.25
 40
0.25
 40
0.25
 40
0.3
 40
0.3
 40
0.3
 40
0.3
 40
0.35
 40
0.35
 40
0.35
 40
0.35
 40
0.4
 40
0.4
 40
0.4
 40
0.4
 40
0.45
 40
0.45
 40
0.45
 40
0.45
 40
0.5
 40
0.5
 40
0.5
 40
0.5
 40
0.55
 40
0.55
 40
0.55
 40
0.55
 40
0.6
 40
0.6
 40
0.6
 40
0.6
 40
0.65
 40
0.65
 40
0.65
 40
0.65
 40
0.7
 40
0.7
 40
0.7
 40
0.7
 40
0.75
 40
0.75
 40
0.75
 40
0.75
 40
0.8
 40
0.8
 40
0.8
 40
0.8
 40
0.85
 40
0.85
 40
0.85
 40
0.85
 40
0.9
 40
0.9
 40
0.9
 40
0.9
 40
1.0
 40
1.0
 40
1.0
 40
1.0
 10
11.9755
 20
0.0778
 30
0.0
 10
11.9755
 20
0.0778
 30
0.0
 10
11.9948
 20
-0.1686
 30
0.0
 10
11.9948
 20
-0.1686
 30
0.0
 10
11.9948
 20
-0.1686
 30
0.0
 10
11.8974
 20
-0.1907
 30
0.0
 10
11.8264
 20
-0.2218
 30
0.0
 10
11.7827
 20
-0.2622
 30
0.0
 10
11.7827
 20
-0.2622
 30
0.0
 10
11.7116
 20
-0.3295
 30
0.0
 10
11.6763
 20
-0.4123
 30
0.0
 10
11.6763
 20
-0.5106
 30
0.0
 10
11.6763
 20
-0.5106
 30
0.0
 10
11.6763
 20
-0.5896
 30
0.0
 10
11.6985
 20
-0.6587
 30
0.0
 10
11.7427
 20
-0.7185
 30
0.0
 10
11.7427
 20
-0.7185
 30
0.0
 10
11.7996
 20
-0.7966
 30
0.0
 10
11.8828
 20
-0.8582
 30
0.0
 10
11.992
 20
-0.9033
 30
0.0
 10
11.992
 20
-0.9033
 30
0.0
 10
12.1011
 20
-0.948
 30
0.0
 10
12.2568
 20
-0.9715
 30
0.0
 10
12.459
 20
-0.9734
 30
0.0
 10
12.459
 20
-0.9734
 30
0.0
 10
12.3683
 20
-0.9137
 30
0.0
 10
12.3005
 20
-0.8408
 30
0.0
 10
12.2563
 20
-0.7542
 30
0.0
 10
12.2563
 20
-0.7542
 30
0.0
 10
12.2126
 20
-0.6682
 30
0.0
 10
12.1905
 20
-0.5774
 30
0.0
 10
12.1905
 20
-0.4828
 30
0.0
 10
12.1905
 20
-0.4828
 30
0.0
 10
12.1905
 20
-0.3173
 30
0.0
 10
12.2511
 20
-0.1766
 30
0.0
 10
12.373
 20
-0.0604
 30
0.0
 10
12.373
 20
-0.0604
 30
0.0
 10
12.4948
 20
0.0557
 30
0.0
 10
12.6519
 20
0.1141
 30
0.0
 10
12.8447
 20
0.1141
 30
0.0
 10
12.8447
 20
0.1141
 30
0.0
 10
12.9717
 20
0.1141
 30
0.0
 10
13.0893
 20
0.0863
 30
0.0
 10
13.1985
 20
0.0317
 30
0.0
 10
13.1985
 20
0.0317
 30
0.0
 10
13.3071
 20
-0.0228
 30
0.0
 10
13.3908
 20
-0.0981
 30
0.0
 10
13.4487
 20
-0.1936
 30
0.0
 10
13.4487
 20
-0.1936
 30
0.0
 10
13.5065
 20
-0.289
 30
0.0
 10
13.5352
 20
-0.3972
 30
0.0
 10
13.5352
 20
-0.5186
 30
0.0
 10
13.5352
 20
-0.5186
 30
0.0
 10
13.5352
 20
-0.7255
 30
0.0
 10
13.4595
 20
-0.8939
 30
0.0
 10
13.3071
 20
-1.0242
 30
0.0
 10
13.3071
 20
-1.0242
 30
0.0
 10
13.1552
 20
-1.155
 30
0.0
 10
12.9045
 20
-1.2199
 30
0.0
 10
12.5555
 20
-1.2199
 30
0.0
 10
12.5555
 20
-1.2199
 30
0.0
 10
12.1651
 20
-1.2199
 30
0.0
 10
11.8814
 20
-1.1479
 30
0.0
 10
11.7041
 20
-1.0035
 30
0.0
 10
11.7041
 20
-1.0035
 30
0.0
 10
11.5498
 20
-0.8779
 30
0.0
 10
11.4722
 20
-0.7086
 30
0.0
 10
11.4722
 20
-0.4951
 30
0.0
 10
11.4722
 20
-0.4951
 30
0.0
 10
11.4722
 20
-0.3365
 30
0.0
 10
11.5169
 20
-0.2063
 30
0.0
 10
11.6063
 20
-0.1047
 30
0.0
 10
11.6063
 20
-0.1047
 30
0.0
 10
11.6952
 20
-0.0031
 30
0.0
 10
11.8184
 20
0.0576
 30
0.0
 10
11.9755
 20
0.0778
 30
0.0
  0
SPLINE
  5
C9
330
1F
100
AcDbEntity
  8
AXIS
 62
   250
100
AcDbSpline
210
0.0
220
0.0
230
1.0
 70
    11
 71
     3
 72
    40
 73
    36
 74
     0
 42
0.0000000001
 43
0.0000000001
 40
0.0
 40
0.0
 40
0.0
 40
0.0
 40
0.1
 40
0.1
 40
0.1
 40
0.1
 40
0.2
 40
0.2
 40
0.2
 40
0.2
 40
0.3
 40
0.3
 40
0.3
 40
0.3
 40
0.4
 40
0.4
 40
0.4
 40
0.4
 40
0.5
 40
0.5
 40
0.5
 40
0.5
 40
0.6
 40
0.6
 40
0.6
 40
0.6
 40
0.7
 40
0.7
 40
0.7
 40
0.7
 40
0.8
 40
0.8
 40
0.8
 40
0.8
 40
1.0
 40
1.0
 40
1.0
 40
1.0
 10
12.8461
 20
-0.9349
 30
0.0
 10
12.9318
 20
-0.9349
 30
0.0
 10
13.0136
 20
-0.9165
 30
0.0
 10
13.0917
 20
-0.8803
 30
0.0
 10
13.0917
 20
-0.8803
 30
0.0
 10
13.1698
 20
-0.8441
 30
0.0
 10
13.229
 20
-0.7933
 30
0.0
 10
13.2699
 20
-0.7284
 30
0.0
 10
13.2699
 20
-0.7284
 30
0.0
 10
13.3109
 20
-0.663
 30
0.0
 10
13.3316
 20
-0.5943
 30
0.0
 10
13.3316
 20
-0.5228
 30
0.0
 10
13.3316
 20
-0.5228
 30
0.0
 10
13.3316
 20
-0.4179
 30
0.0
 10
13.2892
 20
-0.3281
 30
0.0
 10
13.2046
 20
-0.2528
 30
0.0
 10
13.2046
 20
-0.2528
 30
0.0
 10
13.1199
 20
-0.1776
 30
0.0
 10
13.0051
 20
-0.1399
 30
0.0
 10
12.8603
 20
-0.1399
 30
0.0
 10
12.8603
 20
-0.1399
 30
0.0
 10
12.7206
 20
-0.1399
 30
0.0
 10
12.6105
 20
-0.1771
 30
0.0
 10
12.5301
 20
-0.2514
 30
0.0
 10
12.5301
 20
-0.2514
 30
0.0
 10
12.4496
 20
-0.3257
 30
0.0
 10
12.4096
 20
-0.4193
 30
0.0
 10
12.4096
 20
-0.5322
 30
0.0
 10
12.4096
 20
-0.5322
 30
0.0
 10
12.4096
 20
-0.6446
 30
0.0
 10
12.4496
 20
-0.7397
 30
0.0
 10
12.5301
 20
-0.8177
 30
0.0
 10
12.5301
 20
-0.8177
 30
0.0
 10
12.6105
 20
-0.8958
 30
0.0
 10
12.7159
 20
-0.9349
 30
0.0
 10
12.8461
 20
-0.9349
 30
0.0
  0
ENDSEC
  0
SECTION
  2
OBJECTS
  0
DICTIONARY
  5
C
330
0
100
AcDbDictionary
  3
ACAD_GROUP
350
D
  3
ACAD_LAYOUT
350
1A
  3
ACAD_MATERIAL
350
3B
  3
ACAD_MLEADERSTYLE
350
EC
  3
ACAD_MLINESTYLE
350
17
  3
ACAD_PLOTSETTINGS
350
19
  3
ACAD_VISUALSTYLE
350
2A
  3
ACDBHEADERROUNDTRIPXREC
350
CA
  3
ACDBVARIABLEDICTIONARY
350
EA
  0
DICTIONARY
  5
D
102
{ACAD_REACTORS
330
C
102
}
330
C
100
AcDbDictionary
  0
DICTIONARY
  5
1A
102
{ACAD_REACTORS
330
C
102
}
330
C
100
AcDbDictionary
  0
DICTIONARY
  5
3B
102
{ACAD_REACTORS
330
C
102
}
330
C
100
AcDbDictionary
  3
BYBLOCK
350
3D
  3
BYLAYER
350
3C
  3
GLOBAL
350
3E
  0
DICTIONARY
  5
EC
102
{ACAD_REACTORS
330
C
102
}
330
C
100
AcDbDictionary
  0
DICTIONARY
  5
17
102
{ACAD_REACTORS
330
C
102
}
330
C
100
AcDbDictionary
  3
STANDARD
350
18
  0
DICTIONARY
  5
19
102
{ACAD_REACTORS
330
C
102
}
330
C
100
AcDbDictionary
  0
DICTIONARY
  5
2A
102
{ACAD_REACTORS
330
C
102
}
330
C
100
AcDbDictionary
  3
2DWIREFRAME
350
2F
  3
3D_HIDDEN
350
31
  3
3DWIREFRAME
350
30
  3
BASIC
350
32
  3
BRIGHTEN
350
36
  3
COLORCHANGE
350
3A
  3
CONCEPTUAL
350
34
  3
DIM
350
35
  3
FACEPATTERN
350
39
  3
FLAT
350
2B
  3
FLATWITHEDGES
350
2C
  3
GOURAUD
350
2D
  3
GOURAUDWITHEDGES
350
2E
  3
LINEPATTERN
350
38
  3
REALISTIC
350
33
  3
THICKEN
350
37
  0
DICTIONARY
  5
CA
102
{ACAD_REACTORS
330
C
102
}
330
C
100
AcDbDictionary
  3
CEPSNTYPE
350
D3
  3
DIMSTYLEDATA
350
E9
  3
FINGERPRINTGUID
350
D4
  3
HYPERLINKBASE
350
CD
  3
INSUNITS
350
D2
  3
LAYOUTDICT
350
CF
  3
LWETCUNION
350
D1
  3
PLOTSETDICT
350
D0
  3
PSVPSCALE
350
D6
  3
PUCSBASE
350
D9
  3
PUCSORGBACK
350
DF
  3
PUCSORGBOTTOM
350
DB
  3
PUCSORGFRONT
350
DE
  3
PUCSORGLEFT
350
DC
  3
PUCSORGRIGHT
350
DD
  3
PUCSORGTOP
350
DA
  3
PUCSORTHOREF
350
D7
  3
PUCSORTHOVIEW
350
D8
  3
STYLESHEET
350
CE
  3
TSTACKALIGN
350
CB
  3
TSTACKSIZE
350
CC
  3
UCSBASE
350
E2
  3
UCSORGBACK
350
E8
  3
UCSORGBOTTOM
350
E4
  3
UCSORGFRONT
350
E7
  3
UCSORGLEFT
350
E5
  3
UCSORGRIGHT
350
E6
  3
UCSORGTOP
350
E3
  3
UCSORTHOREF
350
E0
  3
UCSORTHOVIEW
350
E1
  3
VERSIONGUID
350
D5
  0
DICTIONARY
  5
EA
102
{ACAD_REACTORS
330
C
102
}
330
C
100
AcDbDictionary
  3
DIMASSOC
350
ED
  3
HIDETEXT
350
EE
  0
MATERIAL
  5
3D
102
{ACAD_REACTORS
330
3B
102
}
102
{ACAD_XDICTIONARY
360
F1
102
}
330
3B
100
AcDbMaterial
  1
ByBlock
  0
MATERIAL
  5
3C
102
{ACAD_REACTORS
330
3B
102
}
102
{ACAD_XDICTIONARY
360
EF
102
}
330
3B
100
AcDbMaterial
  1
ByLayer
  0
MATERIAL
  5
3E
102
{ACAD_REACTORS
330
3B
102
}
102
{ACAD_XDICTIONARY
360
F3
102
}
330
3B
100
AcDbMaterial
  1
Global
  0
MLINESTYLE
  5
18
102
{ACAD_REACTORS
330
17
102
}
330
17
100
AcDbMlineStyle
  2
Standard
 70
     0
  3

 62
   256
 51
90.0
 52
90.0
 71
     2
 49
0.5
 62
   256
  6
BYLAYER
 49
-0.5
 62
   256
  6
BYLAYER
  0
ACAD_PROXY_OBJECT
  5
2F
102
{ACAD_REACTORS
330
2A
102
}
330
2A
100
AcDbProxyObject
 90
      499
 91
      501
 93
      436
310
42CC9915DA5C99599C985B595049028333333333333E3BF0000000000000FB0107901411070040501600405405064090741402480A0340
1001
ACAD
1000
AcDbSavedByObjectVersion
1070
     0
  0
ACAD_PROXY_OBJECT
  5
31
102
{ACAD_REACTORS
330
2A
102
}
330
2A
100
AcDbProxyObject
 90
      499
 91
      501
 93
      500
310
424CD108121A5919195B90640502408333333333333E3BF0000000000000FB01079024090700405020000000000001110200405405064090740C02480A0340
1001
ACAD
1000
AcDbSavedByObjectVersion
1070
     0
  0
ACAD_PROXY_OBJECT
  5
30
102
{ACAD_REACTORS
330
2A
102
}
330
2A
100
AcDbProxyObject
 90
      499
 91
      501
 93
      436
310
42CCD915DA5C99599C985B595059028333333333333E3BF0000000000000FB0107901411070040501600405405064090741402480A0340
1001
ACAD
1000
AcDbSavedByObjectVersion
1070
     0
  0
ACAD_PROXY_OBJECT
  5
32
102
{ACAD_REACTORS
330
2A
102
}
330
2A
100
AcDbProxyObject
 90
      499
 91
      501
 93
      388
310
4150985CDA58D07406404333333333333E3BF0000000000000FB0107A41107004050150841D405064090741402480A0350
1001
ACAD
1000
AcDbSavedByObjectVersion
1070
     0
  0
ACAD_PROXY_OBJECT
  5
36
102
{ACAD_REACTORS
330
2A
102
}
330
2A
100
AcDbProxyObject
 90
      499
 91
      501
 93
      428
310
42109C9A59DA1D195B90C409028333333333333E3BF0000000000000FB010790141107004050150841D405064090741402480A029950
1001
ACAD
1000
AcDbSavedByObjectVersion
1070
     0
  0
ACAD_PROXY_OBJECT
  5
3A
102
{ACAD_REACTORS
330
2A
102
}
330
2A
100
AcDbProxyObject
 90
      499
 91
      501
 93
      452
310
42D0DBDB1BDC90DA185B99D95104090240C333333333333E3BF0000000000000FB0108901411070040501508421405064090741402480A0350
1001
ACAD
1000
AcDbSavedByObjectVersion
1070
     0
  0
ACAD_PROXY_OBJECT
  5
34
102
{ACAD_REACTORS
330
2A
102
}
330
2A
100
AcDbProxyObject
 90
      499
 91
      501
 93
      500
310
4290DBDB98D95C1D1D585B10940D028333333333333E3BF0000000000000FB0107902409070040501000000000000111010841D405064090740C02480A0340
1001
ACAD
1000
AcDbSavedByObjectVersion
1070
     0
  0
ACAD_PROXY_OBJECT
  5
35
102
{ACAD_REACTORS
330
2A
102
}
330
2A
100
AcDbProxyObject
 90
      499
 91
      501
 93
      412
310
40D11A5B50B409028333333333333E3BF0000000000000FB010790141107004050150841D405064090741402480A02677FFFFFD0
1001
ACAD
1000
AcDbSavedByObjectVersion
1070
     0
  0
ACAD_PROXY_OBJECT
  5
39
102
{ACAD_REACTORS
330
2A
102
}
330
2A
100
AcDbProxyObject
 90
      499
 91
      501
 93
      444
310
42D19858D95C185D1D195C9B90F409028333333333333E3BF0000000000000FB010790141107004050150841D405064090741402480A0350
1001
ACAD
1000
AcDbSavedByObjectVersion
1070
     0
  0
ACAD_PROXY_OBJECT
  5
2B
102
{ACAD_REACTORS
330
2A
102
}
330
2A
100
AcDbProxyObject
 90
      499
 91
      501
 93
      388
310
41119B185D240901404333333333333E3BF0000000000000F9010740A41107004050150841D405064090741402480A1B50
1001
ACAD
1000
AcDbSavedByObjectVersion
1070
     0
  0
ACAD_PROXY_OBJECT
  5
2C
102
{ACAD_REACTORS
330
2A
102
}
330
2A
100
AcDbProxyObject
 90
      499
 91
      501
 93
      476
310
43519B185D15DA5D1A115919D95CD0140901404333333333333E3BF0000000000000F9010740901411070040501600405405064090741402480A1B50
1001
ACAD
1000
AcDbSavedByObjectVersion
1070
     0
  0
ACAD_PROXY_OBJECT
  5
2D
102
{ACAD_REACTORS
330
2A
102
}
330
2A
100
AcDbProxyObject
 90
      499
 91
      501
 93
      412
310
41D1DBDD5C985D5910240902404333333333333E3BF0000000000000F9010740A411070040501641D405064090741402480A1B50
1001
ACAD
1000
AcDbSavedByObjectVersion
1070
     0
  0
ACAD_PROXY_OBJECT
  5
2E
102
{ACAD_REACTORS
330
2A
102
}
330
2A
100
AcDbProxyObject
 90
      499
 91
      501
 93
      500
310
4411DBDD5C985D5915DA5D1A115919D95CD0340902404333333333333E3BF0000000000000F9010740901411070040501600405405064090741402480A1B50
1001
ACAD
1000
AcDbSavedByObjectVersion
1070
     0
  0
ACAD_PROXY_OBJECT
  5
38
102
{ACAD_REACTORS
330
2A
102
}
330
2A
100
AcDbProxyObject
 90
      499
 91
      501
 93
      444
310
42D31A5B995C185D1D195C9B90E409028333333333333E3BF0000000000000FB010790141107004050750841D405064090741402483A0350
1001
ACAD
1000
AcDbSavedByObjectVersion
1070
     0
  0
ACAD_PROXY_OBJECT
  5
33
102
{ACAD_REACTORS
330
2A
102
}
330
2A
100
AcDbProxyObject
 90
      499
 91
      501
 93
      420
310
425499585B1A5CDD1A58D08409028333333333333E3BF0000000000000FB01079019070040501508421405064090741402480A1B40
1001
ACAD
1000
AcDbSavedByObjectVersion
1070
     0
  0
ACAD_PROXY_OBJECT
  5
37
102
{ACAD_REACTORS
330
2A
102
}
330
2A
100
AcDbProxyObject
 90
      499
 91
      501
 93
      412
310
41D51A1A58DAD95B90D409028333333333333E3BF0000000000000FB010790141107004050150C41D405064090741402480A0350
1001
ACAD
1000
AcDbSavedByObjectVersion
1070
     0
  0
XRECORD
  5
D3
102
{ACAD_REACTORS
330
CA
102
}
330
CA
100
AcDbXrecord
 90
        0
  0
XRECORD
  5
E9
102
{ACAD_REACTORS
330
CA
102
}
330
CA
100
AcDbXrecord
1000
DSTYLE
1002
{
1070
   340
340
11
1002
}
  0
XRECORD
  5
D4
102
{ACAD_REACTORS
330
CA
102
}
330
CA
100
AcDbXrecord
  1
{02B3A2F2-777A-4312-A378-BE0146B73CF0}
  0
XRECORD
  5
CD
102
{ACAD_REACTORS
330
CA
102
}
330
CA
100
AcDbXrecord
  1

  0
XRECORD
  5
D2
102
{ACAD_REACTORS
330
CA
102
}
330
CA
100
AcDbXrecord
 90
        4
  0
XRECORD
  5
CF
102
{ACAD_REACTORS
330
CA
102
}
330
CA
100
AcDbXrecord
340
1A
  0
XRECORD
  5
D1
102
{ACAD_REACTORS
330
CA
102
}
330
CA
100
AcDbXrecord
 90
    10781
  0
XRECORD
  5
D0
102
{ACAD_REACTORS
330
CA
102
}
330
CA
100
AcDbXrecord
340
19
  0
XRECORD
  5
D6
102
{ACAD_REACTORS
330
CA
102
}
330
CA
100
AcDbXrecord
 40
0.0
  0
XRECORD
  5
D9
102
{ACAD_REACTORS
330
CA
102
}
330
CA
100
AcDbXrecord
340
0
  0
XRECORD
  5
DF
102
{ACAD_REACTORS
330
CA
102
}
330
CA
100
AcDbXrecord
 10
0.0
 20
0.0
 30
0.0
  0
XRECORD
  5
DB
102
{ACAD_REACTORS
330
CA
102
}
330
CA
100
AcDbXrecord
 10
0.0
 20
0.0
 30
0.0
  0
XRECORD
  5
DE
102
{ACAD_REACTORS
330
CA
102
}
330
CA
100
AcDbXrecord
 10
0.0
 20
0.0
 30
0.0
  0
XRECORD
  5
DC
102
{ACAD_REACTORS
330
CA
102
}
330
CA
100
AcDbXrecord
 10
0.0
 20
0.0
 30
0.0
  0
XRECORD
  5
DD
102
{ACAD_REACTORS
330
CA
102
}
330
CA
100
AcDbXrecord
 10
0.0
 20
0.0
 30
0.0
  0
XRECORD
  5
DA
102
{ACAD_REACTORS
330
CA
102
}
330
CA
100
AcDbXrecord
 10
0.0
 20
0.0
 30
0.0
  0
XRECORD
  5
D7
102
{ACAD_REACTORS
330
CA
102
}
330
CA
100
AcDbXrecord
340
0
  0
XRECORD
  5
D8
102
{ACAD_REACTORS
330
CA
102
}
330
CA
100
AcDbXrecord
 70
     0
  0
XRECORD
  5
CE
102
{ACAD_REACTORS
330
CA
102
}
330
CA
100
AcDbXrecord
  1

  0
XRECORD
  5
CB
102
{ACAD_REACTORS
330
CA
102
}
330
CA
100
AcDbXrecord
 90
        1
  0
XRECORD
  5
CC
102
{ACAD_REACTORS
330
CA
102
}
330
CA
100
AcDbXrecord
 90
       70
  0
XRECORD
  5
E2
102
{ACAD_REACTORS
330
CA
102
}
330
CA
100
AcDbXrecord
340
0
  0
XRECORD
  5
E8
102
{ACAD_REACTORS
330
CA
102
}
330
CA
100
AcDbXrecord
 10
0.0
 20
0.0
 30
0.0
  0
XRECORD
  5
E4
102
{ACAD_REACTORS
330
CA
102
}
330
CA
100
AcDbXrecord
 10
0.0
 20
0.0
 30
0.0
  0
XRECORD
  5
E7
102
{ACAD_REACTORS
330
CA
102
}
330
CA
100
AcDbXrecord
 10
0.0
 20
0.0
 30
0.0
  0
XRECORD
  5
E5
102
{ACAD_REACTORS
330
CA
102
}
330
CA
100
AcDbXrecord
 10
0.0
 20
0.0
 30
0.0
  0
XRECORD
  5
E6
102
{ACAD_REACTORS
330
CA
102
}
330
CA
100
AcDbXrecord
 10
0.0
 20
0.0
 30
0.0
  0
XRECORD
  5
E3
102
{ACAD_REACTORS
330
CA
102
}
330
CA
100
AcDbXrecord
 10
0.0
 20
0.0
 30
0.0
  0
XRECORD
  5
E0
102
{ACAD_REACTORS
330
CA
102
}
330
CA
100
AcDbXrecord
340
0
  0
XRECORD
  5
E1
102
{ACAD_REACTORS
330
CA
102
}
330
CA
100
AcDbXrecord
 70
     0
  0
XRECORD
  5
D5
102
{ACAD_REACTORS
330
CA
102
}
330
CA
100
AcDbXrecord
  1
{FAEB1C32-E019-11D5-929B-00C0DF256EC4}
  0
DICTIONARYVAR
  5
ED
102
{ACAD_REACTORS
330
EA
102
}
330
EA
100
DictionaryVariables
280
     0
  1
2
  0
DICTIONARYVAR
  5
EE
102
{ACAD_REACTORS
330
EA
102
}
330
EA
100
DictionaryVariables
280
     0
  1
1
  0
DICTIONARY
  5
F1
330
3D
100
AcDbDictionary
280
     1
  3
ACAD_XREC_ROUNDTRIP
360
F2
  0
DICTIONARY
  5
EF
330
3C
100
AcDbDictionary
280
     1
  3
ACAD_XREC_ROUNDTRIP
360
F0
  0
DICTIONARY
  5
F3
330
3E
100
AcDbDictionary
280
     1
  3
ACAD_XREC_ROUNDTRIP
360
F4
  0
XRECORD
  5
F2
102
{ACAD_REACTORS
330
F1
102
}
330
F1
100
AcDbXrecord
102
MATERIAL
148
0.0
149
0.0
149
0.0
 93
        0
 94
      127
282
     0
 72
     1
 77
     1
171
     1
175
     1
179
     1
273
     0
  0
XRECORD
  5
F0
102
{ACAD_REACTORS
330
EF
102
}
330
EF
100
AcDbXrecord
102
MATERIAL
148
0.0
149
0.0
149
0.0
 93
        0
 94
      127
282
     0
 72
     1
 77
     1
171
     1
175
     1
179
     1
273
     0
  0
XRECORD
  5
F4
102
{ACAD_REACTORS
330
F3
102
}
330
F3
100
AcDbXrecord
102
MATERIAL
148
0.0
149
0.0
149
0.0
 93
        0
 94
      127
282
     0
 72
     1
 77
     1
171
     1
175
     1
179
     1
273
     0
  0
ENDSEC
  0
EOF
