  0
SECTION
  2
HEADER
  9
$ACADVER
  1
AC1015
  9
$ACADMAINTVER
 70
     6
  9
$DWGCODEPAGE
  3
ANSI_1250
  9
$INSBASE
 10
0.0
 20
0.0
 30
0.0
  9
$EXTMIN
 10
-57.2631
 20
-36.6356
 30
0.0
  9
$EXTMAX
 10
57.1622
 20
36.6855
 30
0.0
  9
$LIMMIN
 10
0.0
 20
0.0
  9
$LIMMAX
 10
12.0
 20
9.0
  9
$ORTHOMODE
 70
     0
  9
$REGENMODE
 70
     1
  9
$FILLMODE
 70
     1
  9
$QTEXTMODE
 70
     0
  9
$MIRRTEXT
 70
     1
  9
$LTSCALE
 40
1.0
  9
$ATTMODE
 70
     1
  9
$TEXTSIZE
 40
0.2
  9
$TRACEWID
 40
0.05
  9
$TEXTSTYLE
  7
Standard
  9
$CLAYER
  8
0
  9
$CELTYPE
  6
ByLayer
  9
$CECOLOR
 62
   256
  9
$CELTSCALE
 40
1.0
  9
$DISPSILH
 70
     0
  9
$DIMSCALE
 40
1.0
  9
$DIMASZ
 40
0.18
  9
$DIMEXO
 40
0.0625
  9
$DIMDLI
 40
0.38
  9
$DIMRND
 40
0.0
  9
$DIMDLE
 40
0.0
  9
$DIMEXE
 40
0.18
  9
$DIMTP
 40
0.0
  9
$DIMTM
 40
0.0
  9
$DIMTXT
 40
0.18
  9
$DIMCEN
 40
0.09
  9
$DIMTSZ
 40
0.0
  9
$DIMTOL
 70
     0
  9
$DIMLIM
 70
     0
  9
$DIMTIH
 70
     1
  9
$DIMTOH
 70
     1
  9
$DIMSE1
 70
     0
  9
$DIMSE2
 70
     0
  9
$DIMTAD
 70
     0
  9
$DIMZIN
 70
     0
  9
$DIMBLK
  1

  9
$DIMASO
 70
     1
  9
$DIMSHO
 70
     1
  9
$DIMPOST
  1

  9
$DIMAPOST
  1

  9
$DIMALT
 70
     0
  9
$DIMALTD
 70
     2
  9
$DIMALTF
 40
25.4
  9
$DIMLFAC
 40
1.0
  9
$DIMTOFL
 70
     0
  9
$DIMTVP
 40
0.0
  9
$DIMTIX
 70
     0
  9
$DIMSOXD
 70
     0
  9
$DIMSAH
 70
     0
  9
$DIMBLK1
  1

  9
$DIMBLK2
  1

  9
$DIMSTYLE
  2
Standard
  9
$DIMCLRD
 70
     0
  9
$DIMCLRE
 70
     0
  9
$DIMCLRT
 70
     0
  9
$DIMTFAC
 40
1.0
  9
$DIMGAP
 40
0.09
  9
$DIMJUST
 70
     0
  9
$DIMSD1
 70
     0
  9
$DIMSD2
 70
     0
  9
$DIMTOLJ
 70
     1
  9
$DIMTZIN
 70
     0
  9
$DIMALTZ
 70
     0
  9
$DIMALTTZ
 70
     0
  9
$DIMUPT
 70
     0
  9
$DIMDEC
 70
     4
  9
$DIMTDEC
 70
     4
  9
$DIMALTU
 70
     2
  9
$DIMALTTD
 70
     2
  9
$DIMTXSTY
  7
Standard
  9
$DIMAUNIT
 70
     0
  9
$DIMADEC
 70
     0
  9
$DIMALTRND
 40
0.0
  9
$DIMAZIN
 70
     0
  9
$DIMDSEP
 70
    46
  9
$DIMATFIT
 70
     3
  9
$DIMFRAC
 70
     0
  9
$DIMLDRBLK
  1

  9
$DIMLUNIT
 70
     2
  9
$DIMLWD
 70
    -2
  9
$DIMLWE
 70
    -2
  9
$DIMTMOVE
 70
     0
  9
$LUNITS
 70
     2
  9
$LUPREC
 70
     4
  9
$SKETCHINC
 40
0.1
  9
$FILLETRAD
 40
0.5
  9
$AUNITS
 70
     0
  9
$AUPREC
 70
     0
  9
$MENU
  1
.
  9
$ELEVATION
 40
0.0
  9
$PELEVATION
 40
0.0
  9
$THICKNESS
 40
0.0
  9
$LIMCHECK
 70
     0
  9
$CHAMFERA
 40
0.5
  9
$CHAMFERB
 40
0.5
  9
$CHAMFERC
 40
1.0
  9
$CHAMFERD
 40
0.0
  9
$SKPOLY
 70
     0
  9
$TDCREATE
 40
2457653.338148437
  9
$TDUCREATE
 40
2457653.254815104
  9
$TDUPDATE
 40
2457653.338148449
  9
$TDUUPDATE
 40
2457653.254815116
  9
$TDINDWG
 40
0.0000000116
  9
$TDUSRTIMER
 40
0.0000000116
  9
$USRTIMER
 70
     1
  9
$ANGBASE
 50
0.0
  9
$ANGDIR
 70
     0
  9
$PDMODE
 70
     0
  9
$PDSIZE
 40
0.0
  9
$PLINEWID
 40
0.0
  9
$SPLFRAME
 70
     0
  9
$SPLINETYPE
 70
     6
  9
$SPLINESEGS
 70
     8
  9
$HANDSEED
  5
C7
  9
$SURFTAB1
 70
     6
  9
$SURFTAB2
 70
     6
  9
$SURFTYPE
 70
     6
  9
$SURFU
 70
     6
  9
$SURFV
 70
     6
  9
$UCSBASE
  2

  9
$UCSNAME
  2

  9
$UCSORG
 10
0.0
 20
0.0
 30
0.0
  9
$UCSXDIR
 10
1.0
 20
0.0
 30
0.0
  9
$UCSYDIR
 10
0.0
 20
1.0
 30
0.0
  9
$UCSORTHOREF
  2

  9
$UCSORTHOVIEW
 70
     0
  9
$UCSORGTOP
 10
0.0
 20
0.0
 30
0.0
  9
$UCSORGBOTTOM
 10
0.0
 20
0.0
 30
0.0
  9
$UCSORGLEFT
 10
0.0
 20
0.0
 30
0.0
  9
$UCSORGRIGHT
 10
0.0
 20
0.0
 30
0.0
  9
$UCSORGFRONT
 10
0.0
 20
0.0
 30
0.0
  9
$UCSORGBACK
 10
0.0
 20
0.0
 30
0.0
  9
$PUCSBASE
  2

  9
$PUCSNAME
  2

  9
$PUCSORG
 10
0.0
 20
0.0
 30
0.0
  9
$PUCSXDIR
 10
1.0
 20
0.0
 30
0.0
  9
$PUCSYDIR
 10
0.0
 20
1.0
 30
0.0
  9
$PUCSORTHOREF
  2

  9
$PUCSORTHOVIEW
 70
     0
  9
$PUCSORGTOP
 10
0.0
 20
0.0
 30
0.0
  9
$PUCSORGBOTTOM
 10
0.0
 20
0.0
 30
0.0
  9
$PUCSORGLEFT
 10
0.0
 20
0.0
 30
0.0
  9
$PUCSORGRIGHT
 10
0.0
 20
0.0
 30
0.0
  9
$PUCSORGFRONT
 10
0.0
 20
0.0
 30
0.0
  9
$PUCSORGBACK
 10
0.0
 20
0.0
 30
0.0
  9
$USERI1
 70
     0
  9
$USERI2
 70
     0
  9
$USERI3
 70
     0
  9
$USERI4
 70
     0
  9
$USERI5
 70
     0
  9
$USERR1
 40
0.0
  9
$USERR2
 40
0.0
  9
$USERR3
 40
0.0
  9
$USERR4
 40
0.0
  9
$USERR5
 40
0.0
  9
$WORLDVIEW
 70
     1
  9
$SHADEDGE
 70
     3
  9
$SHADEDIF
 70
    70
  9
$TILEMODE
 70
     1
  9
$MAXACTVP
 70
    64
  9
$PINSBASE
 10
0.0
 20
0.0
 30
0.0
  9
$PLIMCHECK
 70
     0
  9
$PEXTMIN
 10
1.000000000000000E+20
 20
1.000000000000000E+20
 30
1.000000000000000E+20
  9
$PEXTMAX
 10
-1.000000000000000E+20
 20
-1.000000000000000E+20
 30
-1.000000000000000E+20
  9
$PLIMMIN
 10
0.0
 20
0.0
  9
$PLIMMAX
 10
12.0
 20
9.0
  9
$UNITMODE
 70
     0
  9
$VISRETAIN
 70
     1
  9
$PLINEGEN
 70
     0
  9
$PSLTSCALE
 70
     1
  9
$TREEDEPTH
 70
  3020
  9
$CMLSTYLE
  2
Standard
  9
$CMLJUST
 70
     0
  9
$CMLSCALE
 40
1.0
  9
$PROXYGRAPHICS
 70
     1
  9
$MEASUREMENT
 70
     0
  9
$CELWEIGHT
370
    -1
  9
$ENDCAPS
280
     0
  9
$JOINSTYLE
280
     0
  9
$LWDISPLAY
290
     0
  9
$INSUNITS
 70
     4
  9
$HYPERLINKBASE
  1

  9
$STYLESHEET
  1

  9
$XEDIT
290
     1
  9
$CEPSNTYPE
380
     0
  9
$PSTYLEMODE
290
     1
  9
$FINGERPRINTGUID
  2
{985B89D2-1B6D-4A84-9F44-0194A4D41D0D}
  9
$VERSIONGUID
  2
{FAEB1C32-E019-11D5-929B-00C0DF256EC4}
  9
$EXTNAMES
290
     1
  9
$PSVPSCALE
 40
0.0
  9
$OLESTARTUP
290
     0
  0
ENDSEC
  0
SECTION
  2
CLASSES
  0
CLASS
  1
ACDBDICTIONARYWDFLT
  2
AcDbDictionaryWithDefault
  3
ObjectDBX Classes
 90
        0
280
     0
281
     0
  0
CLASS
  1
VISUALSTYLE
  2
AcDbVisualStyle
  3
ObjectDBX Classes
 90
     4095
280
     0
281
     0
  0
CLASS
  1
MATERIAL
  2
AcDbMaterial
  3
ObjectDBX Classes
 90
     1153
280
     0
281
     0
  0
CLASS
  1
DICTIONARYVAR
  2
AcDbDictionaryVar
  3
ObjectDBX Classes
 90
        0
280
     0
281
     0
  0
CLASS
  1
ACDBPLACEHOLDER
  2
AcDbPlaceHolder
  3
ObjectDBX Classes
 90
        0
280
     0
281
     0
  0
CLASS
  1
LAYOUT
  2
AcDbLayout
  3
ObjectDBX Classes
 90
        0
280
     0
281
     0
  0
ENDSEC
  0
SECTION
  2
TABLES
  0
TABLE
  2
VPORT
  5
8
330
0
100
AcDbSymbolTable
 70
     1
  0
VPORT
  5
29
330
8
100
AcDbSymbolTableRecord
100
AcDbViewportTableRecord
  2
*Active
 70
     0
 10
0.0
 20
0.0
 11
1.0
 21
1.0
 12
10.42990654205607
 22
4.5
 13
0.0
 23
0.0
 14
0.5
 24
0.5
 15
0.5
 25
0.5
 16
0.0
 26
0.0
 36
1.0
 17
0.0
 27
0.0
 37
0.0
 40
9.0
 41
1.972972972850329
 42
50.0
 43
0.0
 44
0.0
 50
0.0
 51
0.0
 71
     0
 72
   100
 73
     1
 74
     3
 75
     0
 76
     0
 77
     0
 78
     0
281
     0
 65
     1
110
0.0
120
0.0
130
0.0
111
1.0
121
0.0
131
0.0
112
0.0
122
1.0
132
0.0
 79
     0
146
0.0
  0
ENDTAB
  0
TABLE
  2
LTYPE
  5
5
330
0
100
AcDbSymbolTable
 70
     1
  0
LTYPE
  5
14
330
5
100
AcDbSymbolTableRecord
100
AcDbLinetypeTableRecord
  2
ByBlock
 70
     0
  3

 72
    65
 73
     0
 40
0.0
  0
LTYPE
  5
15
330
5
100
AcDbSymbolTableRecord
100
AcDbLinetypeTableRecord
  2
ByLayer
 70
     0
  3

 72
    65
 73
     0
 40
0.0
  0
LTYPE
  5
16
330
5
100
AcDbSymbolTableRecord
100
AcDbLinetypeTableRecord
  2
Continuous
 70
     0
  3
Solid line
 72
    65
 73
     0
 40
0.0
  0
ENDTAB
  0
TABLE
  2
LAYER
  5
2
330
0
100
AcDbSymbolTable
 70
     2
  0
LAYER
  5
10
330
2
100
AcDbSymbolTableRecord
100
AcDbLayerTableRecord
  2
0
 70
     0
 62
     7
  6
Continuous
370
    -3
390
F
  0
LAYER
  5
40
330
2
100
AcDbSymbolTableRecord
100
AcDbLayerTableRecord
  2
Ilustrace
 70
     0
 62
     7
  6
Continuous
370
    -3
390
F
  0
ENDTAB
  0
TABLE
  2
STYLE
  5
3
330
0
100
AcDbSymbolTable
 70
     1
  0
STYLE
  5
11
330
3
100
AcDbSymbolTableRecord
100
AcDbTextStyleTableRecord
  2
Standard
 70
     0
 40
0.0
 41
1.0
 50
0.0
 71
     0
 42
0.2
  3
txt
  4

  0
ENDTAB
  0
TABLE
  2
VIEW
  5
6
330
0
100
AcDbSymbolTable
 70
     0
  0
ENDTAB
  0
TABLE
  2
UCS
  5
7
330
0
100
AcDbSymbolTable
 70
     0
  0
ENDTAB
  0
TABLE
  2
APPID
  5
9
330
0
100
AcDbSymbolTable
 70
     2
  0
APPID
  5
12
330
9
100
AcDbSymbolTableRecord
100
AcDbRegAppTableRecord
  2
ACAD
 70
     0
  0
APPID
  5
3F
330
9
100
AcDbSymbolTableRecord
100
AcDbRegAppTableRecord
  2
ODA
 70
     0
  0
ENDTAB
  0
TABLE
  2
DIMSTYLE
  5
A
330
0
100
AcDbSymbolTable
 70
     1
100
AcDbDimStyleTable
  0
DIMSTYLE
105
27
330
A
100
AcDbSymbolTableRecord
100
AcDbDimStyleTableRecord
  2
Standard
 70
     0
340
11
  0
ENDTAB
  0
TABLE
  2
BLOCK_RECORD
  5
1
330
0
100
AcDbSymbolTable
 70
     1
  0
BLOCK_RECORD
  5
1F
330
1
100
AcDbSymbolTableRecord
100
AcDbBlockTableRecord
  2
*Model_Space
340
22
  0
BLOCK_RECORD
  5
1B
330
1
100
AcDbSymbolTableRecord
100
AcDbBlockTableRecord
  2
*Paper_Space
340
1E
  0
BLOCK_RECORD
  5
23
330
1
100
AcDbSymbolTableRecord
100
AcDbBlockTableRecord
  2
*Paper_Space0
340
26
  0
ENDTAB
  0
ENDSEC
  0
SECTION
  2
BLOCKS
  0
BLOCK
  5
20
330
1F
100
AcDbEntity
  8
0
100
AcDbBlockBegin
  2
*Model_Space
 70
     0
 10
0.0
 20
0.0
 30
0.0
  3
*Model_Space
  1

  0
ENDBLK
  5
21
330
1F
100
AcDbEntity
  8
0
100
AcDbBlockEnd
  0
BLOCK
  5
1C
330
1B
100
AcDbEntity
 67
     1
  8
0
100
AcDbBlockBegin
  2
*Paper_Space
 70
     0
 10
0.0
 20
0.0
 30
0.0
  3
*Paper_Space
  1

  0
ENDBLK
  5
1D
330
1B
100
AcDbEntity
 67
     1
  8
0
100
AcDbBlockEnd
  0
BLOCK
  5
24
330
23
100
AcDbEntity
  8
0
100
AcDbBlockBegin
  2
*Paper_Space0
 70
     0
 10
0.0
 20
0.0
 30
0.0
  3
*Paper_Space0
  1

  0
ENDBLK
  5
25
330
23
100
AcDbEntity
  8
0
100
AcDbBlockEnd
  0
ENDSEC
  0
SECTION
  2
ENTITIES
  0
SPLINE
  5
41
330
1F
100
AcDbEntity
  8
Ilustrace
 62
   250
370
    15
100
AcDbSpline
210
0.0
220
0.0
230
1.0
 70
    24
 71
     3
 72
     8
 73
     4
 74
     0
 42
0.0000000001
 43
0.0000000001
 40
0.0
 40
0.0
 40
0.0
 40
0.0
 40
1.0
 40
1.0
 40
1.0
 40
1.0
 10
51.6717
 20
-26.9053
 30
0.0
 10
51.6717
 20
-26.9053
 30
0.0
 10
51.6717
 20
-20.7194
 30
0.0
 10
51.6717
 20
-20.7194
 30
0.0
  0
SPLINE
  5
42
330
1F
100
AcDbEntity
  8
Ilustrace
 62
   250
370
    15
100
AcDbSpline
210
0.0
220
0.0
230
1.0
 70
    24
 71
     3
 72
     8
 73
     4
 74
     0
 42
0.0000000001
 43
0.0000000001
 40
0.0
 40
0.0
 40
0.0
 40
0.0
 40
1.0
 40
1.0
 40
1.0
 40
1.0
 10
52.1228
 20
-19.8454
 30
0.0
 10
52.1228
 20
-19.8454
 30
0.0
 10
54.2815
 20
-17.6867
 30
0.0
 10
54.2815
 20
-17.6867
 30
0.0
  0
SPLINE
  5
43
330
1F
100
AcDbEntity
  8
Ilustrace
 62
   250
370
    15
100
AcDbSpline
210
0.0
220
0.0
230
1.0
 70
    24
 71
     3
 72
     8
 73
     4
 74
     0
 42
0.0000000001
 43
0.0000000001
 40
0.0
 40
0.0
 40
0.0
 40
0.0
 40
1.0
 40
1.0
 40
1.0
 40
1.0
 10
-56.2561
 20
-26.3443
 30
0.0
 10
-56.2561
 20
-26.3443
 30
0.0
 10
50.9301
 20
-26.3443
 30
0.0
 10
50.9301
 20
-26.3443
 30
0.0
  0
SPLINE
  5
44
330
1F
100
AcDbEntity
  8
Ilustrace
 62
   250
370
    15
100
AcDbSpline
210
0.0
220
0.0
230
1.0
 70
    24
 71
     3
 72
     8
 73
     4
 74
     0
 42
0.0000000001
 43
0.0000000001
 40
0.0
 40
0.0
 40
0.0
 40
0.0
 40
1.0
 40
1.0
 40
1.0
 40
1.0
 10
-0.0159
 20
35.8763
 30
0.0
 10
-0.0159
 20
35.8763
 30
0.0
 10
53.3902
 20
-17.5298
 30
0.0
 10
53.3902
 20
-17.5298
 30
0.0
  0
SPLINE
  5
45
330
1F
100
AcDbEntity
  8
Ilustrace
 62
   250
100
AcDbSpline
210
0.0
220
0.0
230
1.0
 70
    11
 71
     3
 72
   196
 73
   192
 74
     0
 42
0.0000000001
 43
0.0000000001
 40
0.0
 40
0.0
 40
0.0
 40
0.0
 40
0.0204081632653061
 40
0.0204081632653061
 40
0.0204081632653061
 40
0.0204081632653061
 40
0.0408163265306122
 40
0.0408163265306122
 40
0.0408163265306122
 40
0.0408163265306122
 40
0.0612244897959184
 40
0.0612244897959184
 40
0.0612244897959184
 40
0.0612244897959184
 40
0.0816326530612245
 40
0.0816326530612245
 40
0.0816326530612245
 40
0.0816326530612245
 40
0.1020408163265306
 40
0.1020408163265306
 40
0.1020408163265306
 40
0.1020408163265306
 40
0.1224489795918367
 40
0.1224489795918367
 40
0.1224489795918367
 40
0.1224489795918367
 40
0.1428571428571428
 40
0.1428571428571428
 40
0.1428571428571428
 40
0.1428571428571428
 40
0.163265306122449
 40
0.163265306122449
 40
0.163265306122449
 40
0.163265306122449
 40
0.1836734693877551
 40
0.1836734693877551
 40
0.1836734693877551
 40
0.1836734693877551
 40
0.2040816326530612
 40
0.2040816326530612
 40
0.2040816326530612
 40
0.2040816326530612
 40
0.2244897959183673
 40
0.2244897959183673
 40
0.2244897959183673
 40
0.2244897959183673
 40
0.2448979591836735
 40
0.2448979591836735
 40
0.2448979591836735
 40
0.2448979591836735
 40
0.2653061224489796
 40
0.2653061224489796
 40
0.2653061224489796
 40
0.2653061224489796
 40
0.2857142857142857
 40
0.2857142857142857
 40
0.2857142857142857
 40
0.2857142857142857
 40
0.3061224489795918
 40
0.3061224489795918
 40
0.3061224489795918
 40
0.3061224489795918
 40
0.3265306122448979
 40
0.3265306122448979
 40
0.3265306122448979
 40
0.3265306122448979
 40
0.3469387755102041
 40
0.3469387755102041
 40
0.3469387755102041
 40
0.3469387755102041
 40
0.3673469387755102
 40
0.3673469387755102
 40
0.3673469387755102
 40
0.3673469387755102
 40
0.3877551020408163
 40
0.3877551020408163
 40
0.3877551020408163
 40
0.3877551020408163
 40
0.4081632653061225
 40
0.4081632653061225
 40
0.4081632653061225
 40
0.4081632653061225
 40
0.4285714285714285
 40
0.4285714285714285
 40
0.4285714285714285
 40
0.4285714285714285
 40
0.4489795918367347
 40
0.4489795918367347
 40
0.4489795918367347
 40
0.4489795918367347
 40
0.4693877551020408
 40
0.4693877551020408
 40
0.4693877551020408
 40
0.4693877551020408
 40
0.4897959183673469
 40
0.4897959183673469
 40
0.4897959183673469
 40
0.4897959183673469
 40
0.5102040816326531
 40
0.5102040816326531
 40
0.5102040816326531
 40
0.5102040816326531
 40
0.5306122448979592
 40
0.5306122448979592
 40
0.5306122448979592
 40
0.5306122448979592
 40
0.5510204081632653
 40
0.5510204081632653
 40
0.5510204081632653
 40
0.5510204081632653
 40
0.5714285714285714
 40
0.5714285714285714
 40
0.5714285714285714
 40
0.5714285714285714
 40
0.5918367346938775
 40
0.5918367346938775
 40
0.5918367346938775
 40
0.5918367346938775
 40
0.6122448979591837
 40
0.6122448979591837
 40
0.6122448979591837
 40
0.6122448979591837
 40
0.6326530612244898
 40
0.6326530612244898
 40
0.6326530612244898
 40
0.6326530612244898
 40
0.6530612244897959
 40
0.6530612244897959
 40
0.6530612244897959
 40
0.6530612244897959
 40
0.673469387755102
 40
0.673469387755102
 40
0.673469387755102
 40
0.673469387755102
 40
0.6938775510204082
 40
0.6938775510204082
 40
0.6938775510204082
 40
0.6938775510204082
 40
0.7142857142857143
 40
0.7142857142857143
 40
0.7142857142857143
 40
0.7142857142857143
 40
0.7346938775510204
 40
0.7346938775510204
 40
0.7346938775510204
 40
0.7346938775510204
 40
0.7551020408163265
 40
0.7551020408163265
 40
0.7551020408163265
 40
0.7551020408163265
 40
0.7755102040816326
 40
0.7755102040816326
 40
0.7755102040816326
 40
0.7755102040816326
 40
0.7959183673469388
 40
0.7959183673469388
 40
0.7959183673469388
 40
0.7959183673469388
 40
0.8163265306122449
 40
0.8163265306122449
 40
0.8163265306122449
 40
0.8163265306122449
 40
0.8367346938775511
 40
0.8367346938775511
 40
0.8367346938775511
 40
0.8367346938775511
 40
0.8571428571428571
 40
0.8571428571428571
 40
0.8571428571428571
 40
0.8571428571428571
 40
0.8775510204081632
 40
0.8775510204081632
 40
0.8775510204081632
 40
0.8775510204081632
 40
0.8979591836734694
 40
0.8979591836734694
 40
0.8979591836734694
 40
0.8979591836734694
 40
0.9183673469387755
 40
0.9183673469387755
 40
0.9183673469387755
 40
0.9183673469387755
 40
0.9387755102040817
 40
0.9387755102040817
 40
0.9387755102040817
 40
0.9387755102040817
 40
0.9591836734693877
 40
0.9591836734693877
 40
0.9591836734693877
 40
0.9591836734693877
 40
1.0
 40
1.0
 40
1.0
 40
1.0
 10
-8.5384
 20
-25.75
 30
0.0
 10
-8.4773
 20
-25.7905
 30
0.0
 10
-8.3983
 20
-25.8291
 30
0.0
 10
-8.3023
 20
-25.8667
 30
0.0
 10
-8.3023
 20
-25.8667
 30
0.0
 10
-8.2064
 20
-25.9043
 30
0.0
 10
-8.0972
 20
-25.9354
 30
0.0
 10
-7.9749
 20
-25.9608
 30
0.0
 10
-7.9749
 20
-25.9608
 30
0.0
 10
-7.8526
 20
-25.9852
 30
0.0
 10
-7.7228
 20
-25.9974
 30
0.0
 10
-7.5845
 20
-25.9984
 30
0.0
 10
-7.5845
 20
-25.9984
 30
0.0
 10
-7.3653
 20
-25.9974
 30
0.0
 10
-7.1725
 20
-25.9673
 30
0.0
 10
-7.006
 20
-25.909
 30
0.0
 10
-7.006
 20
-25.909
 30
0.0
 10
-6.8395
 20
-25.8507
 30
0.0
 10
-6.7002
 20
-25.7698
 30
0.0
 10
-6.5874
 20
-25.6682
 30
0.0
 10
-6.5874
 20
-25.6682
 30
0.0
 10
-6.4745
 20
-25.5666
 30
0.0
 10
-6.3898
 20
-25.449
 30
0.0
 10
-6.3324
 20
-25.3173
 30
0.0
 10
-6.3324
 20
-25.3173
 30
0.0
 10
-6.276
 20
-25.1856
 30
0.0
 10
-6.2468
 20
-25.0454
 30
0.0
 10
-6.2468
 20
-24.8977
 30
0.0
 10
-6.2468
 20
-24.8977
 30
0.0
 10
-6.2487
 20
-24.7688
 30
0.0
 10
-6.2713
 20
-24.6522
 30
0.0
 10
-6.3136
 20
-24.5468
 30
0.0
 10
-6.3136
 20
-24.5468
 30
0.0
 10
-6.3559
 20
-24.4405
 30
0.0
 10
-6.4143
 20
-24.3483
 30
0.0
 10
-6.4886
 20
-24.2684
 30
0.0
 10
-6.4886
 20
-24.2684
 30
0.0
 10
-6.5629
 20
-24.1884
 30
0.0
 10
-6.6494
 20
-24.1226
 30
0.0
 10
-6.7473
 20
-24.0708
 30
0.0
 10
-6.7473
 20
-24.0708
 30
0.0
 10
-6.8461
 20
-24.0191
 30
0.0
 10
-6.9514
 20
-23.9824
 30
0.0
 10
-7.0652
 20
-23.9608
 30
0.0
 10
-7.0652
 20
-23.9608
 30
0.0
 10
-7.0652
 20
-23.9608
 30
0.0
 10
-7.0652
 20
-23.9495
 30
0.0
 10
-7.0652
 20
-23.9495
 30
0.0
 10
-7.0652
 20
-23.9495
 30
0.0
 10
-6.9166
 20
-23.894
 30
0.0
 10
-6.7915
 20
-23.8234
 30
0.0
 10
-6.6918
 20
-23.7369
 30
0.0
 10
-6.6918
 20
-23.7369
 30
0.0
 10
-6.5911
 20
-23.6503
 30
0.0
 10
-6.5149
 20
-23.5506
 30
0.0
 10
-6.4641
 20
-23.4396
 30
0.0
 10
-6.4641
 20
-23.4396
 30
0.0
 10
-6.4133
 20
-23.3286
 30
0.0
 10
-6.3879
 20
-23.2091
 30
0.0
 10
-6.3879
 20
-23.0802
 30
0.0
 10
-6.3879
 20
-23.0802
 30
0.0
 10
-6.3879
 20
-22.9673
 30
0.0
 10
-6.4086
 20
-22.8592
 30
0.0
 10
-6.45
 20
-22.7557
 30
0.0
 10
-6.45
 20
-22.7557
 30
0.0
 10
-6.4923
 20
-22.6513
 30
0.0
 10
-6.5563
 20
-22.5581
 30
0.0
 10
-6.6419
 20
-22.4753
 30
0.0
 10
-6.6419
 20
-22.4753
 30
0.0
 10
-6.7275
 20
-22.3926
 30
0.0
 10
-6.8366
 20
-22.3276
 30
0.0
 10
-6.9693
 20
-22.2797
 30
0.0
 10
-6.9693
 20
-22.2797
 30
0.0
 10
-7.101
 20
-22.2308
 30
0.0
 10
-7.2572
 20
-22.2063
 30
0.0
 10
-7.4378
 20
-22.2054
 30
0.0
 10
-7.4378
 20
-22.2054
 30
0.0
 10
-7.5704
 20
-22.2063
 30
0.0
 10
-7.6974
 20
-22.2204
 30
0.0
 10
-7.8197
 20
-22.2467
 30
0.0
 10
-7.8197
 20
-22.2467
 30
0.0
 10
-7.942
 20
-22.274
 30
0.0
 10
-8.053
 20
-22.3088
 30
0.0
 10
-8.1527
 20
-22.3512
 30
0.0
 10
-8.1527
 20
-22.3512
 30
0.0
 10
-8.2525
 20
-22.3944
 30
0.0
 10
-8.3362
 20
-22.4396
 30
0.0
 10
-8.403
 20
-22.4876
 30
0.0
 10
-8.403
 20
-22.4876
 30
0.0
 10
-8.403
 20
-22.4876
 30
0.0
 10
-8.2675
 20
-22.8488
 30
0.0
 10
-8.2675
 20
-22.8488
 30
0.0
 10
-8.2675
 20
-22.8488
 30
0.0
 10
-8.2139
 20
-22.8102
 30
0.0
 10
-8.149
 20
-22.7726
 30
0.0
 10
-8.0718
 20
-22.7359
 30
0.0
 10
-8.0718
 20
-22.7359
 30
0.0
 10
-7.9956
 20
-22.6983
 30
0.0
 10
-7.911
 20
-22.6682
 30
0.0
 10
-7.8188
 20
-22.6437
 30
0.0
 10
-7.8188
 20
-22.6437
 30
0.0
 10
-7.7275
 20
-22.6193
 30
0.0
 10
-7.6325
 20
-22.607
 30
0.0
 10
-7.5337
 20
-22.6061
 30
0.0
 10
-7.5337
 20
-22.6061
 30
0.0
 10
-7.3813
 20
-22.607
 30
0.0
 10
-7.2581
 20
-22.6334
 30
0.0
 10
-7.164
 20
-22.6842
 30
0.0
 10
-7.164
 20
-22.6842
 30
0.0
 10
-7.069
 20
-22.735
 30
0.0
 10
-6.9994
 20
-22.8018
 30
0.0
 10
-6.9552
 20
-22.8855
 30
0.0
 10
-6.9552
 20
-22.8855
 30
0.0
 10
-6.911
 20
-22.9683
 30
0.0
 10
-6.8893
 20
-23.0595
 30
0.0
 10
-6.8903
 20
-23.1593
 30
0.0
 10
-6.8903
 20
-23.1593
 30
0.0
 10
-6.8912
 20
-23.2674
 30
0.0
 10
-6.9176
 20
-23.3615
 30
0.0
 10
-6.9674
 20
-23.4396
 30
0.0
 10
-6.9674
 20
-23.4396
 30
0.0
 10
-7.0173
 20
-23.5177
 30
0.0
 10
-7.0831
 20
-23.5826
 30
0.0
 10
-7.164
 20
-23.6324
 30
0.0
 10
-7.164
 20
-23.6324
 30
0.0
 10
-7.2449
 20
-23.6832
 30
0.0
 10
-7.3334
 20
-23.7199
 30
0.0
 10
-7.4284
 20
-23.7444
 30
0.0
 10
-7.4284
 20
-23.7444
 30
0.0
 10
-7.5234
 20
-23.7679
 30
0.0
 10
-7.6165
 20
-23.7801
 30
0.0
 10
-7.7087
 20
-23.7801
 30
0.0
 10
-7.7087
 20
-23.7801
 30
0.0
 10
-7.7087
 20
-23.7801
 30
0.0
 10
-7.9853
 20
-23.7801
 30
0.0
 10
-7.9853
 20
-23.7801
 30
0.0
 10
-7.9853
 20
-23.7801
 30
0.0
 10
-7.9853
 20
-23.7801
 30
0.0
 10
-7.9853
 20
-24.1527
 30
0.0
 10
-7.9853
 20
-24.1527
 30
0.0
 10
-7.9853
 20
-24.1527
 30
0.0
 10
-7.9853
 20
-24.1527
 30
0.0
 10
-7.7087
 20
-24.1527
 30
0.0
 10
-7.7087
 20
-24.1527
 30
0.0
 10
-7.7087
 20
-24.1527
 30
0.0
 10
-7.5874
 20
-24.1527
 30
0.0
 10
-7.4707
 20
-24.1668
 30
0.0
 10
-7.3588
 20
-24.195
 30
0.0
 10
-7.3588
 20
-24.195
 30
0.0
 10
-7.2468
 20
-24.2232
 30
0.0
 10
-7.1461
 20
-24.2674
 30
0.0
 10
-7.0568
 20
-24.3267
 30
0.0
 10
-7.0568
 20
-24.3267
 30
0.0
 10
-6.9674
 20
-24.386
 30
0.0
 10
-6.8959
 20
-24.4622
 30
0.0
 10
-6.8432
 20
-24.5553
 30
0.0
 10
-6.8432
 20
-24.5553
 30
0.0
 10
-6.7906
 20
-24.6475
 30
0.0
 10
-6.7633
 20
-24.7585
 30
0.0
 10
-6.7604
 20
-24.8864
 30
0.0
 10
-6.7604
 20
-24.8864
 30
0.0
 10
-6.7586
 20
-24.9655
 30
0.0
 10
-6.7708
 20
-25.0464
 30
0.0
 10
-6.799
 20
-25.1282
 30
0.0
 10
-6.799
 20
-25.1282
 30
0.0
 10
-6.8263
 20
-25.211
 30
0.0
 10
-6.8724
 20
-25.2881
 30
0.0
 10
-6.9364
 20
-25.3587
 30
0.0
 10
-6.9364
 20
-25.3587
 30
0.0
 10
-7.0003
 20
-25.4292
 30
0.0
 10
-7.0859
 20
-25.4866
 30
0.0
 10
-7.1932
 20
-25.5299
 30
0.0
 10
-7.1932
 20
-25.5299
 30
0.0
 10
-7.3004
 20
-25.5741
 30
0.0
 10
-7.4321
 20
-25.5967
 30
0.0
 10
-7.5902
 20
-25.5976
 30
0.0
 10
-7.5902
 20
-25.5976
 30
0.0
 10
-7.7078
 20
-25.5967
 30
0.0
 10
-7.8197
 20
-25.5835
 30
0.0
 10
-7.9251
 20
-25.5581
 30
0.0
 10
-7.9251
 20
-25.5581
 30
0.0
 10
-8.0304
 20
-25.5327
 30
0.0
 10
-8.1245
 20
-25.5026
 30
0.0
 10
-8.2073
 20
-25.4678
 30
0.0
 10
-8.2073
 20
-25.4678
 30
0.0
 10
-8.2901
 20
-25.433
 30
0.0
 10
-8.355
 20
-25.401
 30
0.0
 10
-8.403
 20
-25.3719
 30
0.0
 10
-8.403
 20
-25.3719
 30
0.0
 10
-8.403
 20
-25.3719
 30
0.0
 10
-8.5384
 20
-25.75
 30
0.0
 10
-8.5384
 20
-25.75
 30
0.0
  0
SPLINE
  5
46
330
1F
100
AcDbEntity
  8
Ilustrace
 62
   250
100
AcDbSpline
210
0.0
220
0.0
230
1.0
 70
    11
 71
     3
 72
   124
 73
   120
 74
     0
 42
0.0000000001
 43
0.0000000001
 40
0.0
 40
0.0
 40
0.0
 40
0.0
 40
0.032258064516129
 40
0.032258064516129
 40
0.032258064516129
 40
0.032258064516129
 40
0.0645161290322581
 40
0.0645161290322581
 40
0.0645161290322581
 40
0.0645161290322581
 40
0.0967741935483871
 40
0.0967741935483871
 40
0.0967741935483871
 40
0.0967741935483871
 40
0.1290322580645161
 40
0.1290322580645161
 40
0.1290322580645161
 40
0.1290322580645161
 40
0.1612903225806452
 40
0.1612903225806452
 40
0.1612903225806452
 40
0.1612903225806452
 40
0.1935483870967742
 40
0.1935483870967742
 40
0.1935483870967742
 40
0.1935483870967742
 40
0.2258064516129032
 40
0.2258064516129032
 40
0.2258064516129032
 40
0.2258064516129032
 40
0.2580645161290323
 40
0.2580645161290323
 40
0.2580645161290323
 40
0.2580645161290323
 40
0.2903225806451613
 40
0.2903225806451613
 40
0.2903225806451613
 40
0.2903225806451613
 40
0.3225806451612903
 40
0.3225806451612903
 40
0.3225806451612903
 40
0.3225806451612903
 40
0.3548387096774194
 40
0.3548387096774194
 40
0.3548387096774194
 40
0.3548387096774194
 40
0.3870967741935484
 40
0.3870967741935484
 40
0.3870967741935484
 40
0.3870967741935484
 40
0.4193548387096774
 40
0.4193548387096774
 40
0.4193548387096774
 40
0.4193548387096774
 40
0.4516129032258064
 40
0.4516129032258064
 40
0.4516129032258064
 40
0.4516129032258064
 40
0.4838709677419355
 40
0.4838709677419355
 40
0.4838709677419355
 40
0.4838709677419355
 40
0.5161290322580645
 40
0.5161290322580645
 40
0.5161290322580645
 40
0.5161290322580645
 40
0.5483870967741935
 40
0.5483870967741935
 40
0.5483870967741935
 40
0.5483870967741935
 40
0.5806451612903226
 40
0.5806451612903226
 40
0.5806451612903226
 40
0.5806451612903226
 40
0.6129032258064516
 40
0.6129032258064516
 40
0.6129032258064516
 40
0.6129032258064516
 40
0.6451612903225806
 40
0.6451612903225806
 40
0.6451612903225806
 40
0.6451612903225806
 40
0.6774193548387096
 40
0.6774193548387096
 40
0.6774193548387096
 40
0.6774193548387096
 40
0.7096774193548387
 40
0.7096774193548387
 40
0.7096774193548387
 40
0.7096774193548387
 40
0.7419354838709677
 40
0.7419354838709677
 40
0.7419354838709677
 40
0.7419354838709677
 40
0.7741935483870968
 40
0.7741935483870968
 40
0.7741935483870968
 40
0.7741935483870968
 40
0.8064516129032258
 40
0.8064516129032258
 40
0.8064516129032258
 40
0.8064516129032258
 40
0.8387096774193549
 40
0.8387096774193549
 40
0.8387096774193549
 40
0.8387096774193549
 40
0.8709677419354839
 40
0.8709677419354839
 40
0.8709677419354839
 40
0.8709677419354839
 40
0.9032258064516129
 40
0.9032258064516129
 40
0.9032258064516129
 40
0.9032258064516129
 40
0.9354838709677419
 40
0.9354838709677419
 40
0.9354838709677419
 40
0.9354838709677419
 40
1.0
 40
1.0
 40
1.0
 40
1.0
 10
-4.9429
 20
-24.0228
 30
0.0
 10
-5.0944
 20
-24.0868
 30
0.0
 10
-5.2242
 20
-24.1668
 30
0.0
 10
-5.3324
 20
-24.2609
 30
0.0
 10
-5.3324
 20
-24.2609
 30
0.0
 10
-5.4406
 20
-24.3559
 30
0.0
 10
-5.5243
 20
-24.4659
 30
0.0
 10
-5.5826
 20
-24.5911
 30
0.0
 10
-5.5826
 20
-24.5911
 30
0.0
 10
-5.641
 20
-24.7162
 30
0.0
 10
-5.6701
 20
-24.8563
 30
0.0
 10
-5.6711
 20
-25.0106
 30
0.0
 10
-5.6711
 20
-25.0106
 30
0.0
 10
-5.6701
 20
-25.1461
 30
0.0
 10
-5.6428
 20
-25.2721
 30
0.0
 10
-5.5864
 20
-25.3916
 30
0.0
 10
-5.5864
 20
-25.3916
 30
0.0
 10
-5.5309
 20
-25.5101
 30
0.0
 10
-5.45
 20
-25.6146
 30
0.0
 10
-5.3437
 20
-25.7058
 30
0.0
 10
-5.3437
 20
-25.7058
 30
0.0
 10
-5.2374
 20
-25.7961
 30
0.0
 10
-5.1085
 20
-25.8676
 30
0.0
 10
-4.957
 20
-25.9194
 30
0.0
 10
-4.957
 20
-25.9194
 30
0.0
 10
-4.8046
 20
-25.9711
 30
0.0
 10
-4.6325
 20
-25.9974
 30
0.0
 10
-4.4406
 20
-25.9984
 30
0.0
 10
-4.4406
 20
-25.9984
 30
0.0
 10
-4.2647
 20
-25.9974
 30
0.0
 10
-4.101
 20
-25.972
 30
0.0
 10
-3.9505
 20
-25.9222
 30
0.0
 10
-3.9505
 20
-25.9222
 30
0.0
 10
-3.7999
 20
-25.8723
 30
0.0
 10
-3.6673
 20
-25.7999
 30
0.0
 10
-3.5544
 20
-25.7058
 30
0.0
 10
-3.5544
 20
-25.7058
 30
0.0
 10
-3.4415
 20
-25.6127
 30
0.0
 10
-3.3531
 20
-25.5007
 30
0.0
 10
-3.2901
 20
-25.37
 30
0.0
 10
-3.2901
 20
-25.37
 30
0.0
 10
-3.2261
 20
-25.2392
 30
0.0
 10
-3.1941
 20
-25.0934
 30
0.0
 10
-3.1932
 20
-24.9316
 30
0.0
 10
-3.1932
 20
-24.9316
 30
0.0
 10
-3.1941
 20
-24.7848
 30
0.0
 10
-3.2242
 20
-24.6513
 30
0.0
 10
-3.2835
 20
-24.5299
 30
0.0
 10
-3.2835
 20
-24.5299
 30
0.0
 10
-3.3427
 20
-24.4095
 30
0.0
 10
-3.4274
 20
-24.3032
 30
0.0
 10
-3.5375
 20
-24.2119
 30
0.0
 10
-3.5375
 20
-24.2119
 30
0.0
 10
-3.6475
 20
-24.1197
 30
0.0
 10
-3.7792
 20
-24.0435
 30
0.0
 10
-3.9326
 20
-23.9833
 30
0.0
 10
-3.9326
 20
-23.9833
 30
0.0
 10
-3.9326
 20
-23.9833
 30
0.0
 10
-3.9326
 20
-23.9664
 30
0.0
 10
-3.9326
 20
-23.9664
 30
0.0
 10
-3.9326
 20
-23.9664
 30
0.0
 10
-3.783
 20
-23.8958
 30
0.0
 10
-3.6635
 20
-23.814
 30
0.0
 10
-3.5742
 20
-23.7199
 30
0.0
 10
-3.5742
 20
-23.7199
 30
0.0
 10
-3.4848
 20
-23.6268
 30
0.0
 10
-3.4199
 20
-23.5271
 30
0.0
 10
-3.3804
 20
-23.4227
 30
0.0
 10
-3.3804
 20
-23.4227
 30
0.0
 10
-3.3418
 20
-23.3173
 30
0.0
 10
-3.322
 20
-23.2129
 30
0.0
 10
-3.323
 20
-23.1085
 30
0.0
 10
-3.323
 20
-23.1085
 30
0.0
 10
-3.323
 20
-22.9918
 30
0.0
 10
-3.3456
 20
-22.8789
 30
0.0
 10
-3.3907
 20
-22.7717
 30
0.0
 10
-3.3907
 20
-22.7717
 30
0.0
 10
-3.4359
 20
-22.6644
 30
0.0
 10
-3.5027
 20
-22.5685
 30
0.0
 10
-3.592
 20
-22.4829
 30
0.0
 10
-3.592
 20
-22.4829
 30
0.0
 10
-3.6823
 20
-22.3982
 30
0.0
 10
-3.7943
 20
-22.3305
 30
0.0
 10
-3.9279
 20
-22.2816
 30
0.0
 10
-3.9279
 20
-22.2816
 30
0.0
 10
-4.0615
 20
-22.2317
 30
0.0
 10
-4.2176
 20
-22.2063
 30
0.0
 10
-4.3954
 20
-22.2054
 30
0.0
 10
-4.3954
 20
-22.2054
 30
0.0
 10
-4.5582
 20
-22.2063
 30
0.0
 10
-4.7096
 20
-22.2298
 30
0.0
 10
-4.847
 20
-22.2759
 30
0.0
 10
-4.847
 20
-22.2759
 30
0.0
 10
-4.9853
 20
-22.3229
 30
0.0
 10
-5.1057
 20
-22.3888
 30
0.0
 10
-5.2092
 20
-22.4753
 30
0.0
 10
-5.2092
 20
-22.4753
 30
0.0
 10
-5.3117
 20
-22.5619
 30
0.0
 10
-5.3917
 20
-22.6644
 30
0.0
 10
-5.449
 20
-22.7839
 30
0.0
 10
-5.449
 20
-22.7839
 30
0.0
 10
-5.5055
 20
-22.9034
 30
0.0
 10
-5.5347
 20
-23.036
 30
0.0
 10
-5.5356
 20
-23.1818
 30
0.0
 10
-5.5356
 20
-23.1818
 30
0.0
 10
-5.5356
 20
-23.2881
 30
0.0
 10
-5.5158
 20
-23.3916
 30
0.0
 10
-5.4744
 20
-23.4932
 30
0.0
 10
-5.4744
 20
-23.4932
 30
0.0
 10
-5.434
 20
-23.5948
 30
0.0
 10
-5.37
 20
-23.6898
 30
0.0
 10
-5.2835
 20
-23.7773
 30
0.0
 10
-5.2835
 20
-23.7773
 30
0.0
 10
-5.1969
 20
-23.8648
 30
0.0
 10
-5.0859
 20
-23.941
 30
0.0
 10
-4.9486
 20
-24.0059
 30
0.0
 10
-4.9486
 20
-24.0059
 30
0.0
 10
-4.9486
 20
-24.0059
 30
0.0
 10
-4.9429
 20
-24.0228
 30
0.0
 10
-4.9429
 20
-24.0228
 30
0.0
  0
SPLINE
  5
47
330
1F
100
AcDbEntity
  8
Ilustrace
 62
   250
100
AcDbSpline
210
0.0
220
0.0
230
1.0
 70
    11
 71
     3
 72
    56
 73
    52
 74
     0
 42
0.0000000001
 43
0.0000000001
 40
0.0
 40
0.0
 40
0.0
 40
0.0
 40
0.0714285714285714
 40
0.0714285714285714
 40
0.0714285714285714
 40
0.0714285714285714
 40
0.1428571428571428
 40
0.1428571428571428
 40
0.1428571428571428
 40
0.1428571428571428
 40
0.2142857142857143
 40
0.2142857142857143
 40
0.2142857142857143
 40
0.2142857142857143
 40
0.2857142857142857
 40
0.2857142857142857
 40
0.2857142857142857
 40
0.2857142857142857
 40
0.3571428571428572
 40
0.3571428571428572
 40
0.3571428571428572
 40
0.3571428571428572
 40
0.4285714285714285
 40
0.4285714285714285
 40
0.4285714285714285
 40
0.4285714285714285
 40
0.5
 40
0.5
 40
0.5
 40
0.5
 40
0.5714285714285714
 40
0.5714285714285714
 40
0.5714285714285714
 40
0.5714285714285714
 40
0.6428571428571429
 40
0.6428571428571429
 40
0.6428571428571429
 40
0.6428571428571429
 40
0.7142857142857143
 40
0.7142857142857143
 40
0.7142857142857143
 40
0.7142857142857143
 40
0.7857142857142857
 40
0.7857142857142857
 40
0.7857142857142857
 40
0.7857142857142857
 40
0.8571428571428571
 40
0.8571428571428571
 40
0.8571428571428571
 40
0.8571428571428571
 40
1.0
 40
1.0
 40
1.0
 40
1.0
 10
-4.4293
 20
-25.6371
 30
0.0
 10
-4.5469
 20
-25.6362
 30
0.0
 10
-4.6513
 20
-25.6174
 30
0.0
 10
-4.7435
 20
-25.5807
 30
0.0
 10
-4.7435
 20
-25.5807
 30
0.0
 10
-4.8366
 20
-25.5431
 30
0.0
 10
-4.9147
 20
-25.4923
 30
0.0
 10
-4.9787
 20
-25.4274
 30
0.0
 10
-4.9787
 20
-25.4274
 30
0.0
 10
-5.0417
 20
-25.3634
 30
0.0
 10
-5.0897
 20
-25.2891
 30
0.0
 10
-5.1217
 20
-25.2063
 30
0.0
 10
-5.1217
 20
-25.2063
 30
0.0
 10
-5.1527
 20
-25.1235
 30
0.0
 10
-5.1668
 20
-25.0351
 30
0.0
 10
-5.1631
 20
-24.9429
 30
0.0
 10
-5.1631
 20
-24.9429
 30
0.0
 10
-5.1631
 20
-24.8253
 30
0.0
 10
-5.1377
 20
-24.7171
 30
0.0
 10
-5.0869
 20
-24.6174
 30
0.0
 10
-5.0869
 20
-24.6174
 30
0.0
 10
-5.037
 20
-24.5177
 30
0.0
 10
-4.9627
 20
-24.4302
 30
0.0
 10
-4.8648
 20
-24.3559
 30
0.0
 10
-4.8648
 20
-24.3559
 30
0.0
 10
-4.7661
 20
-24.2816
 30
0.0
 10
-4.6457
 20
-24.2232
 30
0.0
 10
-4.5027
 20
-24.1809
 30
0.0
 10
-4.5027
 20
-24.1809
 30
0.0
 10
-4.3362
 20
-24.227
 30
0.0
 10
-4.1932
 20
-24.2844
 30
0.0
 10
-4.0728
 20
-24.354
 30
0.0
 10
-4.0728
 20
-24.354
 30
0.0
 10
-3.9523
 20
-24.4227
 30
0.0
 10
-3.8592
 20
-24.5083
 30
0.0
 10
-3.7943
 20
-24.6099
 30
0.0
 10
-3.7943
 20
-24.6099
 30
0.0
 10
-3.7294
 20
-24.7124
 30
0.0
 10
-3.6965
 20
-24.8366
 30
0.0
 10
-3.6955
 20
-24.9824
 30
0.0
 10
-3.6955
 20
-24.9824
 30
0.0
 10
-3.6965
 20
-25.1094
 30
0.0
 10
-3.7266
 20
-25.2223
 30
0.0
 10
-3.7868
 20
-25.3201
 30
0.0
 10
-3.7868
 20
-25.3201
 30
0.0
 10
-3.847
 20
-25.418
 30
0.0
 10
-3.9316
 20
-25.4951
 30
0.0
 10
-4.0408
 20
-25.5515
 30
0.0
 10
-4.0408
 20
-25.5515
 30
0.0
 10
-4.1499
 20
-25.608
 30
0.0
 10
-4.2797
 20
-25.6362
 30
0.0
 10
-4.4293
 20
-25.6371
 30
0.0
  0
SPLINE
  5
48
330
1F
100
AcDbEntity
  8
Ilustrace
 62
   250
100
AcDbSpline
210
0.0
220
0.0
230
1.0
 70
    11
 71
     3
 72
    56
 73
    52
 74
     0
 42
0.0000000001
 43
0.0000000001
 40
0.0
 40
0.0
 40
0.0
 40
0.0
 40
0.0714285714285714
 40
0.0714285714285714
 40
0.0714285714285714
 40
0.0714285714285714
 40
0.1428571428571428
 40
0.1428571428571428
 40
0.1428571428571428
 40
0.1428571428571428
 40
0.2142857142857143
 40
0.2142857142857143
 40
0.2142857142857143
 40
0.2142857142857143
 40
0.2857142857142857
 40
0.2857142857142857
 40
0.2857142857142857
 40
0.2857142857142857
 40
0.3571428571428572
 40
0.3571428571428572
 40
0.3571428571428572
 40
0.3571428571428572
 40
0.4285714285714285
 40
0.4285714285714285
 40
0.4285714285714285
 40
0.4285714285714285
 40
0.5
 40
0.5
 40
0.5
 40
0.5
 40
0.5714285714285714
 40
0.5714285714285714
 40
0.5714285714285714
 40
0.5714285714285714
 40
0.6428571428571429
 40
0.6428571428571429
 40
0.6428571428571429
 40
0.6428571428571429
 40
0.7142857142857143
 40
0.7142857142857143
 40
0.7142857142857143
 40
0.7142857142857143
 40
0.7857142857142857
 40
0.7857142857142857
 40
0.7857142857142857
 40
0.7857142857142857
 40
0.8571428571428571
 40
0.8571428571428571
 40
0.8571428571428571
 40
0.8571428571428571
 40
1.0
 40
1.0
 40
1.0
 40
1.0
 10
-4.4236
 20
-22.5609
 30
0.0
 10
-4.3126
 20
-22.5619
 30
0.0
 10
-4.2176
 20
-22.5788
 30
0.0
 10
-4.1386
 20
-22.6127
 30
0.0
 10
-4.1386
 20
-22.6127
 30
0.0
 10
-4.0596
 20
-22.6466
 30
0.0
 10
-3.9956
 20
-22.6927
 30
0.0
 10
-3.9458
 20
-22.75
 30
0.0
 10
-3.9458
 20
-22.75
 30
0.0
 10
-3.8968
 20
-22.8074
 30
0.0
 10
-3.8601
 20
-22.8714
 30
0.0
 10
-3.8366
 20
-22.9419
 30
0.0
 10
-3.8366
 20
-22.9419
 30
0.0
 10
-3.814
 20
-23.0125
 30
0.0
 10
-3.8028
 20
-23.0849
 30
0.0
 10
-3.8028
 20
-23.1593
 30
0.0
 10
-3.8028
 20
-23.1593
 30
0.0
 10
-3.8037
 20
-23.2703
 30
0.0
 10
-3.8282
 20
-23.369
 30
0.0
 10
-3.8771
 20
-23.4556
 30
0.0
 10
-3.8771
 20
-23.4556
 30
0.0
 10
-3.926
 20
-23.5431
 30
0.0
 10
-3.9918
 20
-23.6174
 30
0.0
 10
-4.0765
 20
-23.6785
 30
0.0
 10
-4.0765
 20
-23.6785
 30
0.0
 10
-4.1602
 20
-23.7406
 30
0.0
 10
-4.2553
 20
-23.7895
 30
0.0
 10
-4.3616
 20
-23.8253
 30
0.0
 10
-4.3616
 20
-23.8253
 30
0.0
 10
-4.5036
 20
-23.7877
 30
0.0
 10
-4.6268
 20
-23.7397
 30
0.0
 10
-4.7322
 20
-23.6814
 30
0.0
 10
-4.7322
 20
-23.6814
 30
0.0
 10
-4.8376
 20
-23.6221
 30
0.0
 10
-4.9194
 20
-23.5487
 30
0.0
 10
-4.9768
 20
-23.4612
 30
0.0
 10
-4.9768
 20
-23.4612
 30
0.0
 10
-5.0342
 20
-23.3737
 30
0.0
 10
-5.0624
 20
-23.2693
 30
0.0
 10
-5.0615
 20
-23.148
 30
0.0
 10
-5.0615
 20
-23.148
 30
0.0
 10
-5.0615
 20
-23.0407
 30
0.0
 10
-5.037
 20
-22.9438
 30
0.0
 10
-4.9881
 20
-22.8554
 30
0.0
 10
-4.9881
 20
-22.8554
 30
0.0
 10
-4.9392
 20
-22.767
 30
0.0
 10
-4.8667
 20
-22.6964
 30
0.0
 10
-4.7717
 20
-22.6428
 30
0.0
 10
-4.7717
 20
-22.6428
 30
0.0
 10
-4.6776
 20
-22.5892
 30
0.0
 10
-4.561
 20
-22.5619
 30
0.0
 10
-4.4236
 20
-22.5609
 30
0.0
  0
SPLINE
  5
49
330
1F
100
AcDbEntity
  8
Ilustrace
 62
   250
100
AcDbSpline
210
0.0
220
0.0
230
1.0
 70
    11
 71
     3
 72
   124
 73
   120
 74
     0
 42
0.0000000001
 43
0.0000000001
 40
0.0
 40
0.0
 40
0.0
 40
0.0
 40
0.032258064516129
 40
0.032258064516129
 40
0.032258064516129
 40
0.032258064516129
 40
0.0645161290322581
 40
0.0645161290322581
 40
0.0645161290322581
 40
0.0645161290322581
 40
0.0967741935483871
 40
0.0967741935483871
 40
0.0967741935483871
 40
0.0967741935483871
 40
0.1290322580645161
 40
0.1290322580645161
 40
0.1290322580645161
 40
0.1290322580645161
 40
0.1612903225806452
 40
0.1612903225806452
 40
0.1612903225806452
 40
0.1612903225806452
 40
0.1935483870967742
 40
0.1935483870967742
 40
0.1935483870967742
 40
0.1935483870967742
 40
0.2258064516129032
 40
0.2258064516129032
 40
0.2258064516129032
 40
0.2258064516129032
 40
0.2580645161290323
 40
0.2580645161290323
 40
0.2580645161290323
 40
0.2580645161290323
 40
0.2903225806451613
 40
0.2903225806451613
 40
0.2903225806451613
 40
0.2903225806451613
 40
0.3225806451612903
 40
0.3225806451612903
 40
0.3225806451612903
 40
0.3225806451612903
 40
0.3548387096774194
 40
0.3548387096774194
 40
0.3548387096774194
 40
0.3548387096774194
 40
0.3870967741935484
 40
0.3870967741935484
 40
0.3870967741935484
 40
0.3870967741935484
 40
0.4193548387096774
 40
0.4193548387096774
 40
0.4193548387096774
 40
0.4193548387096774
 40
0.4516129032258064
 40
0.4516129032258064
 40
0.4516129032258064
 40
0.4516129032258064
 40
0.4838709677419355
 40
0.4838709677419355
 40
0.4838709677419355
 40
0.4838709677419355
 40
0.5161290322580645
 40
0.5161290322580645
 40
0.5161290322580645
 40
0.5161290322580645
 40
0.5483870967741935
 40
0.5483870967741935
 40
0.5483870967741935
 40
0.5483870967741935
 40
0.5806451612903226
 40
0.5806451612903226
 40
0.5806451612903226
 40
0.5806451612903226
 40
0.6129032258064516
 40
0.6129032258064516
 40
0.6129032258064516
 40
0.6129032258064516
 40
0.6451612903225806
 40
0.6451612903225806
 40
0.6451612903225806
 40
0.6451612903225806
 40
0.6774193548387096
 40
0.6774193548387096
 40
0.6774193548387096
 40
0.6774193548387096
 40
0.7096774193548387
 40
0.7096774193548387
 40
0.7096774193548387
 40
0.7096774193548387
 40
0.7419354838709677
 40
0.7419354838709677
 40
0.7419354838709677
 40
0.7419354838709677
 40
0.7741935483870968
 40
0.7741935483870968
 40
0.7741935483870968
 40
0.7741935483870968
 40
0.8064516129032258
 40
0.8064516129032258
 40
0.8064516129032258
 40
0.8064516129032258
 40
0.8387096774193549
 40
0.8387096774193549
 40
0.8387096774193549
 40
0.8387096774193549
 40
0.8709677419354839
 40
0.8709677419354839
 40
0.8709677419354839
 40
0.8709677419354839
 40
0.9032258064516129
 40
0.9032258064516129
 40
0.9032258064516129
 40
0.9032258064516129
 40
0.9354838709677419
 40
0.9354838709677419
 40
0.9354838709677419
 40
0.9354838709677419
 40
1.0
 40
1.0
 40
1.0
 40
1.0
 10
-0.3879
 20
-25.9363
 30
0.0
 10
-0.3879
 20
-25.9363
 30
0.0
 10
-0.3879
 20
-25.5243
 30
0.0
 10
-0.3879
 20
-25.5243
 30
0.0
 10
-0.3879
 20
-25.5243
 30
0.0
 10
-0.3879
 20
-25.5243
 30
0.0
 10
-2.0304
 20
-25.5243
 30
0.0
 10
-2.0304
 20
-25.5243
 30
0.0
 10
-2.0304
 20
-25.5243
 30
0.0
 10
-2.0304
 20
-25.5243
 30
0.0
 10
-2.0304
 20
-25.513
 30
0.0
 10
-2.0304
 20
-25.513
 30
0.0
 10
-2.0304
 20
-25.513
 30
0.0
 10
-2.0304
 20
-25.513
 30
0.0
 10
-1.7425
 20
-25.242
 30
0.0
 10
-1.7425
 20
-25.242
 30
0.0
 10
-1.7425
 20
-25.242
 30
0.0
 10
-1.5487
 20
-25.0567
 30
0.0
 10
-1.3738
 20
-24.8808
 30
0.0
 10
-1.2185
 20
-24.7152
 30
0.0
 10
-1.2185
 20
-24.7152
 30
0.0
 10
-1.0633
 20
-24.5497
 30
0.0
 10
-0.9307
 20
-24.3879
 30
0.0
 10
-0.8206
 20
-24.2317
 30
0.0
 10
-0.8206
 20
-24.2317
 30
0.0
 10
-0.7096
 20
-24.0755
 30
0.0
 10
-0.6259
 20
-23.9184
 30
0.0
 10
-0.5666
 20
-23.7604
 30
0.0
 10
-0.5666
 20
-23.7604
 30
0.0
 10
-0.5083
 20
-23.6033
 30
0.0
 10
-0.4791
 20
-23.4405
 30
0.0
 10
-0.4782
 20
-23.2721
 30
0.0
 10
-0.4782
 20
-23.2721
 30
0.0
 10
-0.4782
 20
-23.1395
 30
0.0
 10
-0.4989
 20
-23.0097
 30
0.0
 10
-0.5422
 20
-22.8836
 30
0.0
 10
-0.5422
 20
-22.8836
 30
0.0
 10
-0.5854
 20
-22.7576
 30
0.0
 10
-0.6532
 20
-22.6437
 30
0.0
 10
-0.7435
 20
-22.5421
 30
0.0
 10
-0.7435
 20
-22.5421
 30
0.0
 10
-0.8338
 20
-22.4396
 30
0.0
 10
-0.9504
 20
-22.3587
 30
0.0
 10
-1.0925
 20
-22.2985
 30
0.0
 10
-1.0925
 20
-22.2985
 30
0.0
 10
-1.2345
 20
-22.2373
 30
0.0
 10
-1.4039
 20
-22.2063
 30
0.0
 10
-1.6014
 20
-22.2054
 30
0.0
 10
-1.6014
 20
-22.2054
 30
0.0
 10
-1.7407
 20
-22.2063
 30
0.0
 10
-1.8733
 20
-22.2223
 30
0.0
 10
-1.9994
 20
-22.2552
 30
0.0
 10
-1.9994
 20
-22.2552
 30
0.0
 10
-2.1254
 20
-22.2881
 30
0.0
 10
-2.2421
 20
-22.3324
 30
0.0
 10
-2.3493
 20
-22.3888
 30
0.0
 10
-2.3493
 20
-22.3888
 30
0.0
 10
-2.4556
 20
-22.4443
 30
0.0
 10
-2.5506
 20
-22.5073
 30
0.0
 10
-2.6343
 20
-22.5779
 30
0.0
 10
-2.6343
 20
-22.5779
 30
0.0
 10
-2.6343
 20
-22.5779
 30
0.0
 10
-2.4763
 20
-22.9278
 30
0.0
 10
-2.4763
 20
-22.9278
 30
0.0
 10
-2.4763
 20
-22.9278
 30
0.0
 10
-2.4199
 20
-22.8799
 30
0.0
 10
-2.3521
 20
-22.8319
 30
0.0
 10
-2.2731
 20
-22.7848
 30
0.0
 10
-2.2731
 20
-22.7848
 30
0.0
 10
-2.1941
 20
-22.7369
 30
0.0
 10
-2.1066
 20
-22.6983
 30
0.0
 10
-2.0097
 20
-22.6663
 30
0.0
 10
-2.0097
 20
-22.6663
 30
0.0
 10
-1.9128
 20
-22.6353
 30
0.0
 10
-1.8084
 20
-22.6183
 30
0.0
 10
-1.6974
 20
-22.6174
 30
0.0
 10
-1.6974
 20
-22.6174
 30
0.0
 10
-1.561
 20
-22.6183
 30
0.0
 10
-1.4462
 20
-22.6381
 30
0.0
 10
-1.3531
 20
-22.6767
 30
0.0
 10
-1.3531
 20
-22.6767
 30
0.0
 10
-1.2609
 20
-22.7162
 30
0.0
 10
-1.1866
 20
-22.7689
 30
0.0
 10
-1.1311
 20
-22.8356
 30
0.0
 10
-1.1311
 20
-22.8356
 30
0.0
 10
-1.0756
 20
-22.9034
 30
0.0
 10
-1.0351
 20
-22.9796
 30
0.0
 10
-1.0106
 20
-23.0652
 30
0.0
 10
-1.0106
 20
-23.0652
 30
0.0
 10
-0.9862
 20
-23.1508
 30
0.0
 10
-0.974
 20
-23.2402
 30
0.0
 10
-0.9749
 20
-23.3342
 30
0.0
 10
-0.9749
 20
-23.3342
 30
0.0
 10
-0.9749
 20
-23.4716
 30
0.0
 10
-1.0022
 20
-23.607
 30
0.0
 10
-1.0567
 20
-23.7416
 30
0.0
 10
-1.0567
 20
-23.7416
 30
0.0
 10
-1.1113
 20
-23.877
 30
0.0
 10
-1.1941
 20
-24.0181
 30
0.0
 10
-1.306
 20
-24.1668
 30
0.0
 10
-1.306
 20
-24.1668
 30
0.0
 10
-1.418
 20
-24.3154
 30
0.0
 10
-1.56
 20
-24.4782
 30
0.0
 10
-1.7322
 20
-24.655
 30
0.0
 10
-1.7322
 20
-24.655
 30
0.0
 10
-1.9034
 20
-24.8319
 30
0.0
 10
-2.1066
 20
-25.0313
 30
0.0
 10
-2.3408
 20
-25.2533
 30
0.0
 10
-2.3408
 20
-25.2533
 30
0.0
 10
-2.3408
 20
-25.2533
 30
0.0
 10
-2.7303
 20
-25.6315
 30
0.0
 10
-2.7303
 20
-25.6315
 30
0.0
 10
-2.7303
 20
-25.6315
 30
0.0
 10
-2.7303
 20
-25.6315
 30
0.0
 10
-2.7303
 20
-25.9363
 30
0.0
 10
-2.7303
 20
-25.9363
 30
0.0
 10
-2.7303
 20
-25.9363
 30
0.0
 10
-2.7303
 20
-25.9363
 30
0.0
 10
-0.3879
 20
-25.9363
 30
0.0
 10
-0.3879
 20
-25.9363
 30
0.0
  0
SPLINE
  5
4A
330
1F
100
AcDbEntity
  8
Ilustrace
 62
   250
100
AcDbSpline
210
0.0
220
0.0
230
1.0
 70
    11
 71
     3
 72
   124
 73
   120
 74
     0
 42
0.0000000001
 43
0.0000000001
 40
0.0
 40
0.0
 40
0.0
 40
0.0
 40
0.032258064516129
 40
0.032258064516129
 40
0.032258064516129
 40
0.032258064516129
 40
0.0645161290322581
 40
0.0645161290322581
 40
0.0645161290322581
 40
0.0645161290322581
 40
0.0967741935483871
 40
0.0967741935483871
 40
0.0967741935483871
 40
0.0967741935483871
 40
0.1290322580645161
 40
0.1290322580645161
 40
0.1290322580645161
 40
0.1290322580645161
 40
0.1612903225806452
 40
0.1612903225806452
 40
0.1612903225806452
 40
0.1612903225806452
 40
0.1935483870967742
 40
0.1935483870967742
 40
0.1935483870967742
 40
0.1935483870967742
 40
0.2258064516129032
 40
0.2258064516129032
 40
0.2258064516129032
 40
0.2258064516129032
 40
0.2580645161290323
 40
0.2580645161290323
 40
0.2580645161290323
 40
0.2580645161290323
 40
0.2903225806451613
 40
0.2903225806451613
 40
0.2903225806451613
 40
0.2903225806451613
 40
0.3225806451612903
 40
0.3225806451612903
 40
0.3225806451612903
 40
0.3225806451612903
 40
0.3548387096774194
 40
0.3548387096774194
 40
0.3548387096774194
 40
0.3548387096774194
 40
0.3870967741935484
 40
0.3870967741935484
 40
0.3870967741935484
 40
0.3870967741935484
 40
0.4193548387096774
 40
0.4193548387096774
 40
0.4193548387096774
 40
0.4193548387096774
 40
0.4516129032258064
 40
0.4516129032258064
 40
0.4516129032258064
 40
0.4516129032258064
 40
0.4838709677419355
 40
0.4838709677419355
 40
0.4838709677419355
 40
0.4838709677419355
 40
0.5161290322580645
 40
0.5161290322580645
 40
0.5161290322580645
 40
0.5161290322580645
 40
0.5483870967741935
 40
0.5483870967741935
 40
0.5483870967741935
 40
0.5483870967741935
 40
0.5806451612903226
 40
0.5806451612903226
 40
0.5806451612903226
 40
0.5806451612903226
 40
0.6129032258064516
 40
0.6129032258064516
 40
0.6129032258064516
 40
0.6129032258064516
 40
0.6451612903225806
 40
0.6451612903225806
 40
0.6451612903225806
 40
0.6451612903225806
 40
0.6774193548387096
 40
0.6774193548387096
 40
0.6774193548387096
 40
0.6774193548387096
 40
0.7096774193548387
 40
0.7096774193548387
 40
0.7096774193548387
 40
0.7096774193548387
 40
0.7419354838709677
 40
0.7419354838709677
 40
0.7419354838709677
 40
0.7419354838709677
 40
0.7741935483870968
 40
0.7741935483870968
 40
0.7741935483870968
 40
0.7741935483870968
 40
0.8064516129032258
 40
0.8064516129032258
 40
0.8064516129032258
 40
0.8064516129032258
 40
0.8387096774193549
 40
0.8387096774193549
 40
0.8387096774193549
 40
0.8387096774193549
 40
0.8709677419354839
 40
0.8709677419354839
 40
0.8709677419354839
 40
0.8709677419354839
 40
0.9032258064516129
 40
0.9032258064516129
 40
0.9032258064516129
 40
0.9032258064516129
 40
0.9354838709677419
 40
0.9354838709677419
 40
0.9354838709677419
 40
0.9354838709677419
 40
1.0
 40
1.0
 40
1.0
 40
1.0
 10
23.6815
 20
13.5453
 30
0.0
 10
23.6815
 20
13.5453
 30
0.0
 10
23.9728
 20
13.8366
 30
0.0
 10
23.9728
 20
13.8366
 30
0.0
 10
23.9728
 20
13.8366
 30
0.0
 10
23.9728
 20
13.8366
 30
0.0
 10
22.8114
 20
14.998
 30
0.0
 10
22.8114
 20
14.998
 30
0.0
 10
22.8114
 20
14.998
 30
0.0
 10
22.8114
 20
14.998
 30
0.0
 10
22.8194
 20
15.006
 30
0.0
 10
22.8194
 20
15.006
 30
0.0
 10
22.8194
 20
15.006
 30
0.0
 10
22.8194
 20
15.006
 30
0.0
 10
23.2146
 20
14.994
 30
0.0
 10
23.2146
 20
14.994
 30
0.0
 10
23.2146
 20
14.994
 30
0.0
 10
23.4827
 20
14.988
 30
0.0
 10
23.7307
 20
14.9887
 30
0.0
 10
23.9576
 20
14.996
 30
0.0
 10
23.9576
 20
14.996
 30
0.0
 10
24.1844
 20
15.0033
 30
0.0
 10
24.3926
 20
15.024
 30
0.0
 10
24.5809
 20
15.0565
 30
0.0
 10
24.5809
 20
15.0565
 30
0.0
 10
24.7698
 20
15.0885
 30
0.0
 10
24.9401
 20
15.1404
 30
0.0
 10
25.0937
 20
15.2102
 30
0.0
 10
25.0937
 20
15.2102
 30
0.0
 10
25.2461
 20
15.2801
 30
0.0
 10
25.3818
 20
15.3745
 30
0.0
 10
25.5015
 20
15.493
 30
0.0
 10
25.5015
 20
15.493
 30
0.0
 10
25.5953
 20
15.5867
 30
0.0
 10
25.6724
 20
15.6932
 30
0.0
 10
25.731
 20
15.8129
 30
0.0
 10
25.731
 20
15.8129
 30
0.0
 10
25.7895
 20
15.9326
 30
0.0
 10
25.8221
 20
16.0611
 30
0.0
 10
25.8301
 20
16.1968
 30
0.0
 10
25.8301
 20
16.1968
 30
0.0
 10
25.8388
 20
16.3331
 30
0.0
 10
25.8135
 20
16.4727
 30
0.0
 10
25.7556
 20
16.6158
 30
0.0
 10
25.7556
 20
16.6158
 30
0.0
 10
25.6985
 20
16.7595
 30
0.0
 10
25.6006
 20
16.9012
 30
0.0
 10
25.4616
 20
17.0415
 30
0.0
 10
25.4616
 20
17.0415
 30
0.0
 10
25.3624
 20
17.1393
 30
0.0
 10
25.2574
 20
17.2218
 30
0.0
 10
25.1449
 20
17.2877
 30
0.0
 10
25.1449
 20
17.2877
 30
0.0
 10
25.0326
 20
17.3535
 30
0.0
 10
24.9187
 20
17.4047
 30
0.0
 10
24.8031
 20
17.4406
 30
0.0
 10
24.8031
 20
17.4406
 30
0.0
 10
24.6886
 20
17.4766
 30
0.0
 10
24.5769
 20
17.4992
 30
0.0
 10
24.4678
 20
17.5084
 30
0.0
 10
24.4678
 20
17.5084
 30
0.0
 10
24.4678
 20
17.5084
 30
0.0
 10
24.3321
 20
17.1493
 30
0.0
 10
24.3321
 20
17.1493
 30
0.0
 10
24.3321
 20
17.1493
 30
0.0
 10
24.4059
 20
17.1433
 30
0.0
 10
24.4878
 20
17.1293
 30
0.0
 10
24.5769
 20
17.1067
 30
0.0
 10
24.5769
 20
17.1067
 30
0.0
 10
24.6667
 20
17.0847
 30
0.0
 10
24.7558
 20
17.0502
 30
0.0
 10
24.847
 20
17.0043
 30
0.0
 10
24.847
 20
17.0043
 30
0.0
 10
24.9374
 20
16.9577
 30
0.0
 10
25.0232
 20
16.8959
 30
0.0
 10
25.1024
 20
16.818
 30
0.0
 10
25.1024
 20
16.818
 30
0.0
 10
25.1982
 20
16.7209
 30
0.0
 10
25.2654
 20
16.6258
 30
0.0
 10
25.3039
 20
16.5326
 30
0.0
 10
25.3039
 20
16.5326
 30
0.0
 10
25.3412
 20
16.4395
 30
0.0
 10
25.3564
 20
16.3497
 30
0.0
 10
25.3485
 20
16.2633
 30
0.0
 10
25.3485
 20
16.2633
 30
0.0
 10
25.3398
 20
16.1761
 30
0.0
 10
25.3146
 20
16.0936
 30
0.0
 10
25.2714
 20
16.0157
 30
0.0
 10
25.2714
 20
16.0157
 30
0.0
 10
25.2281
 20
15.938
 30
0.0
 10
25.1735
 20
15.8661
 30
0.0
 10
25.1064
 20
15.8003
 30
0.0
 10
25.1064
 20
15.8003
 30
0.0
 10
25.0092
 20
15.7031
 30
0.0
 10
24.8942
 20
15.6267
 30
0.0
 10
24.7605
 20
15.5701
 30
0.0
 10
24.7605
 20
15.5701
 30
0.0
 10
24.6261
 20
15.5129
 30
0.0
 10
24.4678
 20
15.4717
 30
0.0
 10
24.2835
 20
15.4457
 30
0.0
 10
24.2835
 20
15.4457
 30
0.0
 10
24.0993
 20
15.4198
 30
0.0
 10
23.8837
 20
15.4051
 30
0.0
 10
23.637
 20
15.4018
 30
0.0
 10
23.637
 20
15.4018
 30
0.0
 10
23.3908
 20
15.3978
 30
0.0
 10
23.1061
 20
15.4005
 30
0.0
 10
22.7836
 20
15.4091
 30
0.0
 10
22.7836
 20
15.4091
 30
0.0
 10
22.7836
 20
15.4091
 30
0.0
 10
22.2407
 20
15.4171
 30
0.0
 10
22.2407
 20
15.4171
 30
0.0
 10
22.2407
 20
15.4171
 30
0.0
 10
22.2407
 20
15.4171
 30
0.0
 10
22.0252
 20
15.2016
 30
0.0
 10
22.0252
 20
15.2016
 30
0.0
 10
22.0252
 20
15.2016
 30
0.0
 10
22.0252
 20
15.2016
 30
0.0
 10
23.6815
 20
13.5453
 30
0.0
 10
23.6815
 20
13.5453
 30
0.0
  0
SPLINE
  5
4B
330
1F
100
AcDbEntity
  8
Ilustrace
 62
   250
100
AcDbSpline
210
0.0
220
0.0
230
1.0
 70
    11
 71
     3
 72
    36
 73
    32
 74
     0
 42
0.0000000001
 43
0.0000000001
 40
0.0
 40
0.0
 40
0.0
 40
0.0
 40
0.1111111111111111
 40
0.1111111111111111
 40
0.1111111111111111
 40
0.1111111111111111
 40
0.2222222222222222
 40
0.2222222222222222
 40
0.2222222222222222
 40
0.2222222222222222
 40
0.3333333333333333
 40
0.3333333333333333
 40
0.3333333333333333
 40
0.3333333333333333
 40
0.4444444444444444
 40
0.4444444444444444
 40
0.4444444444444444
 40
0.4444444444444444
 40
0.5555555555555556
 40
0.5555555555555556
 40
0.5555555555555556
 40
0.5555555555555556
 40
0.6666666666666666
 40
0.6666666666666666
 40
0.6666666666666666
 40
0.6666666666666666
 40
0.7777777777777778
 40
0.7777777777777778
 40
0.7777777777777778
 40
0.7777777777777778
 40
1.0
 40
1.0
 40
1.0
 40
1.0
 10
26.7149
 20
15.7005
 30
0.0
 10
26.7149
 20
15.7005
 30
0.0
 10
26.4235
 20
15.4091
 30
0.0
 10
26.4235
 20
15.4091
 30
0.0
 10
26.4235
 20
15.4091
 30
0.0
 10
26.4235
 20
15.4091
 30
0.0
 10
27.6927
 20
14.1399
 30
0.0
 10
27.6927
 20
14.1399
 30
0.0
 10
27.6927
 20
14.1399
 30
0.0
 10
27.6927
 20
14.1399
 30
0.0
 10
27.6847
 20
14.1319
 30
0.0
 10
27.6847
 20
14.1319
 30
0.0
 10
27.6847
 20
14.1319
 30
0.0
 10
27.6847
 20
14.1319
 30
0.0
 10
24.2642
 20
12.9625
 30
0.0
 10
24.2642
 20
12.9625
 30
0.0
 10
24.2642
 20
12.9625
 30
0.0
 10
24.2642
 20
12.9625
 30
0.0
 10
24.6275
 20
12.5993
 30
0.0
 10
24.6275
 20
12.5993
 30
0.0
 10
24.6275
 20
12.5993
 30
0.0
 10
24.6275
 20
12.5993
 30
0.0
 10
28.1197
 20
13.8326
 30
0.0
 10
28.1197
 20
13.8326
 30
0.0
 10
28.1197
 20
13.8326
 30
0.0
 10
28.1197
 20
13.8326
 30
0.0
 10
28.3512
 20
14.0641
 30
0.0
 10
28.3512
 20
14.0641
 30
0.0
 10
28.3512
 20
14.0641
 30
0.0
 10
28.3512
 20
14.0641
 30
0.0
 10
26.7149
 20
15.7005
 30
0.0
 10
26.7149
 20
15.7005
 30
0.0
  0
SPLINE
  5
4C
330
1F
100
AcDbEntity
  8
Ilustrace
 62
   250
100
AcDbSpline
210
0.0
220
0.0
230
1.0
 70
    11
 71
     3
 72
    56
 73
    52
 74
     0
 42
0.0000000001
 43
0.0000000001
 40
0.0
 40
0.0
 40
0.0
 40
0.0
 40
0.0714285714285714
 40
0.0714285714285714
 40
0.0714285714285714
 40
0.0714285714285714
 40
0.1428571428571428
 40
0.1428571428571428
 40
0.1428571428571428
 40
0.1428571428571428
 40
0.2142857142857143
 40
0.2142857142857143
 40
0.2142857142857143
 40
0.2142857142857143
 40
0.2857142857142857
 40
0.2857142857142857
 40
0.2857142857142857
 40
0.2857142857142857
 40
0.3571428571428572
 40
0.3571428571428572
 40
0.3571428571428572
 40
0.3571428571428572
 40
0.4285714285714285
 40
0.4285714285714285
 40
0.4285714285714285
 40
0.4285714285714285
 40
0.5
 40
0.5
 40
0.5
 40
0.5
 40
0.5714285714285714
 40
0.5714285714285714
 40
0.5714285714285714
 40
0.5714285714285714
 40
0.6428571428571429
 40
0.6428571428571429
 40
0.6428571428571429
 40
0.6428571428571429
 40
0.7142857142857143
 40
0.7142857142857143
 40
0.7142857142857143
 40
0.7142857142857143
 40
0.7857142857142857
 40
0.7857142857142857
 40
0.7857142857142857
 40
0.7857142857142857
 40
0.8571428571428571
 40
0.8571428571428571
 40
0.8571428571428571
 40
0.8571428571428571
 40
1.0
 40
1.0
 40
1.0
 40
1.0
 10
29.6284
 20
12.8746
 30
0.0
 10
29.4961
 20
13.007
 30
0.0
 10
29.3458
 20
13.0989
 30
0.0
 10
29.1768
 20
13.1508
 30
0.0
 10
29.1768
 20
13.1508
 30
0.0
 10
29.0078
 20
13.2027
 30
0.0
 10
28.8268
 20
13.2119
 30
0.0
 10
28.6313
 20
13.1787
 30
0.0
 10
28.6313
 20
13.1787
 30
0.0
 10
28.4357
 20
13.1454
 30
0.0
 10
28.2322
 20
13.067
 30
0.0
 10
28.02
 20
12.9439
 30
0.0
 10
28.02
 20
12.9439
 30
0.0
 10
27.8085
 20
12.8202
 30
0.0
 10
27.5929
 20
12.6498
 30
0.0
 10
27.3734
 20
12.4316
 30
0.0
 10
27.3734
 20
12.4316
 30
0.0
 10
27.0907
 20
12.141
 30
0.0
 10
26.8865
 20
11.8609
 30
0.0
 10
26.7608
 20
11.5902
 30
0.0
 10
26.7608
 20
11.5902
 30
0.0
 10
26.635
 20
11.3195
 30
0.0
 10
26.5852
 20
11.0687
 30
0.0
 10
26.6104
 20
10.8385
 30
0.0
 10
26.6104
 20
10.8385
 30
0.0
 10
26.6357
 20
10.6084
 30
0.0
 10
26.7329
 20
10.4075
 30
0.0
 10
26.9025
 20
10.2365
 30
0.0
 10
26.9025
 20
10.2365
 30
0.0
 10
27.0941
 20
10.0463
 30
0.0
 10
27.3095
 20
9.9372
 30
0.0
 10
27.549
 20
9.9079
 30
0.0
 10
27.549
 20
9.9079
 30
0.0
 10
27.7885
 20
9.8786
 30
0.0
 10
28.0452
 20
9.9305
 30
0.0
 10
28.3194
 20
10.0635
 30
0.0
 10
28.3194
 20
10.0635
 30
0.0
 10
28.5941
 20
10.196
 30
0.0
 10
28.8781
 20
10.4094
 30
0.0
 10
29.1734
 20
10.7035
 30
0.0
 10
29.1734
 20
10.7035
 30
0.0
 10
29.4488
 20
10.9802
 30
0.0
 10
29.6511
 20
11.2503
 30
0.0
 10
29.7795
 20
11.513
 30
0.0
 10
29.7795
 20
11.513
 30
0.0
 10
29.9079
 20
11.7758
 30
0.0
 10
29.9597
 20
12.0232
 30
0.0
 10
29.9351
 20
12.254
 30
0.0
 10
29.9351
 20
12.254
 30
0.0
 10
29.9111
 20
12.4856
 30
0.0
 10
29.8094
 20
12.6924
 30
0.0
 10
29.6284
 20
12.8746
 30
0.0
  0
SPLINE
  5
4D
330
1F
100
AcDbEntity
  8
Ilustrace
 62
   250
100
AcDbSpline
210
0.0
220
0.0
230
1.0
 70
    11
 71
     3
 72
    56
 73
    52
 74
     0
 42
0.0000000001
 43
0.0000000001
 40
0.0
 40
0.0
 40
0.0
 40
0.0
 40
0.0714285714285714
 40
0.0714285714285714
 40
0.0714285714285714
 40
0.0714285714285714
 40
0.1428571428571428
 40
0.1428571428571428
 40
0.1428571428571428
 40
0.1428571428571428
 40
0.2142857142857143
 40
0.2142857142857143
 40
0.2142857142857143
 40
0.2142857142857143
 40
0.2857142857142857
 40
0.2857142857142857
 40
0.2857142857142857
 40
0.2857142857142857
 40
0.3571428571428572
 40
0.3571428571428572
 40
0.3571428571428572
 40
0.3571428571428572
 40
0.4285714285714285
 40
0.4285714285714285
 40
0.4285714285714285
 40
0.4285714285714285
 40
0.5
 40
0.5
 40
0.5
 40
0.5
 40
0.5714285714285714
 40
0.5714285714285714
 40
0.5714285714285714
 40
0.5714285714285714
 40
0.6428571428571429
 40
0.6428571428571429
 40
0.6428571428571429
 40
0.6428571428571429
 40
0.7142857142857143
 40
0.7142857142857143
 40
0.7142857142857143
 40
0.7142857142857143
 40
0.7857142857142857
 40
0.7857142857142857
 40
0.7857142857142857
 40
0.7857142857142857
 40
0.8571428571428571
 40
0.8571428571428571
 40
0.8571428571428571
 40
0.8571428571428571
 40
1.0
 40
1.0
 40
1.0
 40
1.0
 10
29.3331
 20
12.6272
 30
0.0
 10
29.4242
 20
12.5348
 30
0.0
 10
29.4788
 20
12.431
 30
0.0
 10
29.4954
 20
12.3145
 30
0.0
 10
29.4954
 20
12.3145
 30
0.0
 10
29.512
 20
12.1982
 30
0.0
 10
29.4954
 20
12.0724
 30
0.0
 10
29.4449
 20
11.9367
 30
0.0
 10
29.4449
 20
11.9367
 30
0.0
 10
29.3949
 20
11.8017
 30
0.0
 10
29.3151
 20
11.6581
 30
0.0
 10
29.2067
 20
11.5084
 30
0.0
 10
29.2067
 20
11.5084
 30
0.0
 10
29.0977
 20
11.358
 30
0.0
 10
28.9626
 20
11.203
 30
0.0
 10
28.8023
 20
11.0427
 30
0.0
 10
28.8023
 20
11.0427
 30
0.0
 10
28.5801
 20
10.8206
 30
0.0
 10
28.3692
 20
10.6482
 30
0.0
 10
28.1697
 20
10.5259
 30
0.0
 10
28.1697
 20
10.5259
 30
0.0
 10
27.9701
 20
10.4022
 30
0.0
 10
27.7872
 20
10.3363
 30
0.0
 10
27.6216
 20
10.3263
 30
0.0
 10
27.6216
 20
10.3263
 30
0.0
 10
27.4559
 20
10.3163
 30
0.0
 10
27.3136
 20
10.3708
 30
0.0
 10
27.1938
 20
10.4879
 30
0.0
 10
27.1938
 20
10.4879
 30
0.0
 10
27.0874
 20
10.5957
 30
0.0
 10
27.0362
 20
10.7294
 30
0.0
 10
27.0394
 20
10.8911
 30
0.0
 10
27.0394
 20
10.8911
 30
0.0
 10
27.0435
 20
11.0521
 30
0.0
 10
27.1026
 20
11.2323
 30
0.0
 10
27.2164
 20
11.4325
 30
0.0
 10
27.2164
 20
11.4325
 30
0.0
 10
27.3308
 20
11.6334
 30
0.0
 10
27.4998
 20
11.8463
 30
0.0
 10
27.7247
 20
12.0724
 30
0.0
 10
27.7247
 20
12.0724
 30
0.0
 10
27.9615
 20
12.308
 30
0.0
 10
28.1823
 20
12.4823
 30
0.0
 10
28.3885
 20
12.5979
 30
0.0
 10
28.3885
 20
12.5979
 30
0.0
 10
28.5941
 20
12.713
 30
0.0
 10
28.7769
 20
12.7722
 30
0.0
 10
28.9386
 20
12.7756
 30
0.0
 10
28.9386
 20
12.7756
 30
0.0
 10
29.0996
 20
12.7783
 30
0.0
 10
29.2313
 20
12.729
 30
0.0
 10
29.3331
 20
12.6272
 30
0.0
  0
SPLINE
  5
4E
330
1F
100
AcDbEntity
  8
Ilustrace
 62
   250
370
    15
100
AcDbSpline
210
0.0
220
0.0
230
1.0
 70
    24
 71
     3
 72
     8
 73
     4
 74
     0
 42
0.0000000001
 43
0.0000000001
 40
0.0
 40
0.0
 40
0.0
 40
0.0
 40
1.0
 40
1.0
 40
1.0
 40
1.0
 10
-57.1452
 20
-26.7069
 30
0.0
 10
-57.1452
 20
-26.7069
 30
0.0
 10
-57.1452
 20
-20.5429
 30
0.0
 10
-57.1452
 20
-20.5429
 30
0.0
  0
SPLINE
  5
4F
330
1F
100
AcDbEntity
  8
Ilustrace
 62
   250
370
    15
100
AcDbSpline
210
0.0
220
0.0
230
1.0
 70
    24
 71
     3
 72
     8
 73
     4
 74
     0
 42
0.0000000001
 43
0.0000000001
 40
0.0
 40
0.0
 40
0.0
 40
0.0
 40
1.0
 40
1.0
 40
1.0
 40
1.0
 10
-2.3141
 20
34.4961
 30
0.0
 10
-2.3141
 20
34.4961
 30
0.0
 10
-0.1746
 20
36.6356
 30
0.0
 10
-0.1746
 20
36.6356
 30
0.0
  0
SPLINE
  5
50
330
1F
100
AcDbEntity
  8
Ilustrace
 62
   250
370
    15
100
AcDbSpline
210
0.0
220
0.0
230
1.0
 70
    24
 71
     3
 72
     8
 73
     4
 74
     0
 42
0.0000000001
 43
0.0000000001
 40
0.0
 40
0.0
 40
0.0
 40
0.0
 40
1.0
 40
1.0
 40
1.0
 40
1.0
 10
52.1296
 20
-32.3682
 30
0.0
 10
52.1296
 20
-32.3682
 30
0.0
 10
57.084
 20
-32.3682
 30
0.0
 10
57.084
 20
-32.3682
 30
0.0
  0
SPLINE
  5
51
330
1F
100
AcDbEntity
  8
Ilustrace
 62
   250
370
    15
100
AcDbSpline
210
0.0
220
0.0
230
1.0
 70
    24
 71
     3
 72
     8
 73
     4
 74
     0
 42
0.0000000001
 43
0.0000000001
 40
0.0
 40
0.0
 40
0.0
 40
0.0
 40
1.0
 40
1.0
 40
1.0
 40
1.0
 10
52.3317
 20
-31.1375
 30
0.0
 10
52.3317
 20
-31.1375
 30
0.0
 10
57.1454
 20
-31.1375
 30
0.0
 10
57.1454
 20
-31.1375
 30
0.0
  0
SPLINE
  5
52
330
1F
100
AcDbEntity
  8
Ilustrace
 62
   250
370
    15
100
AcDbSpline
210
0.0
220
0.0
230
1.0
 70
    24
 71
     3
 72
     8
 73
     4
 74
     0
 42
0.0000000001
 43
0.0000000001
 40
0.0
 40
0.0
 40
0.0
 40
0.0
 40
1.0
 40
1.0
 40
1.0
 40
1.0
 10
56.649
 20
-25.953
 30
0.0
 10
56.649
 20
-25.953
 30
0.0
 10
56.649
 20
-36.6356
 30
0.0
 10
56.649
 20
-36.6356
 30
0.0
  0
SPLINE
  5
53
330
1F
100
AcDbEntity
  8
Ilustrace
 62
   250
100
AcDbSpline
210
0.0
220
0.0
230
1.0
 70
    11
 71
     3
 72
    48
 73
    44
 74
     0
 42
0.0000000001
 43
0.0000000001
 40
0.0
 40
0.0
 40
0.0
 40
0.0
 40
0.0833333333333333
 40
0.0833333333333333
 40
0.0833333333333333
 40
0.0833333333333333
 40
0.1666666666666667
 40
0.1666666666666667
 40
0.1666666666666667
 40
0.1666666666666667
 40
0.25
 40
0.25
 40
0.25
 40
0.25
 40
0.3333333333333333
 40
0.3333333333333333
 40
0.3333333333333333
 40
0.3333333333333333
 40
0.4166666666666667
 40
0.4166666666666667
 40
0.4166666666666667
 40
0.4166666666666667
 40
0.5
 40
0.5
 40
0.5
 40
0.5
 40
0.5833333333333334
 40
0.5833333333333334
 40
0.5833333333333334
 40
0.5833333333333334
 40
0.6666666666666666
 40
0.6666666666666666
 40
0.6666666666666666
 40
0.6666666666666666
 40
0.75
 40
0.75
 40
0.75
 40
0.75
 40
0.8333333333333334
 40
0.8333333333333334
 40
0.8333333333333334
 40
0.8333333333333334
 40
1.0
 40
1.0
 40
1.0
 40
1.0
 10
56.0147
 20
-27.0903
 30
0.0
 10
56.0147
 20
-27.0903
 30
0.0
 10
55.01
 20
-27.0903
 30
0.0
 10
55.01
 20
-27.0903
 30
0.0
 10
55.01
 20
-27.0903
 30
0.0
 10
55.01
 20
-27.0903
 30
0.0
 10
55.01
 20
-26.5767
 30
0.0
 10
55.01
 20
-26.5767
 30
0.0
 10
55.01
 20
-26.5767
 30
0.0
 10
55.01
 20
-26.5767
 30
0.0
 10
54.6262
 20
-26.5767
 30
0.0
 10
54.6262
 20
-26.5767
 30
0.0
 10
54.6262
 20
-26.5767
 30
0.0
 10
54.6262
 20
-26.5767
 30
0.0
 10
54.6262
 20
-27.0903
 30
0.0
 10
54.6262
 20
-27.0903
 30
0.0
 10
54.6262
 20
-27.0903
 30
0.0
 10
54.6262
 20
-27.0903
 30
0.0
 10
52.3458
 20
-27.0903
 30
0.0
 10
52.3458
 20
-27.0903
 30
0.0
 10
52.3458
 20
-27.0903
 30
0.0
 10
52.3458
 20
-27.0903
 30
0.0
 10
52.3458
 20
-27.6266
 30
0.0
 10
52.3458
 20
-27.6266
 30
0.0
 10
52.3458
 20
-27.6266
 30
0.0
 10
52.3458
 20
-27.6266
 30
0.0
 10
54.6883
 20
-29.2634
 30
0.0
 10
54.6883
 20
-29.2634
 30
0.0
 10
54.6883
 20
-29.2634
 30
0.0
 10
54.6883
 20
-29.2634
 30
0.0
 10
55.01
 20
-29.2634
 30
0.0
 10
55.01
 20
-29.2634
 30
0.0
 10
55.01
 20
-29.2634
 30
0.0
 10
55.01
 20
-29.2634
 30
0.0
 10
55.01
 20
-27.5588
 30
0.0
 10
55.01
 20
-27.5588
 30
0.0
 10
55.01
 20
-27.5588
 30
0.0
 10
55.01
 20
-27.5588
 30
0.0
 10
56.0147
 20
-27.5588
 30
0.0
 10
56.0147
 20
-27.5588
 30
0.0
 10
56.0147
 20
-27.5588
 30
0.0
 10
56.0147
 20
-27.5588
 30
0.0
 10
56.0147
 20
-27.0903
 30
0.0
 10
56.0147
 20
-27.0903
 30
0.0
  0
SPLINE
  5
54
330
1F
100
AcDbEntity
  8
Ilustrace
 62
   250
100
AcDbSpline
210
0.0
220
0.0
230
1.0
 70
    11
 71
     3
 72
    36
 73
    32
 74
     0
 42
0.0000000001
 43
0.0000000001
 40
0.0
 40
0.0
 40
0.0
 40
0.0
 40
0.1111111111111111
 40
0.1111111111111111
 40
0.1111111111111111
 40
0.1111111111111111
 40
0.2222222222222222
 40
0.2222222222222222
 40
0.2222222222222222
 40
0.2222222222222222
 40
0.3333333333333333
 40
0.3333333333333333
 40
0.3333333333333333
 40
0.3333333333333333
 40
0.4444444444444444
 40
0.4444444444444444
 40
0.4444444444444444
 40
0.4444444444444444
 40
0.5555555555555556
 40
0.5555555555555556
 40
0.5555555555555556
 40
0.5555555555555556
 40
0.6666666666666666
 40
0.6666666666666666
 40
0.6666666666666666
 40
0.6666666666666666
 40
0.7777777777777778
 40
0.7777777777777778
 40
0.7777777777777778
 40
0.7777777777777778
 40
1.0
 40
1.0
 40
1.0
 40
1.0
 10
54.6262
 20
-28.7611
 30
0.0
 10
54.6262
 20
-28.7611
 30
0.0
 10
54.6149
 20
-28.7611
 30
0.0
 10
54.6149
 20
-28.7611
 30
0.0
 10
54.6149
 20
-28.7611
 30
0.0
 10
54.6149
 20
-28.7611
 30
0.0
 10
53.3675
 20
-27.8636
 30
0.0
 10
53.3675
 20
-27.8636
 30
0.0
 10
53.3675
 20
-27.8636
 30
0.0
 10
53.2838
 20
-27.8138
 30
0.0
 10
53.1991
 20
-27.7639
 30
0.0
 10
53.1135
 20
-27.715
 30
0.0
 10
53.1135
 20
-27.715
 30
0.0
 10
53.0269
 20
-27.667
 30
0.0
 10
52.931
 20
-27.6143
 30
0.0
 10
52.8256
 20
-27.5588
 30
0.0
 10
52.8256
 20
-27.5588
 30
0.0
 10
52.8256
 20
-27.5588
 30
0.0
 10
52.8256
 20
-27.5419
 30
0.0
 10
52.8256
 20
-27.5419
 30
0.0
 10
52.8256
 20
-27.5419
 30
0.0
 10
53.0175
 20
-27.5532
 30
0.0
 10
53.2094
 20
-27.5588
 30
0.0
 10
53.4013
 20
-27.5588
 30
0.0
 10
53.4013
 20
-27.5588
 30
0.0
 10
53.4013
 20
-27.5588
 30
0.0
 10
54.6262
 20
-27.5588
 30
0.0
 10
54.6262
 20
-27.5588
 30
0.0
 10
54.6262
 20
-27.5588
 30
0.0
 10
54.6262
 20
-27.5588
 30
0.0
 10
54.6262
 20
-28.7611
 30
0.0
 10
54.6262
 20
-28.7611
 30
0.0
  0
SPLINE
  5
55
330
1F
100
AcDbEntity
  8
Ilustrace
 62
   250
100
AcDbSpline
210
0.0
220
0.0
230
1.0
 70
    11
 71
     3
 72
   604
 73
   600
 74
     0
 42
0.0000000001
 43
0.0000000001
 40
0.0
 40
0.0
 40
0.0
 40
0.0
 40
0.0066225165562914
 40
0.0066225165562914
 40
0.0066225165562914
 40
0.0066225165562914
 40
0.0132450331125828
 40
0.0132450331125828
 40
0.0132450331125828
 40
0.0132450331125828
 40
0.0198675496688742
 40
0.0198675496688742
 40
0.0198675496688742
 40
0.0198675496688742
 40
0.0264900662251656
 40
0.0264900662251656
 40
0.0264900662251656
 40
0.0264900662251656
 40
0.033112582781457
 40
0.033112582781457
 40
0.033112582781457
 40
0.033112582781457
 40
0.0397350993377483
 40
0.0397350993377483
 40
0.0397350993377483
 40
0.0397350993377483
 40
0.0463576158940397
 40
0.0463576158940397
 40
0.0463576158940397
 40
0.0463576158940397
 40
0.0529801324503311
 40
0.0529801324503311
 40
0.0529801324503311
 40
0.0529801324503311
 40
0.0596026490066225
 40
0.0596026490066225
 40
0.0596026490066225
 40
0.0596026490066225
 40
0.0662251655629139
 40
0.0662251655629139
 40
0.0662251655629139
 40
0.0662251655629139
 40
0.0728476821192053
 40
0.0728476821192053
 40
0.0728476821192053
 40
0.0728476821192053
 40
0.0794701986754967
 40
0.0794701986754967
 40
0.0794701986754967
 40
0.0794701986754967
 40
0.0860927152317881
 40
0.0860927152317881
 40
0.0860927152317881
 40
0.0860927152317881
 40
0.0927152317880795
 40
0.0927152317880795
 40
0.0927152317880795
 40
0.0927152317880795
 40
0.0993377483443709
 40
0.0993377483443709
 40
0.0993377483443709
 40
0.0993377483443709
 40
0.1059602649006623
 40
0.1059602649006623
 40
0.1059602649006623
 40
0.1059602649006623
 40
0.1125827814569536
 40
0.1125827814569536
 40
0.1125827814569536
 40
0.1125827814569536
 40
0.119205298013245
 40
0.119205298013245
 40
0.119205298013245
 40
0.119205298013245
 40
0.1258278145695364
 40
0.1258278145695364
 40
0.1258278145695364
 40
0.1258278145695364
 40
0.1324503311258278
 40
0.1324503311258278
 40
0.1324503311258278
 40
0.1324503311258278
 40
0.1390728476821192
 40
0.1390728476821192
 40
0.1390728476821192
 40
0.1390728476821192
 40
0.1456953642384106
 40
0.1456953642384106
 40
0.1456953642384106
 40
0.1456953642384106
 40
0.152317880794702
 40
0.152317880794702
 40
0.152317880794702
 40
0.152317880794702
 40
0.1589403973509934
 40
0.1589403973509934
 40
0.1589403973509934
 40
0.1589403973509934
 40
0.1655629139072848
 40
0.1655629139072848
 40
0.1655629139072848
 40
0.1655629139072848
 40
0.1721854304635762
 40
0.1721854304635762
 40
0.1721854304635762
 40
0.1721854304635762
 40
0.1788079470198675
 40
0.1788079470198675
 40
0.1788079470198675
 40
0.1788079470198675
 40
0.1854304635761589
 40
0.1854304635761589
 40
0.1854304635761589
 40
0.1854304635761589
 40
0.1920529801324503
 40
0.1920529801324503
 40
0.1920529801324503
 40
0.1920529801324503
 40
0.1986754966887417
 40
0.1986754966887417
 40
0.1986754966887417
 40
0.1986754966887417
 40
0.2052980132450331
 40
0.2052980132450331
 40
0.2052980132450331
 40
0.2052980132450331
 40
0.2119205298013245
 40
0.2119205298013245
 40
0.2119205298013245
 40
0.2119205298013245
 40
0.2185430463576159
 40
0.2185430463576159
 40
0.2185430463576159
 40
0.2185430463576159
 40
0.2251655629139073
 40
0.2251655629139073
 40
0.2251655629139073
 40
0.2251655629139073
 40
0.2317880794701987
 40
0.2317880794701987
 40
0.2317880794701987
 40
0.2317880794701987
 40
0.2384105960264901
 40
0.2384105960264901
 40
0.2384105960264901
 40
0.2384105960264901
 40
0.2450331125827815
 40
0.2450331125827815
 40
0.2450331125827815
 40
0.2450331125827815
 40
0.2516556291390729
 40
0.2516556291390729
 40
0.2516556291390729
 40
0.2516556291390729
 40
0.2582781456953642
 40
0.2582781456953642
 40
0.2582781456953642
 40
0.2582781456953642
 40
0.2649006622516556
 40
0.2649006622516556
 40
0.2649006622516556
 40
0.2649006622516556
 40
0.271523178807947
 40
0.271523178807947
 40
0.271523178807947
 40
0.271523178807947
 40
0.2781456953642384
 40
0.2781456953642384
 40
0.2781456953642384
 40
0.2781456953642384
 40
0.2847682119205298
 40
0.2847682119205298
 40
0.2847682119205298
 40
0.2847682119205298
 40
0.2913907284768212
 40
0.2913907284768212
 40
0.2913907284768212
 40
0.2913907284768212
 40
0.2980132450331126
 40
0.2980132450331126
 40
0.2980132450331126
 40
0.2980132450331126
 40
0.304635761589404
 40
0.304635761589404
 40
0.304635761589404
 40
0.304635761589404
 40
0.3112582781456953
 40
0.3112582781456953
 40
0.3112582781456953
 40
0.3112582781456953
 40
0.3178807947019868
 40
0.3178807947019868
 40
0.3178807947019868
 40
0.3178807947019868
 40
0.3245033112582781
 40
0.3245033112582781
 40
0.3245033112582781
 40
0.3245033112582781
 40
0.3311258278145696
 40
0.3311258278145696
 40
0.3311258278145696
 40
0.3311258278145696
 40
0.3377483443708609
 40
0.3377483443708609
 40
0.3377483443708609
 40
0.3377483443708609
 40
0.3443708609271523
 40
0.3443708609271523
 40
0.3443708609271523
 40
0.3443708609271523
 40
0.3509933774834437
 40
0.3509933774834437
 40
0.3509933774834437
 40
0.3509933774834437
 40
0.3576158940397351
 40
0.3576158940397351
 40
0.3576158940397351
 40
0.3576158940397351
 40
0.3642384105960265
 40
0.3642384105960265
 40
0.3642384105960265
 40
0.3642384105960265
 40
0.3708609271523179
 40
0.3708609271523179
 40
0.3708609271523179
 40
0.3708609271523179
 40
0.3774834437086093
 40
0.3774834437086093
 40
0.3774834437086093
 40
0.3774834437086093
 40
0.3841059602649007
 40
0.3841059602649007
 40
0.3841059602649007
 40
0.3841059602649007
 40
0.3907284768211921
 40
0.3907284768211921
 40
0.3907284768211921
 40
0.3907284768211921
 40
0.3973509933774834
 40
0.3973509933774834
 40
0.3973509933774834
 40
0.3973509933774834
 40
0.4039735099337748
 40
0.4039735099337748
 40
0.4039735099337748
 40
0.4039735099337748
 40
0.4105960264900662
 40
0.4105960264900662
 40
0.4105960264900662
 40
0.4105960264900662
 40
0.4172185430463576
 40
0.4172185430463576
 40
0.4172185430463576
 40
0.4172185430463576
 40
0.423841059602649
 40
0.423841059602649
 40
0.423841059602649
 40
0.423841059602649
 40
0.4304635761589404
 40
0.4304635761589404
 40
0.4304635761589404
 40
0.4304635761589404
 40
0.4370860927152318
 40
0.4370860927152318
 40
0.4370860927152318
 40
0.4370860927152318
 40
0.4437086092715232
 40
0.4437086092715232
 40
0.4437086092715232
 40
0.4437086092715232
 40
0.4503311258278146
 40
0.4503311258278146
 40
0.4503311258278146
 40
0.4503311258278146
 40
0.456953642384106
 40
0.456953642384106
 40
0.456953642384106
 40
0.456953642384106
 40
0.4635761589403973
 40
0.4635761589403973
 40
0.4635761589403973
 40
0.4635761589403973
 40
0.4701986754966888
 40
0.4701986754966888
 40
0.4701986754966888
 40
0.4701986754966888
 40
0.4768211920529801
 40
0.4768211920529801
 40
0.4768211920529801
 40
0.4768211920529801
 40
0.4834437086092715
 40
0.4834437086092715
 40
0.4834437086092715
 40
0.4834437086092715
 40
0.4900662251655629
 40
0.4900662251655629
 40
0.4900662251655629
 40
0.4900662251655629
 40
0.4966887417218543
 40
0.4966887417218543
 40
0.4966887417218543
 40
0.4966887417218543
 40
0.5033112582781457
 40
0.5033112582781457
 40
0.5033112582781457
 40
0.5033112582781457
 40
0.5099337748344371
 40
0.5099337748344371
 40
0.5099337748344371
 40
0.5099337748344371
 40
0.5165562913907285
 40
0.5165562913907285
 40
0.5165562913907285
 40
0.5165562913907285
 40
0.5231788079470199
 40
0.5231788079470199
 40
0.5231788079470199
 40
0.5231788079470199
 40
0.5298013245033113
 40
0.5298013245033113
 40
0.5298013245033113
 40
0.5298013245033113
 40
0.5364238410596026
 40
0.5364238410596026
 40
0.5364238410596026
 40
0.5364238410596026
 40
0.543046357615894
 40
0.543046357615894
 40
0.543046357615894
 40
0.543046357615894
 40
0.5496688741721855
 40
0.5496688741721855
 40
0.5496688741721855
 40
0.5496688741721855
 40
0.5562913907284768
 40
0.5562913907284768
 40
0.5562913907284768
 40
0.5562913907284768
 40
0.5629139072847682
 40
0.5629139072847682
 40
0.5629139072847682
 40
0.5629139072847682
 40
0.5695364238410596
 40
0.5695364238410596
 40
0.5695364238410596
 40
0.5695364238410596
 40
0.5761589403973509
 40
0.5761589403973509
 40
0.5761589403973509
 40
0.5761589403973509
 40
0.5827814569536424
 40
0.5827814569536424
 40
0.5827814569536424
 40
0.5827814569536424
 40
0.5894039735099338
 40
0.5894039735099338
 40
0.5894039735099338
 40
0.5894039735099338
 40
0.5960264900662252
 40
0.5960264900662252
 40
0.5960264900662252
 40
0.5960264900662252
 40
0.6026490066225165
 40
0.6026490066225165
 40
0.6026490066225165
 40
0.6026490066225165
 40
0.609271523178808
 40
0.609271523178808
 40
0.609271523178808
 40
0.609271523178808
 40
0.6158940397350994
 40
0.6158940397350994
 40
0.6158940397350994
 40
0.6158940397350994
 40
0.6225165562913907
 40
0.6225165562913907
 40
0.6225165562913907
 40
0.6225165562913907
 40
0.6291390728476821
 40
0.6291390728476821
 40
0.6291390728476821
 40
0.6291390728476821
 40
0.6357615894039735
 40
0.6357615894039735
 40
0.6357615894039735
 40
0.6357615894039735
 40
0.6423841059602649
 40
0.6423841059602649
 40
0.6423841059602649
 40
0.6423841059602649
 40
0.6490066225165563
 40
0.6490066225165563
 40
0.6490066225165563
 40
0.6490066225165563
 40
0.6556291390728477
 40
0.6556291390728477
 40
0.6556291390728477
 40
0.6556291390728477
 40
0.6622516556291391
 40
0.6622516556291391
 40
0.6622516556291391
 40
0.6622516556291391
 40
0.6688741721854304
 40
0.6688741721854304
 40
0.6688741721854304
 40
0.6688741721854304
 40
0.6754966887417219
 40
0.6754966887417219
 40
0.6754966887417219
 40
0.6754966887417219
 40
0.6821192052980133
 40
0.6821192052980133
 40
0.6821192052980133
 40
0.6821192052980133
 40
0.6887417218543046
 40
0.6887417218543046
 40
0.6887417218543046
 40
0.6887417218543046
 40
0.695364238410596
 40
0.695364238410596
 40
0.695364238410596
 40
0.695364238410596
 40
0.7019867549668874
 40
0.7019867549668874
 40
0.7019867549668874
 40
0.7019867549668874
 40
0.7086092715231788
 40
0.7086092715231788
 40
0.7086092715231788
 40
0.7086092715231788
 40
0.7152317880794702
 40
0.7152317880794702
 40
0.7152317880794702
 40
0.7152317880794702
 40
0.7218543046357616
 40
0.7218543046357616
 40
0.7218543046357616
 40
0.7218543046357616
 40
0.7284768211920529
 40
0.7284768211920529
 40
0.7284768211920529
 40
0.7284768211920529
 40
0.7350993377483444
 40
0.7350993377483444
 40
0.7350993377483444
 40
0.7350993377483444
 40
0.7417218543046358
 40
0.7417218543046358
 40
0.7417218543046358
 40
0.7417218543046358
 40
0.7483443708609272
 40
0.7483443708609272
 40
0.7483443708609272
 40
0.7483443708609272
 40
0.7549668874172185
 40
0.7549668874172185
 40
0.7549668874172185
 40
0.7549668874172185
 40
0.7615894039735099
 40
0.7615894039735099
 40
0.7615894039735099
 40
0.7615894039735099
 40
0.7682119205298014
 40
0.7682119205298014
 40
0.7682119205298014
 40
0.7682119205298014
 40
0.7748344370860927
 40
0.7748344370860927
 40
0.7748344370860927
 40
0.7748344370860927
 40
0.7814569536423841
 40
0.7814569536423841
 40
0.7814569536423841
 40
0.7814569536423841
 40
0.7880794701986755
 40
0.7880794701986755
 40
0.7880794701986755
 40
0.7880794701986755
 40
0.7947019867549668
 40
0.7947019867549668
 40
0.7947019867549668
 40
0.7947019867549668
 40
0.8013245033112583
 40
0.8013245033112583
 40
0.8013245033112583
 40
0.8013245033112583
 40
0.8079470198675497
 40
0.8079470198675497
 40
0.8079470198675497
 40
0.8079470198675497
 40
0.8145695364238411
 40
0.8145695364238411
 40
0.8145695364238411
 40
0.8145695364238411
 40
0.8211920529801324
 40
0.8211920529801324
 40
0.8211920529801324
 40
0.8211920529801324
 40
0.8278145695364238
 40
0.8278145695364238
 40
0.8278145695364238
 40
0.8278145695364238
 40
0.8344370860927153
 40
0.8344370860927153
 40
0.8344370860927153
 40
0.8344370860927153
 40
0.8410596026490066
 40
0.8410596026490066
 40
0.8410596026490066
 40
0.8410596026490066
 40
0.847682119205298
 40
0.847682119205298
 40
0.847682119205298
 40
0.847682119205298
 40
0.8543046357615894
 40
0.8543046357615894
 40
0.8543046357615894
 40
0.8543046357615894
 40
0.8609271523178808
 40
0.8609271523178808
 40
0.8609271523178808
 40
0.8609271523178808
 40
0.8675496688741722
 40
0.8675496688741722
 40
0.8675496688741722
 40
0.8675496688741722
 40
0.8741721854304636
 40
0.8741721854304636
 40
0.8741721854304636
 40
0.8741721854304636
 40
0.8807947019867549
 40
0.8807947019867549
 40
0.8807947019867549
 40
0.8807947019867549
 40
0.8874172185430463
 40
0.8874172185430463
 40
0.8874172185430463
 40
0.8874172185430463
 40
0.8940397350993378
 40
0.8940397350993378
 40
0.8940397350993378
 40
0.8940397350993378
 40
0.9006622516556292
 40
0.9006622516556292
 40
0.9006622516556292
 40
0.9006622516556292
 40
0.9072847682119205
 40
0.9072847682119205
 40
0.9072847682119205
 40
0.9072847682119205
 40
0.9139072847682119
 40
0.9139072847682119
 40
0.9139072847682119
 40
0.9139072847682119
 40
0.9205298013245033
 40
0.9205298013245033
 40
0.9205298013245033
 40
0.9205298013245033
 40
0.9271523178807947
 40
0.9271523178807947
 40
0.9271523178807947
 40
0.9271523178807947
 40
0.9337748344370861
 40
0.9337748344370861
 40
0.9337748344370861
 40
0.9337748344370861
 40
0.9403973509933775
 40
0.9403973509933775
 40
0.9403973509933775
 40
0.9403973509933775
 40
0.9470198675496688
 40
0.9470198675496688
 40
0.9470198675496688
 40
0.9470198675496688
 40
0.9536423841059603
 40
0.9536423841059603
 40
0.9536423841059603
 40
0.9536423841059603
 40
0.9602649006622517
 40
0.9602649006622517
 40
0.9602649006622517
 40
0.9602649006622517
 40
0.9668874172185431
 40
0.9668874172185431
 40
0.9668874172185431
 40
0.9668874172185431
 40
0.9735099337748344
 40
0.9735099337748344
 40
0.9735099337748344
 40
0.9735099337748344
 40
0.9801324503311258
 40
0.9801324503311258
 40
0.9801324503311258
 40
0.9801324503311258
 40
0.9867549668874173
 40
0.9867549668874173
 40
0.9867549668874173
 40
0.9867549668874173
 40
1.0
 40
1.0
 40
1.0
 40
1.0
 10
-47.3095
 20
-18.0585
 30
0.0
 10
-47.3094
 20
-18.0585
 30
0.0
 10
-47.2995
 20
-18.0595
 30
0.0
 10
-47.2884
 20
-18.0607
 30
0.0
 10
-47.2884
 20
-18.0607
 30
0.0
 10
-47.2884
 20
-18.0607
 30
0.0
 10
-47.2874
 20
-18.0608
 30
0.0
 10
-47.2874
 20
-18.0608
 30
0.0
 10
-47.2874
 20
-18.0608
 30
0.0
 10
-47.2687
 20
-18.0625
 30
0.0
 10
-47.2678
 20
-18.0626
 30
0.0
 10
-47.2678
 20
-18.0626
 30
0.0
 10
-47.2678
 20
-18.0626
 30
0.0
 10
-47.2451
 20
-18.0643
 30
0.0
 10
-47.2259
 20
-18.0658
 30
0.0
 10
-47.225
 20
-18.0659
 30
0.0
 10
-47.225
 20
-18.0659
 30
0.0
 10
-47.2241
 20
-18.066
 30
0.0
 10
-47.2215
 20
-18.0657
 30
0.0
 10
-47.2211
 20
-18.0657
 30
0.0
 10
-47.2211
 20
-18.0657
 30
0.0
 10
-47.2208
 20
-18.0656
 30
0.0
 10
-47.2155
 20
-18.062
 30
0.0
 10
-47.2104
 20
-18.0602
 30
0.0
 10
-47.2104
 20
-18.0602
 30
0.0
 10
-47.2104
 20
-18.0602
 30
0.0
 10
-47.2083
 20
-18.0584
 30
0.0
 10
-47.2083
 20
-18.0584
 30
0.0
 10
-47.2083
 20
-18.0584
 30
0.0
 10
-47.0864
 20
-17.9709
 30
0.0
 10
-46.9897
 20
-17.8443
 30
0.0
 10
-46.9414
 20
-17.7013
 30
0.0
 10
-46.9414
 20
-17.7013
 30
0.0
 10
-46.9212
 20
-17.6417
 30
0.0
 10
-46.9083
 20
-17.579
 30
0.0
 10
-46.8948
 20
-17.5176
 30
0.0
 10
-46.8948
 20
-17.5176
 30
0.0
 10
-46.8818
 20
-17.4593
 30
0.0
 10
-46.8679
 20
-17.4
 30
0.0
 10
-46.8621
 20
-17.3404
 30
0.0
 10
-46.8621
 20
-17.3404
 30
0.0
 10
-46.8542
 20
-17.2588
 30
0.0
 10
-47.0136
 20
-17.299
 30
0.0
 10
-47.042
 20
-17.2371
 30
0.0
 10
-47.042
 20
-17.2371
 30
0.0
 10
-47.0671
 20
-17.1825
 30
0.0
 10
-47.0614
 20
-17.0606
 30
0.0
 10
-47.0522
 20
-17.0468
 30
0.0
 10
-47.0522
 20
-17.0468
 30
0.0
 10
-47.043
 20
-17.0329
 30
0.0
 10
-46.9784
 20
-16.9798
 30
0.0
 10
-46.9758
 20
-16.9773
 30
0.0
 10
-46.9758
 20
-16.9773
 30
0.0
 10
-46.9313
 20
-16.9335
 30
0.0
 10
-46.8672
 20
-16.9155
 30
0.0
 10
-46.8209
 20
-16.8733
 30
0.0
 10
-46.8209
 20
-16.8733
 30
0.0
 10
-46.7994
 20
-16.8537
 30
0.0
 10
-46.7806
 20
-16.8328
 30
0.0
 10
-46.7496
 20
-16.8345
 30
0.0
 10
-46.7496
 20
-16.8345
 30
0.0
 10
-46.7295
 20
-16.8356
 30
0.0
 10
-46.7093
 20
-16.8399
 30
0.0
 10
-46.6899
 20
-16.8451
 30
0.0
 10
-46.6899
 20
-16.8451
 30
0.0
 10
-46.6708
 20
-16.8503
 30
0.0
 10
-46.624
 20
-16.8447
 30
0.0
 10
-46.6332
 20
-16.814
 30
0.0
 10
-46.6332
 20
-16.814
 30
0.0
 10
-46.6422
 20
-16.7838
 30
0.0
 10
-46.6568
 20
-16.7529
 30
0.0
 10
-46.6781
 20
-16.7296
 30
0.0
 10
-46.6781
 20
-16.7296
 30
0.0
 10
-46.7161
 20
-16.6878
 30
0.0
 10
-46.7801
 20
-16.6942
 30
0.0
 10
-46.7801
 20
-16.6942
 30
0.0
 10
-46.7801
 20
-16.6942
 30
0.0
 10
-46.8027
 20
-16.6965
 30
0.0
 10
-46.8386
 20
-16.6917
 30
0.0
 10
-46.8599
 20
-16.6836
 30
0.0
 10
-46.8599
 20
-16.6836
 30
0.0
 10
-46.8599
 20
-16.6836
 30
0.0
 10
-46.8746
 20
-16.678
 30
0.0
 10
-46.8975
 20
-16.6694
 30
0.0
 10
-46.8975
 20
-16.6694
 30
0.0
 10
-46.932
 20
-16.6564
 30
0.0
 10
-46.9721
 20
-16.6552
 30
0.0
 10
-47.008
 20
-16.6621
 30
0.0
 10
-47.008
 20
-16.6621
 30
0.0
 10
-47.0457
 20
-16.6695
 30
0.0
 10
-47.0823
 20
-16.6832
 30
0.0
 10
-47.1205
 20
-16.688
 30
0.0
 10
-47.1205
 20
-16.688
 30
0.0
 10
-47.1497
 20
-16.6917
 30
0.0
 10
-47.1693
 20
-16.6826
 30
0.0
 10
-47.1693
 20
-16.6826
 30
0.0
 10
-47.1693
 20
-16.6826
 30
0.0
 10
-47.1899
 20
-16.6729
 30
0.0
 10
-47.2179
 20
-16.6522
 30
0.0
 10
-47.2315
 20
-16.6366
 30
0.0
 10
-47.2315
 20
-16.6366
 30
0.0
 10
-47.2315
 20
-16.6366
 30
0.0
 10
-47.2425
 20
-16.6214
 30
0.0
 10
-47.2425
 20
-16.6214
 30
0.0
 10
-47.2425
 20
-16.6214
 30
0.0
 10
-47.2628
 20
-16.5933
 30
0.0
 10
-47.2685
 20
-16.5644
 30
0.0
 10
-47.2652
 20
-16.5303
 30
0.0
 10
-47.2652
 20
-16.5303
 30
0.0
 10
-47.2591
 20
-16.4651
 30
0.0
 10
-47.2261
 20
-16.4055
 30
0.0
 10
-47.219
 20
-16.3403
 30
0.0
 10
-47.219
 20
-16.3403
 30
0.0
 10
-47.2101
 20
-16.259
 30
0.0
 10
-47.2841
 20
-16.2134
 30
0.0
 10
-47.3337
 20
-16.1605
 30
0.0
 10
-47.3337
 20
-16.1605
 30
0.0
 10
-47.3999
 20
-16.09
 30
0.0
 10
-47.4626
 20
-16.0155
 30
0.0
 10
-47.5362
 20
-15.9524
 30
0.0
 10
-47.5362
 20
-15.9524
 30
0.0
 10
-47.578
 20
-15.9165
 30
0.0
 10
-47.6233
 20
-15.8957
 30
0.0
 10
-47.6722
 20
-15.8726
 30
0.0
 10
-47.6722
 20
-15.8726
 30
0.0
 10
-47.7581
 20
-15.8318
 30
0.0
 10
-47.8407
 20
-15.7813
 30
0.0
 10
-47.93
 20
-15.7479
 30
0.0
 10
-47.93
 20
-15.7479
 30
0.0
 10
-47.93
 20
-15.7479
 30
0.0
 10
-47.9393
 20
-15.7444
 30
0.0
 10
-47.9393
 20
-15.7444
 30
0.0
 10
-47.9393
 20
-15.7444
 30
0.0
 10
-47.9502
 20
-15.7413
 30
0.0
 10
-47.9775
 20
-15.7354
 30
0.0
 10
-47.9999
 20
-15.7314
 30
0.0
 10
-47.9999
 20
-15.7314
 30
0.0
 10
-47.9999
 20
-15.7314
 30
0.0
 10
-48.0422
 20
-15.7239
 30
0.0
 10
-48.0821
 20
-15.7259
 30
0.0
 10
-48.0821
 20
-15.7259
 30
0.0
 10
-48.128
 20
-15.7283
 30
0.0
 10
-48.0256
 20
-15.9013
 30
0.0
 10
-48.0165
 20
-15.9155
 30
0.0
 10
-48.0165
 20
-15.9155
 30
0.0
 10
-47.9667
 20
-15.9937
 30
0.0
 10
-47.8953
 20
-16.0553
 30
0.0
 10
-47.823
 20
-16.112
 30
0.0
 10
-47.823
 20
-16.112
 30
0.0
 10
-47.7869
 20
-16.1403
 30
0.0
 10
-47.7473
 20
-16.1651
 30
0.0
 10
-47.7317
 20
-16.2105
 30
0.0
 10
-47.7317
 20
-16.2105
 30
0.0
 10
-47.7243
 20
-16.2319
 30
0.0
 10
-47.7264
 20
-16.2569
 30
0.0
 10
-47.7269
 20
-16.2791
 30
0.0
 10
-47.7269
 20
-16.2791
 30
0.0
 10
-47.7284
 20
-16.3358
 30
0.0
 10
-47.7322
 20
-16.3924
 30
0.0
 10
-47.7338
 20
-16.449
 30
0.0
 10
-47.7338
 20
-16.449
 30
0.0
 10
-47.7364
 20
-16.5459
 30
0.0
 10
-47.7314
 20
-16.6427
 30
0.0
 10
-47.7148
 20
-16.7384
 30
0.0
 10
-47.7148
 20
-16.7384
 30
0.0
 10
-47.7136
 20
-16.7453
 30
0.0
 10
-47.6923
 20
-16.7427
 30
0.0
 10
-47.6708
 20
-16.7426
 30
0.0
 10
-47.6708
 20
-16.7426
 30
0.0
 10
-47.6495
 20
-16.7426
 30
0.0
 10
-47.6283
 20
-16.7424
 30
0.0
 10
-47.6276
 20
-16.746
 30
0.0
 10
-47.6276
 20
-16.746
 30
0.0
 10
-47.6446
 20
-16.6587
 30
0.0
 10
-47.6483
 20
-16.5704
 30
0.0
 10
-47.6471
 20
-16.4817
 30
0.0
 10
-47.6471
 20
-16.4817
 30
0.0
 10
-47.6461
 20
-16.4002
 30
0.0
 10
-47.631
 20
-16.3142
 30
0.0
 10
-47.6411
 20
-16.2331
 30
0.0
 10
-47.6411
 20
-16.2331
 30
0.0
 10
-47.6457
 20
-16.1966
 30
0.0
 10
-47.6724
 20
-16.1696
 30
0.0
 10
-47.6996
 20
-16.1479
 30
0.0
 10
-47.6996
 20
-16.1479
 30
0.0
 10
-47.7025
 20
-16.1456
 30
0.0
 10
-47.7054
 20
-16.1433
 30
0.0
 10
-47.7082
 20
-16.141
 30
0.0
 10
-47.7082
 20
-16.141
 30
0.0
 10
-47.7483
 20
-16.093
 30
0.0
 10
-47.8553
 20
-15.9567
 30
0.0
 10
-47.7664
 20
-15.9737
 30
0.0
 10
-47.7664
 20
-15.9737
 30
0.0
 10
-47.6589
 20
-15.9943
 30
0.0
 10
-47.5969
 20
-15.9872
 30
0.0
 10
-47.5053
 20
-16.0611
 30
0.0
 10
-47.5053
 20
-16.0611
 30
0.0
 10
-47.453
 20
-16.1173
 30
0.0
 10
-47.4023
 20
-16.1751
 30
0.0
 10
-47.3469
 20
-16.2283
 30
0.0
 10
-47.3469
 20
-16.2283
 30
0.0
 10
-47.295
 20
-16.278
 30
0.0
 10
-47.3021
 20
-16.3361
 30
0.0
 10
-47.3206
 20
-16.4006
 30
0.0
 10
-47.3206
 20
-16.4006
 30
0.0
 10
-47.3372
 20
-16.4586
 30
0.0
 10
-47.3672
 20
-16.5235
 30
0.0
 10
-47.3466
 20
-16.5841
 30
0.0
 10
-47.3466
 20
-16.5841
 30
0.0
 10
-47.3345
 20
-16.6198
 30
0.0
 10
-47.2447
 20
-16.7414
 30
0.0
 10
-47.1415
 20
-16.7432
 30
0.0
 10
-47.1415
 20
-16.7432
 30
0.0
 10
-47.1378
 20
-16.7433
 30
0.0
 10
-47.0775
 20
-16.7436
 30
0.0
 10
-47.0314
 20
-16.7316
 30
0.0
 10
-47.0314
 20
-16.7316
 30
0.0
 10
-46.9878
 20
-16.7202
 30
0.0
 10
-46.9531
 20
-16.7107
 30
0.0
 10
-46.9107
 20
-16.7303
 30
0.0
 10
-46.9107
 20
-16.7303
 30
0.0
 10
-46.9107
 20
-16.7303
 30
0.0
 10
-46.8941
 20
-16.7379
 30
0.0
 10
-46.8941
 20
-16.7379
 30
0.0
 10
-46.8941
 20
-16.7379
 30
0.0
 10
-46.8769
 20
-16.7439
 30
0.0
 10
-46.8813
 20
-16.752
 30
0.0
 10
-46.9037
 20
-16.7558
 30
0.0
 10
-46.9037
 20
-16.7558
 30
0.0
 10
-46.9037
 20
-16.7558
 30
0.0
 10
-46.9394
 20
-16.7618
 30
0.0
 10
-46.9774
 20
-16.7851
 30
0.0
 10
-46.9774
 20
-16.7851
 30
0.0
 10
-46.9725
 20
-16.7821
 30
0.0
 10
-46.9503
 20
-16.7878
 30
0.0
 10
-46.9447
 20
-16.7883
 30
0.0
 10
-46.9447
 20
-16.7883
 30
0.0
 10
-46.9386
 20
-16.7889
 30
0.0
 10
-46.9175
 20
-16.7943
 30
0.0
 10
-46.912
 20
-16.7909
 30
0.0
 10
-46.912
 20
-16.7909
 30
0.0
 10
-46.8792
 20
-16.7707
 30
0.0
 10
-46.854
 20
-16.7653
 30
0.0
 10
-46.854
 20
-16.7653
 30
0.0
 10
-46.854
 20
-16.7653
 30
0.0
 10
-46.8318
 20
-16.7605
 30
0.0
 10
-46.8103
 20
-16.7567
 30
0.0
 10
-46.8063
 20
-16.7568
 30
0.0
 10
-46.8063
 20
-16.7568
 30
0.0
 10
-46.8063
 20
-16.7568
 30
0.0
 10
-46.803
 20
-16.7566
 30
0.0
 10
-46.803
 20
-16.7566
 30
0.0
 10
-46.803
 20
-16.7566
 30
0.0
 10
-46.8019
 20
-16.7565
 30
0.0
 10
-46.8008
 20
-16.7564
 30
0.0
 10
-46.7997
 20
-16.7563
 30
0.0
 10
-46.7997
 20
-16.7563
 30
0.0
 10
-46.7838
 20
-16.755
 30
0.0
 10
-46.7682
 20
-16.7535
 30
0.0
 10
-46.7522
 20
-16.7541
 30
0.0
 10
-46.7522
 20
-16.7541
 30
0.0
 10
-46.7514
 20
-16.7541
 30
0.0
 10
-46.7506
 20
-16.7541
 30
0.0
 10
-46.7498
 20
-16.7541
 30
0.0
 10
-46.7498
 20
-16.7541
 30
0.0
 10
-46.7509
 20
-16.754
 30
0.0
 10
-46.7517
 20
-16.7543
 30
0.0
 10
-46.7521
 20
-16.7547
 30
0.0
 10
-46.7521
 20
-16.7547
 30
0.0
 10
-46.7528
 20
-16.7556
 30
0.0
 10
-46.7523
 20
-16.7572
 30
0.0
 10
-46.751
 20
-16.7593
 30
0.0
 10
-46.751
 20
-16.7593
 30
0.0
 10
-46.7486
 20
-16.7634
 30
0.0
 10
-46.7435
 20
-16.7692
 30
0.0
 10
-46.74
 20
-16.7737
 30
0.0
 10
-46.74
 20
-16.7737
 30
0.0
 10
-46.74
 20
-16.7737
 30
0.0
 10
-46.7391
 20
-16.7748
 30
0.0
 10
-46.7391
 20
-16.7748
 30
0.0
 10
-46.7391
 20
-16.7748
 30
0.0
 10
-46.7384
 20
-16.7758
 30
0.0
 10
-46.7386
 20
-16.7766
 30
0.0
 10
-46.7396
 20
-16.7765
 30
0.0
 10
-46.7396
 20
-16.7765
 30
0.0
 10
-46.7396
 20
-16.7765
 30
0.0
 10
-46.7405
 20
-16.7765
 30
0.0
 10
-46.7405
 20
-16.7765
 30
0.0
 10
-46.7405
 20
-16.7765
 30
0.0
 10
-46.7442
 20
-16.7762
 30
0.0
 10
-46.748
 20
-16.776
 30
0.0
 10
-46.7517
 20
-16.7759
 30
0.0
 10
-46.7517
 20
-16.7759
 30
0.0
 10
-46.7867
 20
-16.775
 30
0.0
 10
-46.8211
 20
-16.7815
 30
0.0
 10
-46.8518
 20
-16.8021
 30
0.0
 10
-46.8518
 20
-16.8021
 30
0.0
 10
-46.8818
 20
-16.8221
 30
0.0
 10
-46.9052
 20
-16.848
 30
0.0
 10
-46.9363
 20
-16.8669
 30
0.0
 10
-46.9363
 20
-16.8669
 30
0.0
 10
-46.9593
 20
-16.8808
 30
0.0
 10
-46.9699
 20
-16.8869
 30
0.0
 10
-46.9699
 20
-16.8869
 30
0.0
 10
-46.9699
 20
-16.8869
 30
0.0
 10
-46.9895
 20
-16.8984
 30
0.0
 10
-47.0205
 20
-16.8966
 30
0.0
 10
-47.0387
 20
-16.883
 30
0.0
 10
-47.0387
 20
-16.883
 30
0.0
 10
-47.0387
 20
-16.883
 30
0.0
 10
-47.0693
 20
-16.8602
 30
0.0
 10
-47.0998
 20
-16.8382
 30
0.0
 10
-47.0998
 20
-16.8382
 30
0.0
 10
-47.1059
 20
-16.8338
 30
0.0
 10
-47.1096
 20
-16.8285
 30
0.0
 10
-47.1202
 20
-16.8256
 30
0.0
 10
-47.1202
 20
-16.8256
 30
0.0
 10
-47.1409
 20
-16.8237
 30
0.0
 10
-47.1621
 20
-16.8204
 30
0.0
 10
-47.1781
 20
-16.8249
 30
0.0
 10
-47.1781
 20
-16.8249
 30
0.0
 10
-47.1952
 20
-16.8297
 30
0.0
 10
-47.2024
 20
-16.8362
 30
0.0
 10
-47.2053
 20
-16.8419
 30
0.0
 10
-47.2053
 20
-16.8419
 30
0.0
 10
-47.2049
 20
-16.8422
 30
0.0
 10
-47.2044
 20
-16.8451
 30
0.0
 10
-47.204
 20
-16.8455
 30
0.0
 10
-47.204
 20
-16.8455
 30
0.0
 10
-47.1832
 20
-16.8641
 30
0.0
 10
-47.1572
 20
-16.8828
 30
0.0
 10
-47.1354
 20
-16.9
 30
0.0
 10
-47.1354
 20
-16.9
 30
0.0
 10
-47.1629
 20
-16.9288
 30
0.0
 10
-47.2557
 20
-17.0169
 30
0.0
 10
-47.4305
 20
-17.1029
 30
0.0
 10
-47.4305
 20
-17.1029
 30
0.0
 10
-47.5665
 20
-17.1698
 30
0.0
 10
-47.842
 20
-17.1679
 30
0.0
 10
-47.9216
 20
-17.1659
 30
0.0
 10
-47.9216
 20
-17.1659
 30
0.0
 10
-47.9307
 20
-17.1628
 30
0.0
 10
-47.9395
 20
-17.1594
 30
0.0
 10
-47.9479
 20
-17.1553
 30
0.0
 10
-47.9479
 20
-17.1553
 30
0.0
 10
-47.9713
 20
-17.1441
 30
0.0
 10
-47.9047
 20
-17.1097
 30
0.0
 10
-47.8802
 20
-17.0973
 30
0.0
 10
-47.8802
 20
-17.0973
 30
0.0
 10
-47.8762
 20
-17.0953
 30
0.0
 10
-47.8618
 20
-17.088
 30
0.0
 10
-47.8563
 20
-17.085
 30
0.0
 10
-47.8563
 20
-17.085
 30
0.0
 10
-47.8488
 20
-17.081
 30
0.0
 10
-47.8414
 20
-17.0764
 30
0.0
 10
-47.8355
 20
-17.0709
 30
0.0
 10
-47.8355
 20
-17.0709
 30
0.0
 10
-47.833
 20
-17.0685
 30
0.0
 10
-47.8307
 20
-17.066
 30
0.0
 10
-47.8289
 20
-17.0633
 30
0.0
 10
-47.8289
 20
-17.0633
 30
0.0
 10
-47.8241
 20
-17.0559
 30
0.0
 10
-47.854
 20
-17.0549
 30
0.0
 10
-47.8576
 20
-17.0548
 30
0.0
 10
-47.8576
 20
-17.0548
 30
0.0
 10
-47.8576
 20
-17.0548
 30
0.0
 10
-47.8578
 20
-17.0548
 30
0.0
 10
-47.8578
 20
-17.0548
 30
0.0
 10
-47.8578
 20
-17.0548
 30
0.0
 10
-47.858
 20
-17.0548
 30
0.0
 10
-47.8709
 20
-17.0517
 30
0.0
 10
-47.8866
 20
-17.048
 30
0.0
 10
-47.8866
 20
-17.048
 30
0.0
 10
-47.9023
 20
-17.0442
 30
0.0
 10
-47.9098
 20
-17.0369
 30
0.0
 10
-47.9033
 20
-17.0317
 30
0.0
 10
-47.9033
 20
-17.0317
 30
0.0
 10
-47.9033
 20
-17.0317
 30
0.0
 10
-47.8973
 20
-17.0271
 30
0.0
 10
-47.8973
 20
-17.0271
 30
0.0
 10
-47.8973
 20
-17.0271
 30
0.0
 10
-47.846
 20
-16.987
 30
0.0
 10
-47.7933
 20
-16.9506
 30
0.0
 10
-47.7462
 20
-16.9048
 30
0.0
 10
-47.7462
 20
-16.9048
 30
0.0
 10
-47.6952
 20
-16.8552
 30
0.0
 10
-47.4784
 20
-16.779
 30
0.0
 10
-47.4682
 20
-16.7741
 30
0.0
 10
-47.4682
 20
-16.7741
 30
0.0
 10
-47.453
 20
-16.7668
 30
0.0
 10
-47.4361
 20
-16.7608
 30
0.0
 10
-47.419
 20
-16.7571
 30
0.0
 10
-47.419
 20
-16.7571
 30
0.0
 10
-47.4176
 20
-16.7568
 30
0.0
 10
-47.4162
 20
-16.7566
 30
0.0
 10
-47.4148
 20
-16.7563
 30
0.0
 10
-47.4148
 20
-16.7563
 30
0.0
 10
-47.4132
 20
-16.756
 30
0.0
 10
-47.4116
 20
-16.7557
 30
0.0
 10
-47.41
 20
-16.7554
 30
0.0
 10
-47.41
 20
-16.7554
 30
0.0
 10
-47.4067
 20
-16.7549
 30
0.0
 10
-47.4034
 20
-16.7544
 30
0.0
 10
-47.4001
 20
-16.7541
 30
0.0
 10
-47.4001
 20
-16.7541
 30
0.0
 10
-47.4285
 20
-16.757
 30
0.0
 10
-47.4587
 20
-16.7434
 30
0.0
 10
-47.4873
 20
-16.7464
 30
0.0
 10
-47.4873
 20
-16.7464
 30
0.0
 10
-47.4904
 20
-16.7467
 30
0.0
 10
-47.4934
 20
-16.7472
 30
0.0
 10
-47.4964
 20
-16.7477
 30
0.0
 10
-47.4964
 20
-16.7477
 30
0.0
 10
-47.5416
 20
-16.7548
 30
0.0
 10
-47.7869
 20
-16.852
 30
0.0
 10
-47.8423
 20
-16.9058
 30
0.0
 10
-47.8423
 20
-16.9058
 30
0.0
 10
-47.8849
 20
-16.9473
 30
0.0
 10
-47.9476
 20
-16.9935
 30
0.0
 10
-47.9476
 20
-16.9935
 30
0.0
 10
-47.9476
 20
-16.9935
 30
0.0
 10
-47.9659
 20
-17.007
 30
0.0
 10
-47.9822
 20
-17.0183
 30
0.0
 10
-47.9839
 20
-17.0185
 30
0.0
 10
-47.9839
 20
-17.0185
 30
0.0
 10
-47.9839
 20
-17.0185
 30
0.0
 10
-47.9851
 20
-17.019
 30
0.0
 10
-47.9851
 20
-17.019
 30
0.0
 10
-47.9851
 20
-17.019
 30
0.0
 10
-48.0462
 20
-17.0439
 30
0.0
 10
-48.1075
 20
-17.0681
 30
0.0
 10
-48.169
 20
-17.0917
 30
0.0
 10
-48.169
 20
-17.0917
 30
0.0
 10
-48.2109
 20
-17.1077
 30
0.0
 10
-48.2529
 20
-17.1235
 30
0.0
 10
-48.2955
 20
-17.1374
 30
0.0
 10
-48.2955
 20
-17.1374
 30
0.0
 10
-48.2997
 20
-17.1388
 30
0.0
 10
-48.3448
 20
-17.148
 30
0.0
 10
-48.3309
 20
-17.1554
 30
0.0
 10
-48.3309
 20
-17.1554
 30
0.0
 10
-48.2884
 20
-17.178
 30
0.0
 10
-48.2342
 20
-17.173
 30
0.0
 10
-48.1908
 20
-17.1966
 30
0.0
 10
-48.1908
 20
-17.1966
 30
0.0
 10
-48.1333
 20
-17.228
 30
0.0
 10
-48.2258
 20
-17.2585
 30
0.0
 10
-48.2434
 20
-17.2771
 30
0.0
 10
-48.2434
 20
-17.2771
 30
0.0
 10
-48.2415
 20
-17.2769
 30
0.0
 10
-48.2406
 20
-17.2769
 30
0.0
 10
-48.2413
 20
-17.2771
 30
0.0
 10
-48.2413
 20
-17.2771
 30
0.0
 10
-48.2421
 20
-17.2773
 30
0.0
 10
-48.2356
 20
-17.2783
 30
0.0
 10
-48.2255
 20
-17.2792
 30
0.0
 10
-48.2255
 20
-17.2792
 30
0.0
 10
-48.2154
 20
-17.2801
 30
0.0
 10
-48.2045
 20
-17.2812
 30
0.0
 10
-48.2013
 20
-17.2817
 30
0.0
 10
-48.2013
 20
-17.2817
 30
0.0
 10
-48.2013
 20
-17.2817
 30
0.0
 10
-48.2004
 20
-17.2818
 30
0.0
 10
-48.2004
 20
-17.2818
 30
0.0
 10
-48.2004
 20
-17.2818
 30
0.0
 10
-48.1869
 20
-17.283
 30
0.0
 10
-48.1703
 20
-17.287
 30
0.0
 10
-48.1567
 20
-17.2852
 30
0.0
 10
-48.1567
 20
-17.2852
 30
0.0
 10
-48.1402
 20
-17.283
 30
0.0
 10
-48.1204
 20
-17.2693
 30
0.0
 10
-48.1051
 20
-17.2629
 30
0.0
 10
-48.1051
 20
-17.2629
 30
0.0
 10
-48.0623
 20
-17.2452
 30
0.0
 10
-48.0184
 20
-17.23
 30
0.0
 10
-47.9736
 20
-17.2178
 30
0.0
 10
-47.9736
 20
-17.2178
 30
0.0
 10
-47.9295
 20
-17.2058
 30
0.0
 10
-47.879
 20
-17.2007
 30
0.0
 10
-47.879
 20
-17.2007
 30
0.0
 10
-47.879
 20
-17.2007
 30
0.0
 10
-47.8564
 20
-17.1984
 30
0.0
 10
-47.8194
 20
-17.1993
 30
0.0
 10
-47.797
 20
-17.2026
 30
0.0
 10
-47.797
 20
-17.2026
 30
0.0
 10
-47.797
 20
-17.2026
 30
0.0
 10
-47.7845
 20
-17.2045
 30
0.0
 10
-47.7637
 20
-17.2068
 30
0.0
 10
-47.7637
 20
-17.2068
 30
0.0
 10
-47.7384
 20
-17.2117
 30
0.0
 10
-47.7154
 20
-17.2156
 30
0.0
 10
-47.6988
 20
-17.2171
 30
0.0
 10
-47.6988
 20
-17.2171
 30
0.0
 10
-47.6919
 20
-17.2177
 30
0.0
 10
-47.6792
 20
-17.2174
 30
0.0
 10
-47.6623
 20
-17.2161
 30
0.0
 10
-47.6623
 20
-17.2161
 30
0.0
 10
-47.6231
 20
-17.2188
 30
0.0
 10
-47.5838
 20
-17.2193
 30
0.0
 10
-47.5448
 20
-17.2135
 30
0.0
 10
-47.5448
 20
-17.2135
 30
0.0
 10
-47.4074
 20
-17.1931
 30
0.0
 10
-47.182
 20
-17.1128
 30
0.0
 10
-47.182
 20
-17.1128
 30
0.0
 10
-47.182
 20
-17.1128
 30
0.0
 10
-47.1606
 20
-17.1052
 30
0.0
 10
-47.1431
 20
-17.1027
 30
0.0
 10
-47.1432
 20
-17.1071
 30
0.0
 10
-47.1432
 20
-17.1071
 30
0.0
 10
-47.1432
 20
-17.1071
 30
0.0
 10
-47.1432
 20
-17.1113
 30
0.0
 10
-47.1432
 20
-17.1113
 30
0.0
 10
-47.1432
 20
-17.1113
 30
0.0
 10
-47.1434
 20
-17.1231
 30
0.0
 10
-47.1433
 20
-17.135
 30
0.0
 10
-47.1429
 20
-17.1468
 30
0.0
 10
-47.1429
 20
-17.1468
 30
0.0
 10
-47.1415
 20
-17.1909
 30
0.0
 10
-47.1395
 20
-17.2438
 30
0.0
 10
-47.0923
 20
-17.2605
 30
0.0
 10
-47.0923
 20
-17.2605
 30
0.0
 10
-47.0536
 20
-17.2742
 30
0.0
 10
-46.9611
 20
-17.2686
 30
0.0
 10
-46.9491
 20
-17.3194
 30
0.0
 10
-46.9491
 20
-17.3194
 30
0.0
 10
-46.9453
 20
-17.3357
 30
0.0
 10
-46.9525
 20
-17.3588
 30
0.0
 10
-46.9551
 20
-17.3748
 30
0.0
 10
-46.9551
 20
-17.3748
 30
0.0
 10
-46.9597
 20
-17.4027
 30
0.0
 10
-46.9652
 20
-17.4305
 30
0.0
 10
-46.9709
 20
-17.4582
 30
0.0
 10
-46.9709
 20
-17.4582
 30
0.0
 10
-46.9838
 20
-17.5213
 30
0.0
 10
-46.9957
 20
-17.5852
 30
0.0
 10
-47.0139
 20
-17.6471
 30
0.0
 10
-47.0139
 20
-17.6471
 30
0.0
 10
-47.0141
 20
-17.6475
 30
0.0
 10
-47.0152
 20
-17.6478
 30
0.0
 10
-47.0154
 20
-17.6473
 30
0.0
 10
-47.0154
 20
-17.6473
 30
0.0
 10
-47.0154
 20
-17.6473
 30
0.0
 10
-47.0201
 20
-17.633
 30
0.0
 10
-47.0201
 20
-17.633
 30
0.0
 10
-47.0201
 20
-17.633
 30
0.0
 10
-47.0201
 20
-17.633
 30
0.0
 10
-47.023
 20
-17.6225
 30
0.0
 10
-47.023
 20
-17.6225
 30
0.0
 10
-47.023
 20
-17.6225
 30
0.0
 10
-47.0232
 20
-17.5868
 30
0.0
 10
-47.0269
 20
-17.507
 30
0.0
 10
-47.0586
 20
-17.6024
 30
0.0
 10
-47.0586
 20
-17.6024
 30
0.0
 10
-47.0978
 20
-17.7201
 30
0.0
 10
-47.1404
 20
-17.7678
 30
0.0
 10
-47.1765
 20
-17.8063
 30
0.0
 10
-47.1765
 20
-17.8063
 30
0.0
 10
-47.1702
 20
-17.7533
 30
0.0
 10
-47.1663
 20
-17.7
 30
0.0
 10
-47.1659
 20
-17.6467
 30
0.0
 10
-47.1659
 20
-17.6467
 30
0.0
 10
-47.1654
 20
-17.592
 30
0.0
 10
-47.1708
 20
-17.5395
 30
0.0
 10
-47.1883
 20
-17.4877
 30
0.0
 10
-47.1883
 20
-17.4877
 30
0.0
 10
-47.2044
 20
-17.4398
 30
0.0
 10
-47.2434
 20
-17.4076
 30
0.0
 10
-47.2803
 20
-17.375
 30
0.0
 10
-47.2803
 20
-17.375
 30
0.0
 10
-47.2868
 20
-17.3693
 30
0.0
 10
-47.3152
 20
-17.3715
 30
0.0
 10
-47.3236
 20
-17.3708
 30
0.0
 10
-47.3236
 20
-17.3708
 30
0.0
 10
-47.3237
 20
-17.3708
 30
0.0
 10
-47.3238
 20
-17.3708
 30
0.0
 10
-47.3239
 20
-17.3708
 30
0.0
 10
-47.3239
 20
-17.3708
 30
0.0
 10
-47.3314
 20
-17.3701
 30
0.0
 10
-47.3617
 20
-17.3725
 30
0.0
 10
-47.3675
 20
-17.3674
 30
0.0
 10
-47.3675
 20
-17.3674
 30
0.0
 10
-47.3216
 20
-17.4078
 30
0.0
 10
-47.2885
 20
-17.4417
 30
0.0
 10
-47.2689
 20
-17.4991
 30
0.0
 10
-47.2689
 20
-17.4991
 30
0.0
 10
-47.2451
 20
-17.5686
 30
0.0
 10
-47.2515
 20
-17.6508
 30
0.0
 10
-47.2564
 20
-17.7226
 30
0.0
 10
-47.2564
 20
-17.7226
 30
0.0
 10
-47.2629
 20
-17.817
 30
0.0
 10
-47.2782
 20
-17.9109
 30
0.0
 10
-47.2981
 20
-18.0033
 30
0.0
 10
-47.2981
 20
-18.0033
 30
0.0
 10
-47.3019
 20
-18.021
 30
0.0
 10
-47.3082
 20
-18.0393
 30
0.0
 10
-47.3104
 20
-18.0572
 30
0.0
 10
-47.3104
 20
-18.0572
 30
0.0
 10
-47.3104
 20
-18.0572
 30
0.0
 10
-47.3095
 20
-18.0585
 30
0.0
 10
-47.3095
 20
-18.0585
 30
0.0
  0
SPLINE
  5
56
330
1F
100
AcDbEntity
  8
Ilustrace
 62
   250
100
AcDbSpline
210
0.0
220
0.0
230
1.0
 70
    11
 71
     3
 72
    16
 73
    12
 74
     0
 42
0.0000000001
 43
0.0000000001
 40
0.0
 40
0.0
 40
0.0
 40
0.0
 40
0.25
 40
0.25
 40
0.25
 40
0.25
 40
0.5
 40
0.5
 40
0.5
 40
0.5
 40
1.0
 40
1.0
 40
1.0
 40
1.0
 10
-48.2439
 20
-17.2776
 30
0.0
 10
-48.2438
 20
-17.2774
 30
0.0
 10
-48.2435
 20
-17.2772
 30
0.0
 10
-48.2434
 20
-17.277
 30
0.0
 10
-48.2434
 20
-17.277
 30
0.0
 10
-48.2434
 20
-17.277
 30
0.0
 10
-48.2434
 20
-17.277
 30
0.0
 10
-48.2435
 20
-17.277
 30
0.0
 10
-48.2435
 20
-17.277
 30
0.0
 10
-48.2435
 20
-17.277
 30
0.0
 10
-48.2439
 20
-17.2776
 30
0.0
 10
-48.2439
 20
-17.2776
 30
0.0
  0
SPLINE
  5
57
330
1F
100
AcDbEntity
  8
Ilustrace
 62
   250
100
AcDbSpline
210
0.0
220
0.0
230
1.0
 70
    11
 71
     3
 72
    36
 73
    32
 74
     0
 42
0.0000000001
 43
0.0000000001
 40
0.0
 40
0.0
 40
0.0
 40
0.0
 40
0.1111111111111111
 40
0.1111111111111111
 40
0.1111111111111111
 40
0.1111111111111111
 40
0.2222222222222222
 40
0.2222222222222222
 40
0.2222222222222222
 40
0.2222222222222222
 40
0.3333333333333333
 40
0.3333333333333333
 40
0.3333333333333333
 40
0.3333333333333333
 40
0.4444444444444444
 40
0.4444444444444444
 40
0.4444444444444444
 40
0.4444444444444444
 40
0.5555555555555556
 40
0.5555555555555556
 40
0.5555555555555556
 40
0.5555555555555556
 40
0.6666666666666666
 40
0.6666666666666666
 40
0.6666666666666666
 40
0.6666666666666666
 40
0.7777777777777778
 40
0.7777777777777778
 40
0.7777777777777778
 40
0.7777777777777778
 40
1.0
 40
1.0
 40
1.0
 40
1.0
 10
-50.8627
 20
-17.1847
 30
0.0
 10
-50.8627
 20
-17.1847
 30
0.0
 10
-51.337
 20
-18.5939
 30
0.0
 10
-51.337
 20
-18.5939
 30
0.0
 10
-51.337
 20
-18.5939
 30
0.0
 10
-51.337
 20
-18.5939
 30
0.0
 10
-50.9811
 20
-18.5939
 30
0.0
 10
-50.9811
 20
-18.5939
 30
0.0
 10
-50.9811
 20
-18.5939
 30
0.0
 10
-50.9811
 20
-18.5939
 30
0.0
 10
-50.8928
 20
-18.3054
 30
0.0
 10
-50.8928
 20
-18.3054
 30
0.0
 10
-50.8928
 20
-18.3054
 30
0.0
 10
-50.8928
 20
-18.3054
 30
0.0
 10
-50.4495
 20
-18.3054
 30
0.0
 10
-50.4495
 20
-18.3054
 30
0.0
 10
-50.4495
 20
-18.3054
 30
0.0
 10
-50.4495
 20
-18.3054
 30
0.0
 10
-50.3608
 20
-18.5939
 30
0.0
 10
-50.3608
 20
-18.5939
 30
0.0
 10
-50.3608
 20
-18.5939
 30
0.0
 10
-50.3608
 20
-18.5939
 30
0.0
 10
-49.9955
 20
-18.5939
 30
0.0
 10
-49.9955
 20
-18.5939
 30
0.0
 10
-49.9955
 20
-18.5939
 30
0.0
 10
-49.9955
 20
-18.5939
 30
0.0
 10
-50.4758
 20
-17.1847
 30
0.0
 10
-50.4758
 20
-17.1847
 30
0.0
 10
-50.4758
 20
-17.1847
 30
0.0
 10
-50.4758
 20
-17.1847
 30
0.0
 10
-50.8627
 20
-17.1847
 30
0.0
 10
-50.8627
 20
-17.1847
 30
0.0
  0
SPLINE
  5
58
330
1F
100
AcDbEntity
  8
Ilustrace
 62
   250
100
AcDbSpline
210
0.0
220
0.0
230
1.0
 70
    11
 71
     3
 72
    16
 73
    12
 74
     0
 42
0.0000000001
 43
0.0000000001
 40
0.0
 40
0.0
 40
0.0
 40
0.0
 40
0.25
 40
0.25
 40
0.25
 40
0.25
 40
0.5
 40
0.5
 40
0.5
 40
0.5
 40
1.0
 40
1.0
 40
1.0
 40
1.0
 10
-50.6716
 20
-17.5843
 30
0.0
 10
-50.6716
 20
-17.5843
 30
0.0
 10
-50.5269
 20
-18.0494
 30
0.0
 10
-50.5269
 20
-18.0494
 30
0.0
 10
-50.5269
 20
-18.0494
 30
0.0
 10
-50.5269
 20
-18.0494
 30
0.0
 10
-50.8154
 20
-18.0494
 30
0.0
 10
-50.8154
 20
-18.0494
 30
0.0
 10
-50.8154
 20
-18.0494
 30
0.0
 10
-50.8154
 20
-18.0494
 30
0.0
 10
-50.6716
 20
-17.5843
 30
0.0
 10
-50.6716
 20
-17.5843
 30
0.0
  0
SPLINE
  5
59
330
1F
100
AcDbEntity
  8
Ilustrace
 62
   250
100
AcDbSpline
210
0.0
220
0.0
230
1.0
 70
    11
 71
     3
 72
    20
 73
    16
 74
     0
 42
0.0000000001
 43
0.0000000001
 40
0.0
 40
0.0
 40
0.0
 40
0.0
 40
0.2
 40
0.2
 40
0.2
 40
0.2
 40
0.4
 40
0.4
 40
0.4
 40
0.4
 40
0.6
 40
0.6
 40
0.6
 40
0.6
 40
1.0
 40
1.0
 40
1.0
 40
1.0
 10
-49.9464
 20
-18.5939
 30
0.0
 10
-49.9464
 20
-18.5939
 30
0.0
 10
-49.6145
 20
-18.5939
 30
0.0
 10
-49.6145
 20
-18.5939
 30
0.0
 10
-49.6145
 20
-18.5939
 30
0.0
 10
-49.6145
 20
-18.5939
 30
0.0
 10
-49.6145
 20
-17.185
 30
0.0
 10
-49.6145
 20
-17.185
 30
0.0
 10
-49.6145
 20
-17.185
 30
0.0
 10
-49.6145
 20
-17.185
 30
0.0
 10
-49.9464
 20
-17.185
 30
0.0
 10
-49.9464
 20
-17.185
 30
0.0
 10
-49.9464
 20
-17.185
 30
0.0
 10
-49.9464
 20
-17.185
 30
0.0
 10
-49.9464
 20
-18.5939
 30
0.0
 10
-49.9464
 20
-18.5939
 30
0.0
  0
SPLINE
  5
5A
330
1F
100
AcDbEntity
  8
Ilustrace
 62
   250
100
AcDbSpline
210
0.0
220
0.0
230
1.0
 70
    11
 71
     3
 72
   124
 73
   120
 74
     0
 42
0.0000000001
 43
0.0000000001
 40
0.0
 40
0.0
 40
0.0
 40
0.0
 40
0.032258064516129
 40
0.032258064516129
 40
0.032258064516129
 40
0.032258064516129
 40
0.0645161290322581
 40
0.0645161290322581
 40
0.0645161290322581
 40
0.0645161290322581
 40
0.0967741935483871
 40
0.0967741935483871
 40
0.0967741935483871
 40
0.0967741935483871
 40
0.1290322580645161
 40
0.1290322580645161
 40
0.1290322580645161
 40
0.1290322580645161
 40
0.1612903225806452
 40
0.1612903225806452
 40
0.1612903225806452
 40
0.1612903225806452
 40
0.1935483870967742
 40
0.1935483870967742
 40
0.1935483870967742
 40
0.1935483870967742
 40
0.2258064516129032
 40
0.2258064516129032
 40
0.2258064516129032
 40
0.2258064516129032
 40
0.2580645161290323
 40
0.2580645161290323
 40
0.2580645161290323
 40
0.2580645161290323
 40
0.2903225806451613
 40
0.2903225806451613
 40
0.2903225806451613
 40
0.2903225806451613
 40
0.3225806451612903
 40
0.3225806451612903
 40
0.3225806451612903
 40
0.3225806451612903
 40
0.3548387096774194
 40
0.3548387096774194
 40
0.3548387096774194
 40
0.3548387096774194
 40
0.3870967741935484
 40
0.3870967741935484
 40
0.3870967741935484
 40
0.3870967741935484
 40
0.4193548387096774
 40
0.4193548387096774
 40
0.4193548387096774
 40
0.4193548387096774
 40
0.4516129032258064
 40
0.4516129032258064
 40
0.4516129032258064
 40
0.4516129032258064
 40
0.4838709677419355
 40
0.4838709677419355
 40
0.4838709677419355
 40
0.4838709677419355
 40
0.5161290322580645
 40
0.5161290322580645
 40
0.5161290322580645
 40
0.5161290322580645
 40
0.5483870967741935
 40
0.5483870967741935
 40
0.5483870967741935
 40
0.5483870967741935
 40
0.5806451612903226
 40
0.5806451612903226
 40
0.5806451612903226
 40
0.5806451612903226
 40
0.6129032258064516
 40
0.6129032258064516
 40
0.6129032258064516
 40
0.6129032258064516
 40
0.6451612903225806
 40
0.6451612903225806
 40
0.6451612903225806
 40
0.6451612903225806
 40
0.6774193548387096
 40
0.6774193548387096
 40
0.6774193548387096
 40
0.6774193548387096
 40
0.7096774193548387
 40
0.7096774193548387
 40
0.7096774193548387
 40
0.7096774193548387
 40
0.7419354838709677
 40
0.7419354838709677
 40
0.7419354838709677
 40
0.7419354838709677
 40
0.7741935483870968
 40
0.7741935483870968
 40
0.7741935483870968
 40
0.7741935483870968
 40
0.8064516129032258
 40
0.8064516129032258
 40
0.8064516129032258
 40
0.8064516129032258
 40
0.8387096774193549
 40
0.8387096774193549
 40
0.8387096774193549
 40
0.8387096774193549
 40
0.8709677419354839
 40
0.8709677419354839
 40
0.8709677419354839
 40
0.8709677419354839
 40
0.9032258064516129
 40
0.9032258064516129
 40
0.9032258064516129
 40
0.9032258064516129
 40
0.9354838709677419
 40
0.9354838709677419
 40
0.9354838709677419
 40
0.9354838709677419
 40
1.0
 40
1.0
 40
1.0
 40
1.0
 10
-48.9338
 20
-18.5984
 30
0.0
 10
-49.0218
 20
-18.5984
 30
0.0
 10
-49.1024
 20
-18.5873
 30
0.0
 10
-49.1753
 20
-18.565
 30
0.0
 10
-49.1753
 20
-18.565
 30
0.0
 10
-49.2485
 20
-18.543
 30
0.0
 10
-49.3116
 20
-18.509
 30
0.0
 10
-49.3657
 20
-18.4627
 30
0.0
 10
-49.3657
 20
-18.4627
 30
0.0
 10
-49.4187
 20
-18.4164
 30
0.0
 10
-49.4602
 20
-18.3584
 30
0.0
 10
-49.4897
 20
-18.2886
 30
0.0
 10
-49.4897
 20
-18.2886
 30
0.0
 10
-49.5195
 20
-18.2189
 30
0.0
 10
-49.5344
 20
-18.1364
 30
0.0
 10
-49.5344
 20
-18.0415
 30
0.0
 10
-49.5344
 20
-18.0415
 30
0.0
 10
-49.5344
 20
-17.9399
 30
0.0
 10
-49.5182
 20
-17.8531
 30
0.0
 10
-49.4861
 20
-17.7815
 30
0.0
 10
-49.4861
 20
-17.7815
 30
0.0
 10
-49.4537
 20
-17.7103
 30
0.0
 10
-49.41
 20
-17.6514
 30
0.0
 10
-49.355
 20
-17.6051
 30
0.0
 10
-49.355
 20
-17.6051
 30
0.0
 10
-49.3019
 20
-17.561
 30
0.0
 10
-49.2394
 20
-17.5283
 30
0.0
 10
-49.1678
 20
-17.507
 30
0.0
 10
-49.1678
 20
-17.507
 30
0.0
 10
-49.096
 20
-17.486
 30
0.0
 10
-49.0212
 20
-17.4752
 30
0.0
 10
-48.9435
 20
-17.4752
 30
0.0
 10
-48.9435
 20
-17.4752
 30
0.0
 10
-48.8846
 20
-17.4752
 30
0.0
 10
-48.8259
 20
-17.482
 30
0.0
 10
-48.767
 20
-17.4957
 30
0.0
 10
-48.767
 20
-17.4957
 30
0.0
 10
-48.7081
 20
-17.5093
 30
0.0
 10
-48.6491
 20
-17.5309
 30
0.0
 10
-48.5896
 20
-17.5607
 30
0.0
 10
-48.5896
 20
-17.5607
 30
0.0
 10
-48.5896
 20
-17.5607
 30
0.0
 10
-48.5896
 20
-17.8453
 30
0.0
 10
-48.5896
 20
-17.8453
 30
0.0
 10
-48.5896
 20
-17.8453
 30
0.0
 10
-48.5896
 20
-17.8453
 30
0.0
 10
-48.6323
 20
-17.8453
 30
0.0
 10
-48.6323
 20
-17.8453
 30
0.0
 10
-48.6323
 20
-17.8453
 30
0.0
 10
-48.6456
 20
-17.8326
 30
0.0
 10
-48.6618
 20
-17.8188
 30
0.0
 10
-48.6812
 20
-17.8035
 30
0.0
 10
-48.6812
 20
-17.8035
 30
0.0
 10
-48.7003
 20
-17.7883
 30
0.0
 10
-48.7214
 20
-17.7744
 30
0.0
 10
-48.744
 20
-17.7617
 30
0.0
 10
-48.744
 20
-17.7617
 30
0.0
 10
-48.7683
 20
-17.7485
 30
0.0
 10
-48.7955
 20
-17.7372
 30
0.0
 10
-48.8256
 20
-17.7281
 30
0.0
 10
-48.8256
 20
-17.7281
 30
0.0
 10
-48.8561
 20
-17.7187
 30
0.0
 10
-48.89
 20
-17.7142
 30
0.0
 10
-48.9273
 20
-17.7142
 30
0.0
 10
-48.9273
 20
-17.7142
 30
0.0
 10
-49.0121
 20
-17.7142
 30
0.0
 10
-49.0775
 20
-17.7436
 30
0.0
 10
-49.1241
 20
-17.8029
 30
0.0
 10
-49.1241
 20
-17.8029
 30
0.0
 10
-49.1705
 20
-17.8621
 30
0.0
 10
-49.1938
 20
-17.9414
 30
0.0
 10
-49.1938
 20
-18.0415
 30
0.0
 10
-49.1938
 20
-18.0415
 30
0.0
 10
-49.1938
 20
-18.1483
 30
0.0
 10
-49.1688
 20
-18.2283
 30
0.0
 10
-49.1193
 20
-18.2808
 30
0.0
 10
-49.1193
 20
-18.2808
 30
0.0
 10
-49.0697
 20
-18.3332
 30
0.0
 10
-49.0037
 20
-18.3594
 30
0.0
 10
-48.9214
 20
-18.3594
 30
0.0
 10
-48.9214
 20
-18.3594
 30
0.0
 10
-48.8797
 20
-18.3594
 30
0.0
 10
-48.8431
 20
-18.3546
 30
0.0
 10
-48.8114
 20
-18.3452
 30
0.0
 10
-48.8114
 20
-18.3452
 30
0.0
 10
-48.78
 20
-18.3358
 30
0.0
 10
-48.7528
 20
-18.3241
 30
0.0
 10
-48.7301
 20
-18.3109
 30
0.0
 10
-48.7301
 20
-18.3109
 30
0.0
 10
-48.7078
 20
-18.2975
 30
0.0
 10
-48.689
 20
-18.284
 30
0.0
 10
-48.6731
 20
-18.2698
 30
0.0
 10
-48.6731
 20
-18.2698
 30
0.0
 10
-48.6573
 20
-18.2555
 30
0.0
 10
-48.6437
 20
-18.2426
 30
0.0
 10
-48.6323
 20
-18.2312
 30
0.0
 10
-48.6323
 20
-18.2312
 30
0.0
 10
-48.6323
 20
-18.2312
 30
0.0
 10
-48.5896
 20
-18.2312
 30
0.0
 10
-48.5896
 20
-18.2312
 30
0.0
 10
-48.5896
 20
-18.2312
 30
0.0
 10
-48.5896
 20
-18.2312
 30
0.0
 10
-48.5896
 20
-18.5158
 30
0.0
 10
-48.5896
 20
-18.5158
 30
0.0
 10
-48.5896
 20
-18.5158
 30
0.0
 10
-48.6087
 20
-18.5239
 30
0.0
 10
-48.6304
 20
-18.5336
 30
0.0
 10
-48.6557
 20
-18.5443
 30
0.0
 10
-48.6557
 20
-18.5443
 30
0.0
 10
-48.6806
 20
-18.555
 30
0.0
 10
-48.7058
 20
-18.564
 30
0.0
 10
-48.7317
 20
-18.5708
 30
0.0
 10
-48.7317
 20
-18.5708
 30
0.0
 10
-48.7641
 20
-18.5795
 30
0.0
 10
-48.7942
 20
-18.5863
 30
0.0
 10
-48.8224
 20
-18.5912
 30
0.0
 10
-48.8224
 20
-18.5912
 30
0.0
 10
-48.8505
 20
-18.5961
 30
0.0
 10
-48.8878
 20
-18.5984
 30
0.0
 10
-48.9338
 20
-18.5984
 30
0.0
  0
SPLINE
  5
5B
330
1F
100
AcDbEntity
  8
Ilustrace
 62
   250
100
AcDbSpline
210
0.0
220
0.0
230
1.0
 70
    11
 71
     3
 72
    40
 73
    36
 74
     0
 42
0.0000000001
 43
0.0000000001
 40
0.0
 40
0.0
 40
0.0
 40
0.0
 40
0.1
 40
0.1
 40
0.1
 40
0.1
 40
0.2
 40
0.2
 40
0.2
 40
0.2
 40
0.3
 40
0.3
 40
0.3
 40
0.3
 40
0.4
 40
0.4
 40
0.4
 40
0.4
 40
0.5
 40
0.5
 40
0.5
 40
0.5
 40
0.6
 40
0.6
 40
0.6
 40
0.6
 40
0.7
 40
0.7
 40
0.7
 40
0.7
 40
0.8
 40
0.8
 40
0.8
 40
0.8
 40
1.0
 40
1.0
 40
1.0
 40
1.0
 10
-47.8449
 20
-18.2921
 30
0.0
 10
-47.8449
 20
-18.2921
 30
0.0
 10
-47.8449
 20
-18.07
 30
0.0
 10
-47.8449
 20
-18.07
 30
0.0
 10
-47.8449
 20
-18.07
 30
0.0
 10
-47.9012
 20
-18.0758
 30
0.0
 10
-47.9469
 20
-18.0807
 30
0.0
 10
-47.9815
 20
-18.0845
 30
0.0
 10
-47.9815
 20
-18.0845
 30
0.0
 10
-48.0165
 20
-18.0888
 30
0.0
 10
-48.0505
 20
-18.0969
 30
0.0
 10
-48.0842
 20
-18.1088
 30
0.0
 10
-48.0842
 20
-18.1088
 30
0.0
 10
-48.1133
 20
-18.1188
 30
0.0
 10
-48.1356
 20
-18.1344
 30
0.0
 10
-48.1518
 20
-18.1548
 30
0.0
 10
-48.1518
 20
-18.1548
 30
0.0
 10
-48.168
 20
-18.1755
 30
0.0
 10
-48.1761
 20
-18.2027
 30
0.0
 10
-48.1761
 20
-18.2371
 30
0.0
 10
-48.1761
 20
-18.2371
 30
0.0
 10
-48.1761
 20
-18.2869
 30
0.0
 10
-48.1625
 20
-18.3212
 30
0.0
 10
-48.1356
 20
-18.34
 30
0.0
 10
-48.1356
 20
-18.34
 30
0.0
 10
-48.1087
 20
-18.3584
 30
0.0
 10
-48.0692
 20
-18.3679
 30
0.0
 10
-48.0168
 20
-18.3679
 30
0.0
 10
-48.0168
 20
-18.3679
 30
0.0
 10
-47.9877
 20
-18.3679
 30
0.0
 10
-47.9579
 20
-18.3611
 30
0.0
 10
-47.9274
 20
-18.3478
 30
0.0
 10
-47.9274
 20
-18.3478
 30
0.0
 10
-47.897
 20
-18.3344
 30
0.0
 10
-47.8695
 20
-18.316
 30
0.0
 10
-47.8449
 20
-18.2921
 30
0.0
  0
SPLINE
  5
5C
330
1F
100
AcDbEntity
  8
Ilustrace
 62
   250
100
AcDbSpline
210
0.0
220
0.0
230
1.0
 70
    11
 71
     3
 72
   104
 73
   100
 74
     0
 42
0.0000000001
 43
0.0000000001
 40
0.0
 40
0.0
 40
0.0
 40
0.0
 40
0.0384615384615385
 40
0.0384615384615385
 40
0.0384615384615385
 40
0.0384615384615385
 40
0.0769230769230769
 40
0.0769230769230769
 40
0.0769230769230769
 40
0.0769230769230769
 40
0.1153846153846154
 40
0.1153846153846154
 40
0.1153846153846154
 40
0.1153846153846154
 40
0.1538461538461539
 40
0.1538461538461539
 40
0.1538461538461539
 40
0.1538461538461539
 40
0.1923076923076923
 40
0.1923076923076923
 40
0.1923076923076923
 40
0.1923076923076923
 40
0.2307692307692308
 40
0.2307692307692308
 40
0.2307692307692308
 40
0.2307692307692308
 40
0.2692307692307692
 40
0.2692307692307692
 40
0.2692307692307692
 40
0.2692307692307692
 40
0.3076923076923077
 40
0.3076923076923077
 40
0.3076923076923077
 40
0.3076923076923077
 40
0.3461538461538461
 40
0.3461538461538461
 40
0.3461538461538461
 40
0.3461538461538461
 40
0.3846153846153846
 40
0.3846153846153846
 40
0.3846153846153846
 40
0.3846153846153846
 40
0.4230769230769231
 40
0.4230769230769231
 40
0.4230769230769231
 40
0.4230769230769231
 40
0.4615384615384616
 40
0.4615384615384616
 40
0.4615384615384616
 40
0.4615384615384616
 40
0.5
 40
0.5
 40
0.5
 40
0.5
 40
0.5384615384615384
 40
0.5384615384615384
 40
0.5384615384615384
 40
0.5384615384615384
 40
0.5769230769230769
 40
0.5769230769230769
 40
0.5769230769230769
 40
0.5769230769230769
 40
0.6153846153846154
 40
0.6153846153846154
 40
0.6153846153846154
 40
0.6153846153846154
 40
0.6538461538461539
 40
0.6538461538461539
 40
0.6538461538461539
 40
0.6538461538461539
 40
0.6923076923076923
 40
0.6923076923076923
 40
0.6923076923076923
 40
0.6923076923076923
 40
0.7307692307692307
 40
0.7307692307692307
 40
0.7307692307692307
 40
0.7307692307692307
 40
0.7692307692307693
 40
0.7692307692307693
 40
0.7692307692307693
 40
0.7692307692307693
 40
0.8076923076923077
 40
0.8076923076923077
 40
0.8076923076923077
 40
0.8076923076923077
 40
0.8461538461538461
 40
0.8461538461538461
 40
0.8461538461538461
 40
0.8461538461538461
 40
0.8846153846153846
 40
0.8846153846153846
 40
0.8846153846153846
 40
0.8846153846153846
 40
0.9230769230769231
 40
0.9230769230769231
 40
0.9230769230769231
 40
0.9230769230769231
 40
1.0
 40
1.0
 40
1.0
 40
1.0
 10
-48.4228
 20
-17.5614
 30
0.0
 10
-48.3866
 20
-17.5324
 30
0.0
 10
-48.3367
 20
-17.5067
 30
0.0
 10
-48.2636
 20
-17.4937
 30
0.0
 10
-48.2636
 20
-17.4937
 30
0.0
 10
-48.19
 20
-17.4807
 30
0.0
 10
-48.1159
 20
-17.4743
 30
0.0
 10
-48.0414
 20
-17.4743
 30
0.0
 10
-48.0414
 20
-17.4743
 30
0.0
 10
-47.8579
 20
-17.4743
 30
0.0
 10
-47.7241
 20
-17.5047
 30
0.0
 10
-47.6402
 20
-17.5659
 30
0.0
 10
-47.6402
 20
-17.5659
 30
0.0
 10
-47.5564
 20
-17.6268
 30
0.0
 10
-47.5146
 20
-17.72
 30
0.0
 10
-47.5146
 20
-17.8453
 30
0.0
 10
-47.5146
 20
-17.8453
 30
0.0
 10
-47.5146
 20
-17.8453
 30
0.0
 10
-47.5146
 20
-18.5947
 30
0.0
 10
-47.5146
 20
-18.5947
 30
0.0
 10
-47.5146
 20
-18.5947
 30
0.0
 10
-47.5146
 20
-18.5947
 30
0.0
 10
-47.8449
 20
-18.5947
 30
0.0
 10
-47.8449
 20
-18.5947
 30
0.0
 10
-47.8449
 20
-18.5947
 30
0.0
 10
-47.8449
 20
-18.5947
 30
0.0
 10
-47.8449
 20
-18.4569
 30
0.0
 10
-47.8449
 20
-18.4569
 30
0.0
 10
-47.8449
 20
-18.4569
 30
0.0
 10
-47.8675
 20
-18.476
 30
0.0
 10
-47.8879
 20
-18.4931
 30
0.0
 10
-47.906
 20
-18.5083
 30
0.0
 10
-47.906
 20
-18.5083
 30
0.0
 10
-47.9242
 20
-18.5232
 30
0.0
 10
-47.9482
 20
-18.5385
 30
0.0
 10
-47.9786
 20
-18.5537
 30
0.0
 10
-47.9786
 20
-18.5537
 30
0.0
 10
-48.0084
 20
-18.5682
 30
0.0
 10
-48.0372
 20
-18.5792
 30
0.0
 10
-48.0654
 20
-18.587
 30
0.0
 10
-48.0654
 20
-18.587
 30
0.0
 10
-48.0936
 20
-18.5945
 30
0.0
 10
-48.133
 20
-18.5984
 30
0.0
 10
-48.1836
 20
-18.5984
 30
0.0
 10
-48.1836
 20
-18.5984
 30
0.0
 10
-48.2778
 20
-18.5984
 30
0.0
 10
-48.3561
 20
-18.5666
 30
0.0
 10
-48.4183
 20
-18.5035
 30
0.0
 10
-48.4183
 20
-18.5035
 30
0.0
 10
-48.4808
 20
-18.4403
 30
0.0
 10
-48.5119
 20
-18.3607
 30
0.0
 10
-48.5119
 20
-18.2646
 30
0.0
 10
-48.5119
 20
-18.2646
 30
0.0
 10
-48.5119
 20
-18.1855
 30
0.0
 10
-48.496
 20
-18.1215
 30
0.0
 10
-48.4643
 20
-18.0729
 30
0.0
 10
-48.4643
 20
-18.0729
 30
0.0
 10
-48.4328
 20
-18.0243
 30
0.0
 10
-48.3872
 20
-17.9855
 30
0.0
 10
-48.328
 20
-17.9573
 30
0.0
 10
-48.328
 20
-17.9573
 30
0.0
 10
-48.2678
 20
-17.9282
 30
0.0
 10
-48.1959
 20
-17.9078
 30
0.0
 10
-48.1123
 20
-17.8965
 30
0.0
 10
-48.1123
 20
-17.8965
 30
0.0
 10
-48.0306
 20
-17.8854
 30
0.0
 10
-47.943
 20
-17.8766
 30
0.0
 10
-47.8492
 20
-17.8702
 30
0.0
 10
-47.8492
 20
-17.8702
 30
0.0
 10
-47.8595
 20
-17.8456
 30
0.0
 10
-47.8726
 20
-17.8232
 30
0.0
 10
-47.8882
 20
-17.8032
 30
0.0
 10
-47.8882
 20
-17.8032
 30
0.0
 10
-47.9349
 20
-17.7439
 30
0.0
 10
-48.0002
 20
-17.7145
 30
0.0
 10
-48.0851
 20
-17.7145
 30
0.0
 10
-48.0851
 20
-17.7145
 30
0.0
 10
-48.1223
 20
-17.7145
 30
0.0
 10
-48.1563
 20
-17.7191
 30
0.0
 10
-48.1868
 20
-17.7284
 30
0.0
 10
-48.1868
 20
-17.7284
 30
0.0
 10
-48.2169
 20
-17.7375
 30
0.0
 10
-48.2441
 20
-17.7488
 30
0.0
 10
-48.2683
 20
-17.762
 30
0.0
 10
-48.2683
 20
-17.762
 30
0.0
 10
-48.291
 20
-17.7747
 30
0.0
 10
-48.312
 20
-17.7887
 30
0.0
 10
-48.3311
 20
-17.8038
 30
0.0
 10
-48.3311
 20
-17.8038
 30
0.0
 10
-48.3506
 20
-17.8191
 30
0.0
 10
-48.3668
 20
-17.833
 30
0.0
 10
-48.3801
 20
-17.8456
 30
0.0
 10
-48.3801
 20
-17.8456
 30
0.0
 10
-48.3801
 20
-17.8456
 30
0.0
 10
-48.4228
 20
-17.8456
 30
0.0
 10
-48.4228
 20
-17.8456
 30
0.0
 10
-48.4228
 20
-17.8456
 30
0.0
 10
-48.4228
 20
-17.8456
 30
0.0
 10
-48.4228
 20
-17.5614
 30
0.0
 10
-48.4228
 20
-17.5614
 30
0.0
  0
SPLINE
  5
5D
330
1F
100
AcDbEntity
  8
Ilustrace
 62
   250
370
    30
100
AcDbSpline
210
0.0
220
0.0
230
1.0
 70
    24
 71
     3
 72
     8
 73
     4
 74
     0
 42
0.0000000001
 43
0.0000000001
 40
0.0
 40
0.0
 40
0.0
 40
0.0
 40
1.0
 40
1.0
 40
1.0
 40
1.0
 10
-42.9923
 20
-33.7638
 30
0.0
 10
-42.9923
 20
-33.7638
 30
0.0
 10
-42.9923
 20
-32.3395
 30
0.0
 10
-42.9923
 20
-32.3395
 30
0.0
  0
SPLINE
  5
5E
330
1F
100
AcDbEntity
  8
Ilustrace
 62
   250
370
    30
100
AcDbSpline
210
0.0
220
0.0
230
1.0
 70
    24
 71
     3
 72
     8
 73
     4
 74
     0
 42
0.0000000001
 43
0.0000000001
 40
0.0
 40
0.0
 40
0.0
 40
0.0
 40
1.0
 40
1.0
 40
1.0
 40
1.0
 10
37.6271
 20
-33.7638
 30
0.0
 10
37.6271
 20
-33.7638
 30
0.0
 10
-42.9923
 20
-33.7638
 30
0.0
 10
-42.9923
 20
-33.7638
 30
0.0
  0
SPLINE
  5
5F
330
1F
100
AcDbEntity
  8
Ilustrace
 62
   250
370
    30
100
AcDbSpline
210
0.0
220
0.0
230
1.0
 70
    24
 71
     3
 72
     8
 73
     4
 74
     0
 42
0.0000000001
 43
0.0000000001
 40
0.0
 40
0.0
 40
0.0
 40
0.0
 40
1.0
 40
1.0
 40
1.0
 40
1.0
 10
37.6271
 20
-32.3395
 30
0.0
 10
37.6271
 20
-32.3395
 30
0.0
 10
37.6271
 20
-33.7638
 30
0.0
 10
37.6271
 20
-33.7638
 30
0.0
  0
SPLINE
  5
60
330
1F
100
AcDbEntity
  8
Ilustrace
 62
   250
370
    30
100
AcDbSpline
210
0.0
220
0.0
230
1.0
 70
    24
 71
     3
 72
     8
 73
     4
 74
     0
 42
0.0000000001
 43
0.0000000001
 40
0.0
 40
0.0
 40
0.0
 40
0.0
 40
1.0
 40
1.0
 40
1.0
 40
1.0
 10
-43.4197
 20
-33.7638
 30
0.0
 10
-43.4197
 20
-33.7638
 30
0.0
 10
-43.4197
 20
-32.3395
 30
0.0
 10
-43.4197
 20
-32.3395
 30
0.0
  0
SPLINE
  5
61
330
1F
100
AcDbEntity
  8
Ilustrace
 62
   250
370
    30
100
AcDbSpline
210
0.0
220
0.0
230
1.0
 70
    24
 71
     3
 72
     8
 73
     4
 74
     0
 42
0.0000000001
 43
0.0000000001
 40
0.0
 40
0.0
 40
0.0
 40
0.0
 40
1.0
 40
1.0
 40
1.0
 40
1.0
 10
-42.9923
 20
-33.7638
 30
0.0
 10
-42.9923
 20
-33.7638
 30
0.0
 10
-43.4197
 20
-33.7638
 30
0.0
 10
-43.4197
 20
-33.7638
 30
0.0
  0
SPLINE
  5
62
330
1F
100
AcDbEntity
  8
Ilustrace
 62
   250
370
    30
100
AcDbSpline
210
0.0
220
0.0
230
1.0
 70
    24
 71
     3
 72
     8
 73
     4
 74
     0
 42
0.0000000001
 43
0.0000000001
 40
0.0
 40
0.0
 40
0.0
 40
0.0
 40
1.0
 40
1.0
 40
1.0
 40
1.0
 10
38.0545
 20
-33.7638
 30
0.0
 10
38.0545
 20
-33.7638
 30
0.0
 10
37.6271
 20
-33.7638
 30
0.0
 10
37.6271
 20
-33.7638
 30
0.0
  0
SPLINE
  5
63
330
1F
100
AcDbEntity
  8
Ilustrace
 62
   250
370
    30
100
AcDbSpline
210
0.0
220
0.0
230
1.0
 70
    24
 71
     3
 72
     8
 73
     4
 74
     0
 42
0.0000000001
 43
0.0000000001
 40
0.0
 40
0.0
 40
0.0
 40
0.0
 40
1.0
 40
1.0
 40
1.0
 40
1.0
 10
38.0545
 20
-33.7638
 30
0.0
 10
38.0545
 20
-33.7638
 30
0.0
 10
38.0545
 20
-32.3395
 30
0.0
 10
38.0545
 20
-32.3395
 30
0.0
  0
SPLINE
  5
64
330
1F
100
AcDbEntity
  8
Ilustrace
 62
   250
370
    30
100
AcDbSpline
210
0.0
220
0.0
230
1.0
 70
    24
 71
     3
 72
     8
 73
     4
 74
     0
 42
0.0000000001
 43
0.0000000001
 40
0.0
 40
0.0
 40
0.0
 40
0.0
 40
1.0
 40
1.0
 40
1.0
 40
1.0
 10
39.8207
 20
-33.7638
 30
0.0
 10
39.8207
 20
-33.7638
 30
0.0
 10
38.0545
 20
-33.7638
 30
0.0
 10
38.0545
 20
-33.7638
 30
0.0
  0
SPLINE
  5
65
330
1F
100
AcDbEntity
  8
Ilustrace
 62
   250
370
    30
100
AcDbSpline
210
0.0
220
0.0
230
1.0
 70
    24
 71
     3
 72
     8
 73
     4
 74
     0
 42
0.0000000001
 43
0.0000000001
 40
0.0
 40
0.0
 40
0.0
 40
0.0
 40
1.0
 40
1.0
 40
1.0
 40
1.0
 10
39.8207
 20
-32.3395
 30
0.0
 10
39.8207
 20
-32.3395
 30
0.0
 10
39.8207
 20
-33.7638
 30
0.0
 10
39.8207
 20
-33.7638
 30
0.0
  0
SPLINE
  5
66
330
1F
100
AcDbEntity
  8
Ilustrace
 62
   250
370
    30
100
AcDbSpline
210
0.0
220
0.0
230
1.0
 70
    24
 71
     3
 72
     8
 73
     4
 74
     0
 42
0.0000000001
 43
0.0000000001
 40
0.0
 40
0.0
 40
0.0
 40
0.0
 40
1.0
 40
1.0
 40
1.0
 40
1.0
 10
38.8134
 20
-33.7638
 30
0.0
 10
38.8134
 20
-33.7638
 30
0.0
 10
38.8134
 20
-32.3395
 30
0.0
 10
38.8134
 20
-32.3395
 30
0.0
  0
SPLINE
  5
67
330
1F
100
AcDbEntity
  8
Ilustrace
 62
   250
370
    30
100
AcDbSpline
210
0.0
220
0.0
230
1.0
 70
    24
 71
     3
 72
     8
 73
     4
 74
     0
 42
0.0000000001
 43
0.0000000001
 40
0.0
 40
0.0
 40
0.0
 40
0.0
 40
1.0
 40
1.0
 40
1.0
 40
1.0
 10
-43.4197
 20
-33.7638
 30
0.0
 10
-43.4197
 20
-33.7638
 30
0.0
 10
-45.1858
 20
-33.7638
 30
0.0
 10
-45.1858
 20
-33.7638
 30
0.0
  0
SPLINE
  5
68
330
1F
100
AcDbEntity
  8
Ilustrace
 62
   250
370
    30
100
AcDbSpline
210
0.0
220
0.0
230
1.0
 70
    24
 71
     3
 72
     8
 73
     4
 74
     0
 42
0.0000000001
 43
0.0000000001
 40
0.0
 40
0.0
 40
0.0
 40
0.0
 40
1.0
 40
1.0
 40
1.0
 40
1.0
 10
-45.1858
 20
-32.3395
 30
0.0
 10
-45.1858
 20
-32.3395
 30
0.0
 10
-45.1858
 20
-33.7638
 30
0.0
 10
-45.1858
 20
-33.7638
 30
0.0
  0
SPLINE
  5
69
330
1F
100
AcDbEntity
  8
Ilustrace
 62
   250
370
    30
100
AcDbSpline
210
0.0
220
0.0
230
1.0
 70
    24
 71
     3
 72
     8
 73
     4
 74
     0
 42
0.0000000001
 43
0.0000000001
 40
0.0
 40
0.0
 40
0.0
 40
0.0
 40
1.0
 40
1.0
 40
1.0
 40
1.0
 10
-44.1786
 20
-32.3395
 30
0.0
 10
-44.1786
 20
-32.3395
 30
0.0
 10
-44.1786
 20
-33.7638
 30
0.0
 10
-44.1786
 20
-33.7638
 30
0.0
  0
SPLINE
  5
6A
330
1F
100
AcDbEntity
  8
Ilustrace
 62
   250
370
    30
100
AcDbSpline
210
0.0
220
0.0
230
1.0
 70
    24
 71
     3
 72
     8
 73
     4
 74
     0
 42
0.0000000001
 43
0.0000000001
 40
0.0
 40
0.0
 40
0.0
 40
0.0
 40
1.0
 40
1.0
 40
1.0
 40
1.0
 10
51.7286
 20
-31.1999
 30
0.0
 10
51.7286
 20
-31.1999
 30
0.0
 10
-57.0937
 20
-31.1999
 30
0.0
 10
-57.0937
 20
-31.1999
 30
0.0
  0
SPLINE
  5
6B
330
1F
100
AcDbEntity
  8
Ilustrace
 62
   250
370
    30
100
AcDbSpline
210
0.0
220
0.0
230
1.0
 70
    24
 71
     3
 72
     8
 73
     4
 74
     0
 42
0.0000000001
 43
0.0000000001
 40
0.0
 40
0.0
 40
0.0
 40
0.0
 40
1.0
 40
1.0
 40
1.0
 40
1.0
 10
-57.0937
 20
-32.3395
 30
0.0
 10
-57.0937
 20
-32.3395
 30
0.0
 10
-57.0937
 20
-31.1999
 30
0.0
 10
-57.0937
 20
-31.1999
 30
0.0
  0
SPLINE
  5
6C
330
1F
100
AcDbEntity
  8
Ilustrace
 62
   250
370
    30
100
AcDbSpline
210
0.0
220
0.0
230
1.0
 70
    24
 71
     3
 72
     8
 73
     4
 74
     0
 42
0.0000000001
 43
0.0000000001
 40
0.0
 40
0.0
 40
0.0
 40
0.0
 40
1.0
 40
1.0
 40
1.0
 40
1.0
 10
51.7286
 20
-32.3395
 30
0.0
 10
51.7286
 20
-32.3395
 30
0.0
 10
-57.0937
 20
-32.3395
 30
0.0
 10
-57.0937
 20
-32.3395
 30
0.0
  0
SPLINE
  5
6D
330
1F
100
AcDbEntity
  8
Ilustrace
 62
   250
370
    30
100
AcDbSpline
210
0.0
220
0.0
230
1.0
 70
    24
 71
     3
 72
     8
 73
     4
 74
     0
 42
0.0000000001
 43
0.0000000001
 40
0.0
 40
0.0
 40
0.0
 40
0.0
 40
1.0
 40
1.0
 40
1.0
 40
1.0
 10
51.7286
 20
-31.1999
 30
0.0
 10
51.7286
 20
-31.1999
 30
0.0
 10
51.7286
 20
-32.3395
 30
0.0
 10
51.7286
 20
-32.3395
 30
0.0
  0
SPLINE
  5
6E
330
1F
100
AcDbEntity
  8
Ilustrace
 62
   250
370
    30
100
AcDbSpline
210
0.0
220
0.0
230
1.0
 70
    24
 71
     3
 72
     8
 73
     4
 74
     0
 42
0.0000000001
 43
0.0000000001
 40
0.0
 40
0.0
 40
0.0
 40
0.0
 40
1.0
 40
1.0
 40
1.0
 40
1.0
 10
-2.7095
 20
34.3094
 30
0.0
 10
-2.7095
 20
34.3094
 30
0.0
 10
-57.122
 20
-20.1018
 30
0.0
 10
-57.122
 20
-20.1018
 30
0.0
  0
SPLINE
  5
6F
330
1F
100
AcDbEntity
  8
Ilustrace
 62
   250
370
    30
100
AcDbSpline
210
0.0
220
0.0
230
1.0
 70
    24
 71
     3
 72
     8
 73
     4
 74
     0
 42
0.0000000001
 43
0.0000000001
 40
0.0
 40
0.0
 40
0.0
 40
0.0
 40
1.0
 40
1.0
 40
1.0
 40
1.0
 10
51.7
 20
-20.1018
 30
0.0
 10
51.7
 20
-20.1018
 30
0.0
 10
-57.122
 20
-20.1018
 30
0.0
 10
-57.122
 20
-20.1018
 30
0.0
  0
SPLINE
  5
70
330
1F
100
AcDbEntity
  8
Ilustrace
 62
   250
370
    30
100
AcDbSpline
210
0.0
220
0.0
230
1.0
 70
    24
 71
     3
 72
     8
 73
     4
 74
     0
 42
0.0000000001
 43
0.0000000001
 40
0.0
 40
0.0
 40
0.0
 40
0.0
 40
1.0
 40
1.0
 40
1.0
 40
1.0
 10
-2.7095
 20
34.3094
 30
0.0
 10
-2.7095
 20
34.3094
 30
0.0
 10
51.7
 20
-20.1018
 30
0.0
 10
51.7
 20
-20.1018
 30
0.0
  0
SPLINE
  5
71
330
1F
100
AcDbEntity
  8
Ilustrace
 62
   250
370
    30
100
AcDbSpline
210
0.0
220
0.0
230
1.0
 70
    24
 71
     3
 72
     8
 73
     4
 74
     0
 42
0.0000000001
 43
0.0000000001
 40
0.0
 40
0.0
 40
0.0
 40
0.0
 40
1.0
 40
1.0
 40
1.0
 40
1.0
 10
-42.014
 20
-14.8466
 30
0.0
 10
-42.014
 20
-14.8466
 30
0.0
 10
-1.5033
 20
25.6674
 30
0.0
 10
-1.5033
 20
25.6674
 30
0.0
  0
SPLINE
  5
72
330
1F
100
AcDbEntity
  8
Ilustrace
 62
   250
370
    30
100
AcDbSpline
210
0.0
220
0.0
230
1.0
 70
    24
 71
     3
 72
     8
 73
     4
 74
     0
 42
0.0000000001
 43
0.0000000001
 40
0.0
 40
0.0
 40
0.0
 40
0.0
 40
1.0
 40
1.0
 40
1.0
 40
1.0
 10
-2.7095
 20
26.8762
 30
0.0
 10
-2.7095
 20
26.8762
 30
0.0
 10
-1.5033
 20
25.6674
 30
0.0
 10
-1.5033
 20
25.6674
 30
0.0
  0
SPLINE
  5
73
330
1F
100
AcDbEntity
  8
Ilustrace
 62
   250
370
    30
100
AcDbSpline
210
0.0
220
0.0
230
1.0
 70
    24
 71
     3
 72
     8
 73
     4
 74
     0
 42
0.0000000001
 43
0.0000000001
 40
0.0
 40
0.0
 40
0.0
 40
0.0
 40
1.0
 40
1.0
 40
1.0
 40
1.0
 10
-44.4336
 20
-14.8466
 30
0.0
 10
-44.4336
 20
-14.8466
 30
0.0
 10
-2.7095
 20
26.8762
 30
0.0
 10
-2.7095
 20
26.8762
 30
0.0
  0
SPLINE
  5
74
330
1F
100
AcDbEntity
  8
Ilustrace
 62
   250
370
    30
100
AcDbSpline
210
0.0
220
0.0
230
1.0
 70
    24
 71
     3
 72
     8
 73
     4
 74
     0
 42
0.0000000001
 43
0.0000000001
 40
0.0
 40
0.0
 40
0.0
 40
0.0
 40
1.0
 40
1.0
 40
1.0
 40
1.0
 10
-42.014
 20
-14.8466
 30
0.0
 10
-42.014
 20
-14.8466
 30
0.0
 10
-44.4336
 20
-14.8466
 30
0.0
 10
-44.4336
 20
-14.8466
 30
0.0
  0
SPLINE
  5
75
330
1F
100
AcDbEntity
  8
Ilustrace
 62
   250
370
    30
100
AcDbSpline
210
0.0
220
0.0
230
1.0
 70
    24
 71
     3
 72
     8
 73
     4
 74
     0
 42
0.0000000001
 43
0.0000000001
 40
0.0
 40
0.0
 40
0.0
 40
0.0
 40
1.0
 40
1.0
 40
1.0
 40
1.0
 10
1.4606
 20
22.7048
 30
0.0
 10
1.4606
 20
22.7048
 30
0.0
 10
-36.088
 20
-14.8466
 30
0.0
 10
-36.088
 20
-14.8466
 30
0.0
  0
SPLINE
  5
76
330
1F
100
AcDbEntity
  8
Ilustrace
 62
   250
370
    30
100
AcDbSpline
210
0.0
220
0.0
230
1.0
 70
    24
 71
     3
 72
     8
 73
     4
 74
     0
 42
0.0000000001
 43
0.0000000001
 40
0.0
 40
0.0
 40
0.0
 40
0.0
 40
1.0
 40
1.0
 40
1.0
 40
1.0
 10
-25.3273
 20
-14.8466
 30
0.0
 10
-25.3273
 20
-14.8466
 30
0.0
 10
-27.744
 20
-14.8466
 30
0.0
 10
-27.744
 20
-14.8466
 30
0.0
  0
SPLINE
  5
77
330
1F
100
AcDbEntity
  8
Ilustrace
 62
   250
370
    30
100
AcDbSpline
210
0.0
220
0.0
230
1.0
 70
    24
 71
     3
 72
     8
 73
     4
 74
     0
 42
0.0000000001
 43
0.0000000001
 40
0.0
 40
0.0
 40
0.0
 40
0.0
 40
1.0
 40
1.0
 40
1.0
 40
1.0
 10
5.6349
 20
18.5335
 30
0.0
 10
5.6349
 20
18.5335
 30
0.0
 10
-27.744
 20
-14.8466
 30
0.0
 10
-27.744
 20
-14.8466
 30
0.0
  0
SPLINE
  5
78
330
1F
100
AcDbEntity
  8
Ilustrace
 62
   250
370
    30
100
AcDbSpline
210
0.0
220
0.0
230
1.0
 70
    24
 71
     3
 72
     8
 73
     4
 74
     0
 42
0.0000000001
 43
0.0000000001
 40
0.0
 40
0.0
 40
0.0
 40
0.0
 40
1.0
 40
1.0
 40
1.0
 40
1.0
 10
6.8407
 20
17.3247
 30
0.0
 10
6.8407
 20
17.3247
 30
0.0
 10
5.6349
 20
18.5335
 30
0.0
 10
5.6349
 20
18.5335
 30
0.0
  0
SPLINE
  5
79
330
1F
100
AcDbEntity
  8
Ilustrace
 62
   250
370
    30
100
AcDbSpline
210
0.0
220
0.0
230
1.0
 70
    24
 71
     3
 72
     8
 73
     4
 74
     0
 42
0.0000000001
 43
0.0000000001
 40
0.0
 40
0.0
 40
0.0
 40
0.0
 40
1.0
 40
1.0
 40
1.0
 40
1.0
 10
-25.3273
 20
-14.8466
 30
0.0
 10
-25.3273
 20
-14.8466
 30
0.0
 10
6.8407
 20
17.3247
 30
0.0
 10
6.8407
 20
17.3247
 30
0.0
  0
SPLINE
  5
7A
330
1F
100
AcDbEntity
  8
Ilustrace
 62
   250
370
    30
100
AcDbSpline
210
0.0
220
0.0
230
1.0
 70
    24
 71
     3
 72
     8
 73
     4
 74
     0
 42
0.0000000001
 43
0.0000000001
 40
0.0
 40
0.0
 40
0.0
 40
0.0
 40
1.0
 40
1.0
 40
1.0
 40
1.0
 10
9.8062
 20
14.3608
 30
0.0
 10
9.8062
 20
14.3608
 30
0.0
 10
-19.4008
 20
-14.8466
 30
0.0
 10
-19.4008
 20
-14.8466
 30
0.0
  0
SPLINE
  5
7B
330
1F
100
AcDbEntity
  8
Ilustrace
 62
   250
370
    30
100
AcDbSpline
210
0.0
220
0.0
230
1.0
 70
    24
 71
     3
 72
     8
 73
     4
 74
     0
 42
0.0000000001
 43
0.0000000001
 40
0.0
 40
0.0
 40
0.0
 40
0.0
 40
1.0
 40
1.0
 40
1.0
 40
1.0
 10
11.0154
 20
13.1517
 30
0.0
 10
11.0154
 20
13.1517
 30
0.0
 10
9.8062
 20
14.3608
 30
0.0
 10
9.8062
 20
14.3608
 30
0.0
  0
SPLINE
  5
7C
330
1F
100
AcDbEntity
  8
Ilustrace
 62
   250
370
    30
100
AcDbSpline
210
0.0
220
0.0
230
1.0
 70
    24
 71
     3
 72
     8
 73
     4
 74
     0
 42
0.0000000001
 43
0.0000000001
 40
0.0
 40
0.0
 40
0.0
 40
0.0
 40
1.0
 40
1.0
 40
1.0
 40
1.0
 10
13.9776
 20
10.1895
 30
0.0
 10
13.9776
 20
10.1895
 30
0.0
 10
-11.0552
 20
-14.8466
 30
0.0
 10
-11.0552
 20
-14.8466
 30
0.0
  0
SPLINE
  5
7D
330
1F
100
AcDbEntity
  8
Ilustrace
 62
   250
370
    30
100
AcDbSpline
210
0.0
220
0.0
230
1.0
 70
    24
 71
     3
 72
     8
 73
     4
 74
     0
 42
0.0000000001
 43
0.0000000001
 40
0.0
 40
0.0
 40
0.0
 40
0.0
 40
1.0
 40
1.0
 40
1.0
 40
1.0
 10
15.1868
 20
8.9803
 30
0.0
 10
15.1868
 20
8.9803
 30
0.0
 10
13.9776
 20
10.1895
 30
0.0
 10
13.9776
 20
10.1895
 30
0.0
  0
SPLINE
  5
7E
330
1F
100
AcDbEntity
  8
Ilustrace
 62
   250
370
    30
100
AcDbSpline
210
0.0
220
0.0
230
1.0
 70
    24
 71
     3
 72
     8
 73
     4
 74
     0
 42
0.0000000001
 43
0.0000000001
 40
0.0
 40
0.0
 40
0.0
 40
0.0
 40
1.0
 40
1.0
 40
1.0
 40
1.0
 10
-0.2941
 20
-14.8466
 30
0.0
 10
-0.2941
 20
-14.8466
 30
0.0
 10
-2.7095
 20
-14.8466
 30
0.0
 10
-2.7095
 20
-14.8466
 30
0.0
  0
SPLINE
  5
7F
330
1F
100
AcDbEntity
  8
Ilustrace
 62
   250
370
    30
100
AcDbSpline
210
0.0
220
0.0
230
1.0
 70
    24
 71
     3
 72
     8
 73
     4
 74
     0
 42
0.0000000001
 43
0.0000000001
 40
0.0
 40
0.0
 40
0.0
 40
0.0
 40
1.0
 40
1.0
 40
1.0
 40
1.0
 10
18.1506
 20
6.0165
 30
0.0
 10
18.1506
 20
6.0165
 30
0.0
 10
-2.7095
 20
-14.8466
 30
0.0
 10
-2.7095
 20
-14.8466
 30
0.0
  0
SPLINE
  5
80
330
1F
100
AcDbEntity
  8
Ilustrace
 62
   250
370
    30
100
AcDbSpline
210
0.0
220
0.0
230
1.0
 70
    24
 71
     3
 72
     8
 73
     4
 74
     0
 42
0.0000000001
 43
0.0000000001
 40
0.0
 40
0.0
 40
0.0
 40
0.0
 40
1.0
 40
1.0
 40
1.0
 40
1.0
 10
19.3582
 20
4.806
 30
0.0
 10
19.3582
 20
4.806
 30
0.0
 10
18.1506
 20
6.0165
 30
0.0
 10
18.1506
 20
6.0165
 30
0.0
  0
SPLINE
  5
81
330
1F
100
AcDbEntity
  8
Ilustrace
 62
   250
370
    30
100
AcDbSpline
210
0.0
220
0.0
230
1.0
 70
    24
 71
     3
 72
     8
 73
     4
 74
     0
 42
0.0000000001
 43
0.0000000001
 40
0.0
 40
0.0
 40
0.0
 40
0.0
 40
1.0
 40
1.0
 40
1.0
 40
1.0
 10
-0.2941
 20
-14.8466
 30
0.0
 10
-0.2941
 20
-14.8466
 30
0.0
 10
19.3582
 20
4.806
 30
0.0
 10
19.3582
 20
4.806
 30
0.0
  0
SPLINE
  5
82
330
1F
100
AcDbEntity
  8
Ilustrace
 62
   250
370
    30
100
AcDbSpline
210
0.0
220
0.0
230
1.0
 70
    24
 71
     3
 72
     8
 73
     4
 74
     0
 42
0.0000000001
 43
0.0000000001
 40
0.0
 40
0.0
 40
0.0
 40
0.0
 40
1.0
 40
1.0
 40
1.0
 40
1.0
 10
22.3232
 20
1.8422
 30
0.0
 10
22.3232
 20
1.8422
 30
0.0
 10
5.6349
 20
-14.8466
 30
0.0
 10
5.6349
 20
-14.8466
 30
0.0
  0
SPLINE
  5
83
330
1F
100
AcDbEntity
  8
Ilustrace
 62
   250
370
    30
100
AcDbSpline
210
0.0
220
0.0
230
1.0
 70
    24
 71
     3
 72
     8
 73
     4
 74
     0
 42
0.0000000001
 43
0.0000000001
 40
0.0
 40
0.0
 40
0.0
 40
0.0
 40
1.0
 40
1.0
 40
1.0
 40
1.0
 10
8.0516
 20
-14.8466
 30
0.0
 10
8.0516
 20
-14.8466
 30
0.0
 10
5.6349
 20
-14.8466
 30
0.0
 10
5.6349
 20
-14.8466
 30
0.0
  0
SPLINE
  5
84
330
1F
100
AcDbEntity
  8
Ilustrace
 62
   250
370
    30
100
AcDbSpline
210
0.0
220
0.0
230
1.0
 70
    24
 71
     3
 72
     8
 73
     4
 74
     0
 42
0.0000000001
 43
0.0000000001
 40
0.0
 40
0.0
 40
0.0
 40
0.0
 40
1.0
 40
1.0
 40
1.0
 40
1.0
 10
23.5324
 20
0.6359
 30
0.0
 10
23.5324
 20
0.6359
 30
0.0
 10
8.0516
 20
-14.8466
 30
0.0
 10
8.0516
 20
-14.8466
 30
0.0
  0
SPLINE
  5
85
330
1F
100
AcDbEntity
  8
Ilustrace
 62
   250
370
    30
100
AcDbSpline
210
0.0
220
0.0
230
1.0
 70
    24
 71
     3
 72
     8
 73
     4
 74
     0
 42
0.0000000001
 43
0.0000000001
 40
0.0
 40
0.0
 40
0.0
 40
0.0
 40
1.0
 40
1.0
 40
1.0
 40
1.0
 10
22.3232
 20
1.8422
 30
0.0
 10
22.3232
 20
1.8422
 30
0.0
 10
23.5324
 20
0.6359
 30
0.0
 10
23.5324
 20
0.6359
 30
0.0
  0
SPLINE
  5
86
330
1F
100
AcDbEntity
  8
Ilustrace
 62
   250
370
    30
100
AcDbSpline
210
0.0
220
0.0
230
1.0
 70
    24
 71
     3
 72
     8
 73
     4
 74
     0
 42
0.0000000001
 43
0.0000000001
 40
0.0
 40
0.0
 40
0.0
 40
0.0
 40
1.0
 40
1.0
 40
1.0
 40
1.0
 10
26.4934
 20
-2.3292
 30
0.0
 10
26.4934
 20
-2.3292
 30
0.0
 10
13.9776
 20
-14.8466
 30
0.0
 10
13.9776
 20
-14.8466
 30
0.0
  0
SPLINE
  5
87
330
1F
100
AcDbEntity
  8
Ilustrace
 62
   250
370
    30
100
AcDbSpline
210
0.0
220
0.0
230
1.0
 70
    24
 71
     3
 72
     8
 73
     4
 74
     0
 42
0.0000000001
 43
0.0000000001
 40
0.0
 40
0.0
 40
0.0
 40
0.0
 40
1.0
 40
1.0
 40
1.0
 40
1.0
 10
16.3956
 20
-14.8466
 30
0.0
 10
16.3956
 20
-14.8466
 30
0.0
 10
13.9776
 20
-14.8466
 30
0.0
 10
13.9776
 20
-14.8466
 30
0.0
  0
SPLINE
  5
88
330
1F
100
AcDbEntity
  8
Ilustrace
 62
   250
370
    30
100
AcDbSpline
210
0.0
220
0.0
230
1.0
 70
    24
 71
     3
 72
     8
 73
     4
 74
     0
 42
0.0000000001
 43
0.0000000001
 40
0.0
 40
0.0
 40
0.0
 40
0.0
 40
1.0
 40
1.0
 40
1.0
 40
1.0
 10
27.7021
 20
-3.5384
 30
0.0
 10
27.7021
 20
-3.5384
 30
0.0
 10
16.3956
 20
-14.8466
 30
0.0
 10
16.3956
 20
-14.8466
 30
0.0
  0
SPLINE
  5
89
330
1F
100
AcDbEntity
  8
Ilustrace
 62
   250
370
    30
100
AcDbSpline
210
0.0
220
0.0
230
1.0
 70
    24
 71
     3
 72
     8
 73
     4
 74
     0
 42
0.0000000001
 43
0.0000000001
 40
0.0
 40
0.0
 40
0.0
 40
0.0
 40
1.0
 40
1.0
 40
1.0
 40
1.0
 10
26.4934
 20
-2.3292
 30
0.0
 10
26.4934
 20
-2.3292
 30
0.0
 10
27.7021
 20
-3.5384
 30
0.0
 10
27.7021
 20
-3.5384
 30
0.0
  0
SPLINE
  5
8A
330
1F
100
AcDbEntity
  8
Ilustrace
 62
   250
370
    30
100
AcDbSpline
210
0.0
220
0.0
230
1.0
 70
    24
 71
     3
 72
     8
 73
     4
 74
     0
 42
0.0000000001
 43
0.0000000001
 40
0.0
 40
0.0
 40
0.0
 40
0.0
 40
1.0
 40
1.0
 40
1.0
 40
1.0
 10
30.6676
 20
-6.5022
 30
0.0
 10
30.6676
 20
-6.5022
 30
0.0
 10
22.3232
 20
-14.8466
 30
0.0
 10
22.3232
 20
-14.8466
 30
0.0
  0
SPLINE
  5
8B
330
1F
100
AcDbEntity
  8
Ilustrace
 62
   250
370
    30
100
AcDbSpline
210
0.0
220
0.0
230
1.0
 70
    24
 71
     3
 72
     8
 73
     4
 74
     0
 42
0.0000000001
 43
0.0000000001
 40
0.0
 40
0.0
 40
0.0
 40
0.0
 40
1.0
 40
1.0
 40
1.0
 40
1.0
 10
31.8739
 20
-7.7097
 30
0.0
 10
31.8739
 20
-7.7097
 30
0.0
 10
30.6676
 20
-6.5022
 30
0.0
 10
30.6676
 20
-6.5022
 30
0.0
  0
SPLINE
  5
8C
330
1F
100
AcDbEntity
  8
Ilustrace
 62
   250
370
    30
100
AcDbSpline
210
0.0
220
0.0
230
1.0
 70
    24
 71
     3
 72
     8
 73
     4
 74
     0
 42
0.0000000001
 43
0.0000000001
 40
0.0
 40
0.0
 40
0.0
 40
0.0
 40
1.0
 40
1.0
 40
1.0
 40
1.0
 10
34.839
 20
-10.6736
 30
0.0
 10
34.839
 20
-10.6736
 30
0.0
 10
30.6676
 20
-14.8466
 30
0.0
 10
30.6676
 20
-14.8466
 30
0.0
  0
SPLINE
  5
8D
330
1F
100
AcDbEntity
  8
Ilustrace
 62
   250
370
    30
100
AcDbSpline
210
0.0
220
0.0
230
1.0
 70
    24
 71
     3
 72
     8
 73
     4
 74
     0
 42
0.0000000001
 43
0.0000000001
 40
0.0
 40
0.0
 40
0.0
 40
0.0
 40
1.0
 40
1.0
 40
1.0
 40
1.0
 10
36.0482
 20
-11.8828
 30
0.0
 10
36.0482
 20
-11.8828
 30
0.0
 10
34.839
 20
-10.6736
 30
0.0
 10
34.839
 20
-10.6736
 30
0.0
  0
SPLINE
  5
8E
330
1F
100
AcDbEntity
  8
Ilustrace
 62
   250
370
    30
100
AcDbSpline
210
0.0
220
0.0
230
1.0
 70
     8
 71
     3
 72
    20
 73
    16
 74
     0
 42
0.0000000001
 43
0.0000000001
 40
0.0
 40
0.0
 40
0.0
 40
0.0
 40
0.2
 40
0.2
 40
0.2
 40
0.2
 40
0.4
 40
0.4
 40
0.4
 40
0.4
 40
0.6
 40
0.6
 40
0.6
 40
0.6
 40
1.0
 40
1.0
 40
1.0
 40
1.0
 10
2.671
 20
21.496
 30
0.0
 10
2.671
 20
21.496
 30
0.0
 10
2.2668
 20
21.0919
 30
0.0
 10
2.2668
 20
21.0919
 30
0.0
 10
2.2668
 20
21.0919
 30
0.0
 10
2.2668
 20
21.0919
 30
0.0
 10
-33.2687
 20
-14.4408
 30
0.0
 10
-33.2687
 20
-14.4408
 30
0.0
 10
-33.2687
 20
-14.4408
 30
0.0
 10
-33.2687
 20
-14.4408
 30
0.0
 10
-33.6712
 20
-14.8466
 30
0.0
 10
-33.6712
 20
-14.8466
 30
0.0
 10
-33.6712
 20
-14.8466
 30
0.0
 10
-33.6712
 20
-14.8466
 30
0.0
 10
-36.088
 20
-14.8466
 30
0.0
 10
-36.088
 20
-14.8466
 30
0.0
  0
SPLINE
  5
8F
330
1F
100
AcDbEntity
  8
Ilustrace
 62
   250
370
    30
100
AcDbSpline
210
0.0
220
0.0
230
1.0
 70
     8
 71
     3
 72
    20
 73
    16
 74
     0
 42
0.0000000001
 43
0.0000000001
 40
0.0
 40
0.0
 40
0.0
 40
0.0
 40
0.2
 40
0.2
 40
0.2
 40
0.2
 40
0.4
 40
0.4
 40
0.4
 40
0.4
 40
0.6
 40
0.6
 40
0.6
 40
0.6
 40
1.0
 40
1.0
 40
1.0
 40
1.0
 10
11.0154
 20
13.1517
 30
0.0
 10
11.0154
 20
13.1517
 30
0.0
 10
10.6112
 20
12.7475
 30
0.0
 10
10.6112
 20
12.7475
 30
0.0
 10
10.6112
 20
12.7475
 30
0.0
 10
10.6112
 20
12.7475
 30
0.0
 10
-16.5787
 20
-14.4408
 30
0.0
 10
-16.5787
 20
-14.4408
 30
0.0
 10
-16.5787
 20
-14.4408
 30
0.0
 10
-16.5787
 20
-14.4408
 30
0.0
 10
-16.9812
 20
-14.8466
 30
0.0
 10
-16.9812
 20
-14.8466
 30
0.0
 10
-16.9812
 20
-14.8466
 30
0.0
 10
-16.9812
 20
-14.8466
 30
0.0
 10
-19.4008
 20
-14.8466
 30
0.0
 10
-19.4008
 20
-14.8466
 30
0.0
  0
SPLINE
  5
90
330
1F
100
AcDbEntity
  8
Ilustrace
 62
   250
370
    30
100
AcDbSpline
210
0.0
220
0.0
230
1.0
 70
     8
 71
     3
 72
    20
 73
    16
 74
     0
 42
0.0000000001
 43
0.0000000001
 40
0.0
 40
0.0
 40
0.0
 40
0.0
 40
0.2
 40
0.2
 40
0.2
 40
0.2
 40
0.4
 40
0.4
 40
0.4
 40
0.4
 40
0.6
 40
0.6
 40
0.6
 40
0.6
 40
1.0
 40
1.0
 40
1.0
 40
1.0
 10
15.1868
 20
8.9803
 30
0.0
 10
15.1868
 20
8.9803
 30
0.0
 10
14.7826
 20
8.5761
 30
0.0
 10
14.7826
 20
8.5761
 30
0.0
 10
14.7826
 20
8.5761
 30
0.0
 10
14.7826
 20
8.5761
 30
0.0
 10
-8.236
 20
-14.4408
 30
0.0
 10
-8.236
 20
-14.4408
 30
0.0
 10
-8.236
 20
-14.4408
 30
0.0
 10
-8.236
 20
-14.4408
 30
0.0
 10
-8.6372
 20
-14.8466
 30
0.0
 10
-8.6372
 20
-14.8466
 30
0.0
 10
-8.6372
 20
-14.8466
 30
0.0
 10
-8.6372
 20
-14.8466
 30
0.0
 10
-11.0552
 20
-14.8466
 30
0.0
 10
-11.0552
 20
-14.8466
 30
0.0
  0
SPLINE
  5
91
330
1F
100
AcDbEntity
  8
Ilustrace
 62
   250
370
    30
100
AcDbSpline
210
0.0
220
0.0
230
1.0
 70
     8
 71
     3
 72
     8
 73
     4
 74
     0
 42
0.0000000001
 43
0.0000000001
 40
0.0
 40
0.0
 40
0.0
 40
0.0
 40
1.0
 40
1.0
 40
1.0
 40
1.0
 10
31.8739
 20
-7.7097
 30
0.0
 10
29.4969
 20
-10.088
 30
0.0
 10
27.117
 20
-12.4679
 30
0.0
 10
24.7387
 20
-14.8466
 30
0.0
  0
SPLINE
  5
92
330
1F
100
AcDbEntity
  8
Ilustrace
 62
   250
370
    30
100
AcDbSpline
210
0.0
220
0.0
230
1.0
 70
    24
 71
     3
 72
     8
 73
     4
 74
     0
 42
0.0000000001
 43
0.0000000001
 40
0.0
 40
0.0
 40
0.0
 40
0.0
 40
1.0
 40
1.0
 40
1.0
 40
1.0
 10
24.7387
 20
-14.8466
 30
0.0
 10
24.7387
 20
-14.8466
 30
0.0
 10
22.3232
 20
-14.8466
 30
0.0
 10
22.3232
 20
-14.8466
 30
0.0
  0
SPLINE
  5
93
330
1F
100
AcDbEntity
  8
Ilustrace
 62
   250
370
    30
100
AcDbSpline
210
0.0
220
0.0
230
1.0
 70
     8
 71
     3
 72
     8
 73
     4
 74
     0
 42
0.0000000001
 43
0.0000000001
 40
0.0
 40
0.0
 40
0.0
 40
0.0
 40
1.0
 40
1.0
 40
1.0
 40
1.0
 10
36.0482
 20
-11.8828
 30
0.0
 10
35.0589
 20
-12.8704
 30
0.0
 10
34.072
 20
-13.8569
 30
0.0
 10
33.0827
 20
-14.8466
 30
0.0
  0
SPLINE
  5
94
330
1F
100
AcDbEntity
  8
Ilustrace
 62
   250
370
    30
100
AcDbSpline
210
0.0
220
0.0
230
1.0
 70
    24
 71
     3
 72
     8
 73
     4
 74
     0
 42
0.0000000001
 43
0.0000000001
 40
0.0
 40
0.0
 40
0.0
 40
0.0
 40
1.0
 40
1.0
 40
1.0
 40
1.0
 10
33.0827
 20
-14.8466
 30
0.0
 10
33.0827
 20
-14.8466
 30
0.0
 10
30.6676
 20
-14.8466
 30
0.0
 10
30.6676
 20
-14.8466
 30
0.0
  0
SPLINE
  5
95
330
1F
100
AcDbEntity
  8
Ilustrace
 62
   250
370
    30
100
AcDbSpline
210
0.0
220
0.0
230
1.0
 70
    24
 71
     3
 72
     8
 73
     4
 74
     0
 42
0.0000000001
 43
0.0000000001
 40
0.0
 40
0.0
 40
0.0
 40
0.0
 40
1.0
 40
1.0
 40
1.0
 40
1.0
 10
1.4694
 20
22.7479
 30
0.0
 10
1.4694
 20
22.7479
 30
0.0
 10
2.6786
 20
21.5387
 30
0.0
 10
2.6786
 20
21.5387
 30
0.0
  0
SPLINE
  5
96
330
1F
100
AcDbEntity
  8
Ilustrace
 62
   250
370
     9
100
AcDbSpline
210
0.0
220
0.0
230
1.0
 70
    11
 71
     3
 72
    32
 73
    28
 74
     0
 42
0.0000000001
 43
0.0000000001
 40
0.0
 40
0.0
 40
0.0
 40
0.0
 40
0.125
 40
0.125
 40
0.125
 40
0.125
 40
0.25
 40
0.25
 40
0.25
 40
0.25
 40
0.375
 40
0.375
 40
0.375
 40
0.375
 40
0.5
 40
0.5
 40
0.5
 40
0.5
 40
0.625
 40
0.625
 40
0.625
 40
0.625
 40
0.75
 40
0.75
 40
0.75
 40
0.75
 40
1.0
 40
1.0
 40
1.0
 40
1.0
 10
-55.7917
 20
-26.8
 30
0.0
 10
-55.7917
 20
-26.8
 30
0.0
 10
-55.7917
 20
-26.8
 30
0.0
 10
-55.7917
 20
-26.8
 30
0.0
 10
-55.7917
 20
-26.8
 30
0.0
 10
-55.7917
 20
-26.8
 30
0.0
 10
-55.7917
 20
-26.8
 30
0.0
 10
-55.7917
 20
-26.8
 30
0.0
 10
-55.7917
 20
-26.8
 30
0.0
 10
-55.7917
 20
-26.8
 30
0.0
 10
-57.0645
 20
-26.3566
 30
0.0
 10
-57.0645
 20
-26.3566
 30
0.0
 10
-57.0645
 20
-26.3566
 30
0.0
 10
-57.0645
 20
-26.3566
 30
0.0
 10
-55.7917
 20
-25.9132
 30
0.0
 10
-55.7917
 20
-25.9132
 30
0.0
 10
-55.7917
 20
-25.9132
 30
0.0
 10
-55.7917
 20
-25.9132
 30
0.0
 10
-55.7917
 20
-25.9132
 30
0.0
 10
-55.7917
 20
-25.9132
 30
0.0
 10
-55.7917
 20
-25.9132
 30
0.0
 10
-55.7917
 20
-25.9132
 30
0.0
 10
-55.7917
 20
-25.9132
 30
0.0
 10
-55.7917
 20
-25.9132
 30
0.0
 10
-55.7917
 20
-25.9132
 30
0.0
 10
-55.7917
 20
-25.9132
 30
0.0
 10
-55.7917
 20
-26.8
 30
0.0
 10
-55.7917
 20
-26.8
 30
0.0
  0
SPLINE
  5
97
330
1F
100
AcDbEntity
  8
Ilustrace
 62
   250
370
     9
100
AcDbSpline
210
0.0
220
0.0
230
1.0
 70
    11
 71
     3
 72
    32
 73
    28
 74
     0
 42
0.0000000001
 43
0.0000000001
 40
0.0
 40
0.0
 40
0.0
 40
0.0
 40
0.125
 40
0.125
 40
0.125
 40
0.125
 40
0.25
 40
0.25
 40
0.25
 40
0.25
 40
0.375
 40
0.375
 40
0.375
 40
0.375
 40
0.5
 40
0.5
 40
0.5
 40
0.5
 40
0.625
 40
0.625
 40
0.625
 40
0.625
 40
0.75
 40
0.75
 40
0.75
 40
0.75
 40
1.0
 40
1.0
 40
1.0
 40
1.0
 10
56.2218
 20
-33.6635
 30
0.0
 10
56.2218
 20
-33.6635
 30
0.0
 10
56.2218
 20
-33.6635
 30
0.0
 10
56.2218
 20
-33.6635
 30
0.0
 10
56.2218
 20
-33.6635
 30
0.0
 10
56.2218
 20
-33.6635
 30
0.0
 10
56.2218
 20
-33.6635
 30
0.0
 10
56.2218
 20
-33.6635
 30
0.0
 10
56.2218
 20
-33.6635
 30
0.0
 10
56.2218
 20
-33.6635
 30
0.0
 10
56.6652
 20
-32.3907
 30
0.0
 10
56.6652
 20
-32.3907
 30
0.0
 10
56.6652
 20
-32.3907
 30
0.0
 10
56.6652
 20
-32.3907
 30
0.0
 10
57.1086
 20
-33.6635
 30
0.0
 10
57.1086
 20
-33.6635
 30
0.0
 10
57.1086
 20
-33.6635
 30
0.0
 10
57.1086
 20
-33.6635
 30
0.0
 10
57.1086
 20
-33.6635
 30
0.0
 10
57.1086
 20
-33.6635
 30
0.0
 10
57.1086
 20
-33.6635
 30
0.0
 10
57.1086
 20
-33.6635
 30
0.0
 10
57.1086
 20
-33.6635
 30
0.0
 10
57.1086
 20
-33.6635
 30
0.0
 10
57.1086
 20
-33.6635
 30
0.0
 10
57.1086
 20
-33.6635
 30
0.0
 10
56.2218
 20
-33.6635
 30
0.0
 10
56.2218
 20
-33.6635
 30
0.0
  0
SPLINE
  5
98
330
1F
100
AcDbEntity
  8
Ilustrace
 62
   250
370
     9
100
AcDbSpline
210
0.0
220
0.0
230
1.0
 70
    11
 71
     3
 72
    32
 73
    28
 74
     0
 42
0.0000000001
 43
0.0000000001
 40
0.0
 40
0.0
 40
0.0
 40
0.0
 40
0.125
 40
0.125
 40
0.125
 40
0.125
 40
0.25
 40
0.25
 40
0.25
 40
0.25
 40
0.375
 40
0.375
 40
0.375
 40
0.375
 40
0.5
 40
0.5
 40
0.5
 40
0.5
 40
0.625
 40
0.625
 40
0.625
 40
0.625
 40
0.75
 40
0.75
 40
0.75
 40
0.75
 40
1.0
 40
1.0
 40
1.0
 40
1.0
 10
50.3755
 20
-26.7382
 30
0.0
 10
50.3755
 20
-26.7382
 30
0.0
 10
50.3755
 20
-26.7382
 30
0.0
 10
50.3755
 20
-26.7382
 30
0.0
 10
50.3755
 20
-26.7382
 30
0.0
 10
50.3755
 20
-26.7382
 30
0.0
 10
50.3755
 20
-26.7382
 30
0.0
 10
50.3755
 20
-26.7382
 30
0.0
 10
50.3755
 20
-26.7382
 30
0.0
 10
50.3755
 20
-26.7382
 30
0.0
 10
51.6483
 20
-26.2948
 30
0.0
 10
51.6483
 20
-26.2948
 30
0.0
 10
51.6483
 20
-26.2948
 30
0.0
 10
51.6483
 20
-26.2948
 30
0.0
 10
50.3755
 20
-25.8514
 30
0.0
 10
50.3755
 20
-25.8514
 30
0.0
 10
50.3755
 20
-25.8514
 30
0.0
 10
50.3755
 20
-25.8514
 30
0.0
 10
50.3755
 20
-25.8514
 30
0.0
 10
50.3755
 20
-25.8514
 30
0.0
 10
50.3755
 20
-25.8514
 30
0.0
 10
50.3755
 20
-25.8514
 30
0.0
 10
50.3755
 20
-25.8514
 30
0.0
 10
50.3755
 20
-25.8514
 30
0.0
 10
50.3755
 20
-25.8514
 30
0.0
 10
50.3755
 20
-25.8514
 30
0.0
 10
50.3755
 20
-26.7382
 30
0.0
 10
50.3755
 20
-26.7382
 30
0.0
  0
SPLINE
  5
99
330
1F
100
AcDbEntity
  8
Ilustrace
 62
   250
370
     9
100
AcDbSpline
210
0.0
220
0.0
230
1.0
 70
    11
 71
     3
 72
    32
 73
    28
 74
     0
 42
0.0000000001
 43
0.0000000001
 40
0.0
 40
0.0
 40
0.0
 40
0.0
 40
0.125
 40
0.125
 40
0.125
 40
0.125
 40
0.25
 40
0.25
 40
0.25
 40
0.25
 40
0.375
 40
0.375
 40
0.375
 40
0.375
 40
0.5
 40
0.5
 40
0.5
 40
0.5
 40
0.625
 40
0.625
 40
0.625
 40
0.625
 40
0.75
 40
0.75
 40
0.75
 40
0.75
 40
1.0
 40
1.0
 40
1.0
 40
1.0
 10
53.2734
 20
-16.8018
 30
0.0
 10
53.2734
 20
-16.8018
 30
0.0
 10
53.2734
 20
-16.8018
 30
0.0
 10
53.2734
 20
-16.8018
 30
0.0
 10
53.2734
 20
-16.8018
 30
0.0
 10
53.2734
 20
-16.8018
 30
0.0
 10
53.2734
 20
-16.8018
 30
0.0
 10
53.2734
 20
-16.8018
 30
0.0
 10
53.2734
 20
-16.8018
 30
0.0
 10
53.2734
 20
-16.8018
 30
0.0
 10
53.8599
 20
-18.0153
 30
0.0
 10
53.8599
 20
-18.0153
 30
0.0
 10
53.8599
 20
-18.0153
 30
0.0
 10
53.8599
 20
-18.0153
 30
0.0
 10
52.6464
 20
-17.4288
 30
0.0
 10
52.6464
 20
-17.4288
 30
0.0
 10
52.6464
 20
-17.4288
 30
0.0
 10
52.6464
 20
-17.4288
 30
0.0
 10
52.6464
 20
-17.4288
 30
0.0
 10
52.6464
 20
-17.4288
 30
0.0
 10
52.6464
 20
-17.4288
 30
0.0
 10
52.6464
 20
-17.4288
 30
0.0
 10
52.6464
 20
-17.4288
 30
0.0
 10
52.6464
 20
-17.4288
 30
0.0
 10
52.6464
 20
-17.4288
 30
0.0
 10
52.6464
 20
-17.4288
 30
0.0
 10
53.2734
 20
-16.8018
 30
0.0
 10
53.2734
 20
-16.8018
 30
0.0
  0
SPLINE
  5
9A
330
1F
100
AcDbEntity
  8
Ilustrace
 62
   250
370
     9
100
AcDbSpline
210
0.0
220
0.0
230
1.0
 70
    11
 71
     3
 72
    32
 73
    28
 74
     0
 42
0.0000000001
 43
0.0000000001
 40
0.0
 40
0.0
 40
0.0
 40
0.0
 40
0.125
 40
0.125
 40
0.125
 40
0.125
 40
0.25
 40
0.25
 40
0.25
 40
0.25
 40
0.375
 40
0.375
 40
0.375
 40
0.375
 40
0.5
 40
0.5
 40
0.5
 40
0.5
 40
0.625
 40
0.625
 40
0.625
 40
0.625
 40
0.75
 40
0.75
 40
0.75
 40
0.75
 40
1.0
 40
1.0
 40
1.0
 40
1.0
 10
0.1897
 20
35.106
 30
0.0
 10
0.1897
 20
35.106
 30
0.0
 10
0.1897
 20
35.106
 30
0.0
 10
0.1897
 20
35.106
 30
0.0
 10
0.1897
 20
35.106
 30
0.0
 10
0.1897
 20
35.106
 30
0.0
 10
0.1897
 20
35.106
 30
0.0
 10
0.1897
 20
35.106
 30
0.0
 10
0.1897
 20
35.106
 30
0.0
 10
0.1897
 20
35.106
 30
0.0
 10
-0.3968
 20
36.3195
 30
0.0
 10
-0.3968
 20
36.3195
 30
0.0
 10
-0.3968
 20
36.3195
 30
0.0
 10
-0.3968
 20
36.3195
 30
0.0
 10
0.8167
 20
35.733
 30
0.0
 10
0.8167
 20
35.733
 30
0.0
 10
0.8167
 20
35.733
 30
0.0
 10
0.8167
 20
35.733
 30
0.0
 10
0.8167
 20
35.733
 30
0.0
 10
0.8167
 20
35.733
 30
0.0
 10
0.8167
 20
35.733
 30
0.0
 10
0.8167
 20
35.733
 30
0.0
 10
0.8167
 20
35.733
 30
0.0
 10
0.8167
 20
35.733
 30
0.0
 10
0.8167
 20
35.733
 30
0.0
 10
0.8167
 20
35.733
 30
0.0
 10
0.1897
 20
35.106
 30
0.0
 10
0.1897
 20
35.106
 30
0.0
  0
SPLINE
  5
9B
330
1F
100
AcDbEntity
  8
Ilustrace
 62
   250
370
     9
100
AcDbSpline
210
0.0
220
0.0
230
1.0
 70
    11
 71
     3
 72
    32
 73
    28
 74
     0
 42
0.0000000001
 43
0.0000000001
 40
0.0
 40
0.0
 40
0.0
 40
0.0
 40
0.125
 40
0.125
 40
0.125
 40
0.125
 40
0.25
 40
0.25
 40
0.25
 40
0.25
 40
0.375
 40
0.375
 40
0.375
 40
0.375
 40
0.5
 40
0.5
 40
0.5
 40
0.5
 40
0.625
 40
0.625
 40
0.625
 40
0.625
 40
0.75
 40
0.75
 40
0.75
 40
0.75
 40
1.0
 40
1.0
 40
1.0
 40
1.0
 10
56.2044
 20
-29.8045
 30
0.0
 10
56.2044
 20
-29.8045
 30
0.0
 10
56.2044
 20
-29.8045
 30
0.0
 10
56.2044
 20
-29.8045
 30
0.0
 10
56.2044
 20
-29.8045
 30
0.0
 10
56.2044
 20
-29.8045
 30
0.0
 10
56.2044
 20
-29.8045
 30
0.0
 10
56.2044
 20
-29.8045
 30
0.0
 10
56.2044
 20
-29.8045
 30
0.0
 10
56.2044
 20
-29.8045
 30
0.0
 10
56.6478
 20
-31.0773
 30
0.0
 10
56.6478
 20
-31.0773
 30
0.0
 10
56.6478
 20
-31.0773
 30
0.0
 10
56.6478
 20
-31.0773
 30
0.0
 10
57.0912
 20
-29.8045
 30
0.0
 10
57.0912
 20
-29.8045
 30
0.0
 10
57.0912
 20
-29.8045
 30
0.0
 10
57.0912
 20
-29.8045
 30
0.0
 10
57.0912
 20
-29.8045
 30
0.0
 10
57.0912
 20
-29.8045
 30
0.0
 10
57.0912
 20
-29.8045
 30
0.0
 10
57.0912
 20
-29.8045
 30
0.0
 10
57.0912
 20
-29.8045
 30
0.0
 10
57.0912
 20
-29.8045
 30
0.0
 10
57.0912
 20
-29.8045
 30
0.0
 10
57.0912
 20
-29.8045
 30
0.0
 10
56.2044
 20
-29.8045
 30
0.0
 10
56.2044
 20
-29.8045
 30
0.0
  0
ENDSEC
  0
SECTION
  2
OBJECTS
  0
DICTIONARY
  5
C
330
0
100
AcDbDictionary
281
     1
  3
ACAD_GROUP
350
D
  3
ACAD_LAYOUT
350
1A
  3
ACAD_MATERIAL
350
3B
  3
ACAD_MLEADERSTYLE
350
9E
  3
ACAD_MLINESTYLE
350
17
  3
ACAD_PLOTSETTINGS
350
19
  3
ACAD_PLOTSTYLENAME
350
E
  3
ACAD_VISUALSTYLE
350
2A
  3
AcDbVariableDictionary
350
9C
  0
DICTIONARY
  5
D
102
{ACAD_REACTORS
330
C
102
}
330
C
100
AcDbDictionary
281
     1
  0
DICTIONARY
  5
1A
102
{ACAD_REACTORS
330
C
102
}
330
C
100
AcDbDictionary
281
     1
  3
Layout1
350
1E
  3
Layout2
350
26
  3
Model
350
22
  0
DICTIONARY
  5
3B
102
{ACAD_REACTORS
330
C
102
}
330
C
100
AcDbDictionary
281
     1
  3
ByBlock
350
3D
  3
ByLayer
350
3C
  3
Global
350
3E
  0
DICTIONARY
  5
9E
102
{ACAD_REACTORS
330
C
102
}
330
C
100
AcDbDictionary
281
     1
  0
DICTIONARY
  5
17
102
{ACAD_REACTORS
330
C
102
}
330
C
100
AcDbDictionary
281
     1
  3
Standard
350
18
  0
DICTIONARY
  5
19
102
{ACAD_REACTORS
330
C
102
}
330
C
100
AcDbDictionary
281
     1
  0
ACDBDICTIONARYWDFLT
  5
E
102
{ACAD_REACTORS
330
C
102
}
330
C
100
AcDbDictionary
281
     1
  3
Normal
350
F
100
AcDbDictionaryWithDefault
340
F
  0
DICTIONARY
  5
2A
102
{ACAD_REACTORS
330
C
102
}
330
C
100
AcDbDictionary
281
     1
  3
2dWireframe
350
2F
  3
3D Hidden
350
31
  3
3dWireframe
350
30
  3
Basic
350
32
  3
Brighten
350
36
  3
ColorChange
350
3A
  3
Conceptual
350
34
  3
Dim
350
35
  3
Facepattern
350
39
  3
Flat
350
2B
  3
FlatWithEdges
350
2C
  3
Gouraud
350
2D
  3
GouraudWithEdges
350
2E
  3
Linepattern
350
38
  3
Realistic
350
33
  3
Thicken
350
37
  0
DICTIONARY
  5
9C
102
{ACAD_REACTORS
330
C
102
}
330
C
100
AcDbDictionary
281
     1
  3
DIMASSOC
350
9F
  3
HIDETEXT
350
A0
  0
LAYOUT
  5
1E
102
{ACAD_REACTORS
330
1A
102
}
330
1A
100
AcDbPlotSettings
  1

  2
none_device
  4

  6

 40
0.0
 41
0.0
 42
0.0
 43
0.0
 44
0.0
 45
0.0
 46
0.0
 47
0.0
 48
0.0
 49
0.0
140
0.0
141
0.0
142
1.0
143
1.0
 70
   688
 72
     0
 73
     0
 74
     5
  7

 75
    16
147
1.0
148
0.0
149
0.0
100
AcDbLayout
  1
Layout1
 70
     1
 71
     1
 10
0.0
 20
0.0
 11
12.0
 21
9.0
 12
0.0
 22
0.0
 32
0.0
 14
1.000000000000000E+20
 24
1.000000000000000E+20
 34
1.000000000000000E+20
 15
-1.000000000000000E+20
 25
-1.000000000000000E+20
 35
-1.000000000000000E+20
146
0.0
 13
0.0
 23
0.0
 33
0.0
 16
1.0
 26
0.0
 36
0.0
 17
0.0
 27
1.0
 37
0.0
 76
     0
330
1B
  0
LAYOUT
  5
26
102
{ACAD_REACTORS
330
1A
102
}
330
1A
100
AcDbPlotSettings
  1

  2
none_device
  4

  6

 40
0.0
 41
0.0
 42
0.0
 43
0.0
 44
0.0
 45
0.0
 46
0.0
 47
0.0
 48
0.0
 49
0.0
140
0.0
141
0.0
142
1.0
143
1.0
 70
   688
 72
     0
 73
     0
 74
     5
  7

 75
    16
147
1.0
148
0.0
149
0.0
100
AcDbLayout
  1
Layout2
 70
     1
 71
     2
 10
0.0
 20
0.0
 11
0.0
 21
0.0
 12
0.0
 22
0.0
 32
0.0
 14
0.0
 24
0.0
 34
0.0
 15
0.0
 25
0.0
 35
0.0
146
0.0
 13
0.0
 23
0.0
 33
0.0
 16
1.0
 26
0.0
 36
0.0
 17
0.0
 27
1.0
 37
0.0
 76
     0
330
23
  0
LAYOUT
  5
22
102
{ACAD_REACTORS
330
1A
102
}
330
1A
100
AcDbPlotSettings
  1

  2
none_device
  4

  6

 40
0.0
 41
0.0
 42
0.0
 43
0.0
 44
0.0
 45
0.0
 46
0.0
 47
0.0
 48
0.0
 49
0.0
140
0.0
141
0.0
142
1.0
143
1.0
 70
  1712
 72
     0
 73
     0
 74
     0
  7

 75
     0
147
1.0
148
0.0
149
0.0
100
AcDbLayout
  1
Model
 70
     1
 71
     0
 10
0.0
 20
0.0
 11
12.0
 21
9.0
 12
0.0
 22
0.0
 32
0.0
 14
-57.2631
 24
-36.6356
 34
0.0
 15
57.1622
 25
36.6855
 35
0.0
146
0.0
 13
0.0
 23
0.0
 33
0.0
 16
1.0
 26
0.0
 36
0.0
 17
0.0
 27
1.0
 37
0.0
 76
     0
330
1F
331
29
  0
MATERIAL
  5
3D
102
{ACAD_REACTORS
330
3B
102
}
102
{ACAD_XDICTIONARY
360
C3
102
}
330
3B
100
AcDbMaterial
  1
ByBlock
  0
MATERIAL
  5
3C
102
{ACAD_REACTORS
330
3B
102
}
102
{ACAD_XDICTIONARY
360
C1
102
}
330
3B
100
AcDbMaterial
  1
ByLayer
  0
MATERIAL
  5
3E
102
{ACAD_REACTORS
330
3B
102
}
102
{ACAD_XDICTIONARY
360
C5
102
}
330
3B
100
AcDbMaterial
  1
Global
  0
MLINESTYLE
  5
18
102
{ACAD_REACTORS
330
17
102
}
330
17
100
AcDbMlineStyle
  2
Standard
 70
     0
  3

 62
   256
 51
90.0
 52
90.0
 71
     2
 49
0.5
 62
   256
  6
BYLAYER
 49
-0.5
 62
   256
  6
BYLAYER
  0
ACDBPLACEHOLDER
  5
F
102
{ACAD_REACTORS
330
E
102
}
330
E
  0
VISUALSTYLE
  5
2F
102
{ACAD_REACTORS
330
2A
102
}
102
{ACAD_XDICTIONARY
360
A9
102
}
330
2A
100
AcDbVisualStyle
  2
2dWireframe
 70
     4
 71
     0
 72
     2
 73
     0
 90
        0
 40
-0.6
 41
-30.0
 62
     5
 63
     7
 74
     1
 91
        4
 64
     7
 65
   257
 75
     1
175
     1
 42
1.0
 92
        0
 66
   257
 43
1.0
 76
     1
 77
     6
 78
     2
 67
     7
 79
     5
170
     0
171
     0
290
     0
174
     0
 93
        1
 44
0.0
173
     0
291
     0
 45
0.0
1001
ACAD
1000
AcDbSavedByObjectVersion
1070
     0
  0
VISUALSTYLE
  5
31
102
{ACAD_REACTORS
330
2A
102
}
102
{ACAD_XDICTIONARY
360
AD
102
}
330
2A
100
AcDbVisualStyle
  2
3D Hidden
 70
     6
 71
     1
 72
     2
 73
     2
 90
        0
 40
-0.6
 41
-30.0
 62
     5
 63
     7
 74
     2
 91
        2
 64
     7
 65
   257
 75
     2
175
     1
 42
40.0
 92
        0
 66
   257
 43
1.0
 76
     1
 77
     6
 78
     2
 67
     7
 79
     3
170
     0
171
     0
290
     0
174
     0
 93
        1
 44
0.0
173
     0
291
     0
 45
0.0
1001
ACAD
1000
AcDbSavedByObjectVersion
1070
     0
  0
VISUALSTYLE
  5
30
102
{ACAD_REACTORS
330
2A
102
}
102
{ACAD_XDICTIONARY
360
AB
102
}
330
2A
100
AcDbVisualStyle
  2
3dWireframe
 70
     5
 71
     0
 72
     2
 73
     0
 90
        0
 40
-0.6
 41
-30.0
 62
     5
 63
     7
 74
     1
 91
        4
 64
     7
 65
   257
 75
     1
175
     1
 42
1.0
 92
        0
 66
   257
 43
1.0
 76
     1
 77
     6
 78
     2
 67
     7
 79
     5
170
     0
171
     0
290
     0
174
     0
 93
        1
 44
0.0
173
     0
291
     0
 45
0.0
1001
ACAD
1000
AcDbSavedByObjectVersion
1070
     0
  0
VISUALSTYLE
  5
32
102
{ACAD_REACTORS
330
2A
102
}
102
{ACAD_XDICTIONARY
360
AF
102
}
330
2A
100
AcDbVisualStyle
  2
Basic
 70
     7
 71
     1
 72
     0
 73
     1
 90
        0
 40
-0.6
 41
-30.0
 62
     5
 63
     7
 74
     0
 91
        4
 64
     7
 65
   257
 75
     1
175
     1
 42
1.0
 92
        8
 66
     7
 43
1.0
 76
     1
 77
     6
 78
     2
 67
     7
 79
     5
170
     0
171
     0
290
     0
174
     0
 93
        1
 44
0.0
173
     0
291
     1
 45
0.0
1001
ACAD
1000
AcDbSavedByObjectVersion
1070
     0
  0
VISUALSTYLE
  5
36
102
{ACAD_REACTORS
330
2A
102
}
102
{ACAD_XDICTIONARY
360
B7
102
}
330
2A
100
AcDbVisualStyle
  2
Brighten
 70
    12
 71
     2
 72
     2
 73
     0
 90
        0
 40
-0.6
 41
-30.0
 62
     5
 63
     7
 74
     1
 91
        4
 64
     7
 65
   257
 75
     1
175
     1
 42
1.0
 92
        8
 66
     7
 43
1.0
 76
     1
 77
     6
 78
     2
 67
     7
 79
     5
170
     0
171
     0
290
     0
174
     0
 93
        1
 44
50.0
173
     0
291
     1
 45
0.0
1001
ACAD
1000
AcDbSavedByObjectVersion
1070
     0
  0
VISUALSTYLE
  5
3A
102
{ACAD_REACTORS
330
2A
102
}
102
{ACAD_XDICTIONARY
360
BF
102
}
330
2A
100
AcDbVisualStyle
  2
ColorChange
 70
    16
 71
     2
 72
     2
 73
     3
 90
        0
 40
-0.6
 41
-30.0
 62
     5
 63
     8
 74
     1
 91
        4
 64
     7
 65
   257
 75
     1
175
     1
 42
1.0
 92
        8
 66
     8
 43
1.0
 76
     1
 77
     6
 78
     2
 67
     7
 79
     5
170
     0
171
     0
290
     0
174
     0
 93
        1
 44
0.0
173
     0
291
     1
 45
0.0
1001
ACAD
1000
AcDbSavedByObjectVersion
1070
     0
  0
VISUALSTYLE
  5
34
102
{ACAD_REACTORS
330
2A
102
}
102
{ACAD_XDICTIONARY
360
B3
102
}
330
2A
100
AcDbVisualStyle
  2
Conceptual
 70
     9
 71
     3
 72
     2
 73
     0
 90
        0
 40
-0.6
 41
-30.0
 62
     5
 63
     7
 74
     2
 91
        2
 64
     7
 65
   257
 75
     1
175
     1
 42
40.0
 92
        8
 66
     7
 43
1.0
 76
     1
 77
     6
 78
     2
 67
     7
 79
     3
170
     0
171
     0
290
     0
174
     0
 93
        1
 44
0.0
173
     0
291
     0
 45
0.0
1001
ACAD
1000
AcDbSavedByObjectVersion
1070
     0
  0
VISUALSTYLE
  5
35
102
{ACAD_REACTORS
330
2A
102
}
102
{ACAD_XDICTIONARY
360
B5
102
}
330
2A
100
AcDbVisualStyle
  2
Dim
 70
    11
 71
     2
 72
     2
 73
     0
 90
        0
 40
-0.6
 41
-30.0
 62
     5
 63
     7
 74
     1
 91
        4
 64
     7
 65
   257
 75
     1
175
     1
 42
1.0
 92
        8
 66
     7
 43
1.0
 76
     1
 77
     6
 78
     2
 67
     7
 79
     5
170
     0
171
     0
290
     0
174
     0
 93
        1
 44
-50.0
173
     0
291
     1
 45
0.0
1001
ACAD
1000
AcDbSavedByObjectVersion
1070
     0
  0
VISUALSTYLE
  5
39
102
{ACAD_REACTORS
330
2A
102
}
102
{ACAD_XDICTIONARY
360
BD
102
}
330
2A
100
AcDbVisualStyle
  2
Facepattern
 70
    15
 71
     2
 72
     2
 73
     0
 90
        0
 40
-0.6
 41
-30.0
 62
     5
 63
     7
 74
     1
 91
        4
 64
     7
 65
   257
 75
     1
175
     1
 42
1.0
 92
        8
 66
     7
 43
1.0
 76
     1
 77
     6
 78
     2
 67
     7
 79
     5
170
     0
171
     0
290
     0
174
     0
 93
        1
 44
0.0
173
     0
291
     1
 45
0.0
1001
ACAD
1000
AcDbSavedByObjectVersion
1070
     0
  0
VISUALSTYLE
  5
2B
102
{ACAD_REACTORS
330
2A
102
}
102
{ACAD_XDICTIONARY
360
A1
102
}
330
2A
100
AcDbVisualStyle
  2
Flat
 70
     0
 71
     2
 72
     1
 73
     1
 90
        2
 40
-0.6
 41
30.0
 62
     5
 63
     7
 74
     0
 91
        4
 64
     7
 65
   257
 75
     1
175
     1
 42
1.0
 92
        8
 66
     7
 43
1.0
 76
     1
 77
     6
 78
     2
 67
     7
 79
     5
170
     0
171
     0
290
     0
174
     0
 93
       13
 44
0.0
173
     0
291
     1
 45
0.0
1001
ACAD
1000
AcDbSavedByObjectVersion
1070
     0
  0
VISUALSTYLE
  5
2C
102
{ACAD_REACTORS
330
2A
102
}
102
{ACAD_XDICTIONARY
360
A3
102
}
330
2A
100
AcDbVisualStyle
  2
FlatWithEdges
 70
     1
 71
     2
 72
     1
 73
     1
 90
        2
 40
-0.6
 41
30.0
 62
     5
 63
     7
 74
     1
 91
        4
 64
     7
 65
   257
 75
     1
175
     1
 42
1.0
 92
        0
 66
   257
 43
1.0
 76
     1
 77
     6
 78
     2
 67
     7
 79
     5
170
     0
171
     0
290
     0
174
     0
 93
       13
 44
0.0
173
     0
291
     1
 45
0.0
1001
ACAD
1000
AcDbSavedByObjectVersion
1070
     0
  0
VISUALSTYLE
  5
2D
102
{ACAD_REACTORS
330
2A
102
}
102
{ACAD_XDICTIONARY
360
A5
102
}
330
2A
100
AcDbVisualStyle
  2
Gouraud
 70
     2
 71
     2
 72
     2
 73
     1
 90
        2
 40
-0.6
 41
30.0
 62
     5
 63
     7
 74
     0
 91
        4
 64
     7
 65
   257
 75
     1
175
     1
 42
1.0
 92
        0
 66
     7
 43
1.0
 76
     1
 77
     6
 78
     2
 67
     7
 79
     5
170
     0
171
     0
290
     0
174
     0
 93
       13
 44
0.0
173
     0
291
     1
 45
0.0
1001
ACAD
1000
AcDbSavedByObjectVersion
1070
     0
  0
VISUALSTYLE
  5
2E
102
{ACAD_REACTORS
330
2A
102
}
102
{ACAD_XDICTIONARY
360
A7
102
}
330
2A
100
AcDbVisualStyle
  2
GouraudWithEdges
 70
     3
 71
     2
 72
     2
 73
     1
 90
        2
 40
-0.6
 41
30.0
 62
     5
 63
     7
 74
     1
 91
        4
 64
     7
 65
   257
 75
     1
175
     1
 42
1.0
 92
        0
 66
   257
 43
1.0
 76
     1
 77
     6
 78
     2
 67
     7
 79
     5
170
     0
171
     0
290
     0
174
     0
 93
       13
 44
0.0
173
     0
291
     1
 45
0.0
1001
ACAD
1000
AcDbSavedByObjectVersion
1070
     0
  0
VISUALSTYLE
  5
38
102
{ACAD_REACTORS
330
2A
102
}
102
{ACAD_XDICTIONARY
360
BB
102
}
330
2A
100
AcDbVisualStyle
  2
Linepattern
 70
    14
 71
     2
 72
     2
 73
     0
 90
        0
 40
-0.6
 41
-30.0
 62
     5
 63
     7
 74
     1
 91
        4
 64
     7
 65
   257
 75
     7
175
     7
 42
1.0
 92
        8
 66
     7
 43
1.0
 76
     1
 77
     6
 78
     2
 67
     7
 79
     5
170
     0
171
     0
290
     0
174
     0
 93
        1
 44
0.0
173
     0
291
     1
 45
0.0
1001
ACAD
1000
AcDbSavedByObjectVersion
1070
     0
  0
VISUALSTYLE
  5
33
102
{ACAD_REACTORS
330
2A
102
}
102
{ACAD_XDICTIONARY
360
B1
102
}
330
2A
100
AcDbVisualStyle
  2
Realistic
 70
     8
 71
     2
 72
     2
 73
     0
 90
        0
 40
-0.6
 41
-30.0
 62
     5
 63
     7
 74
     1
 91
        0
 64
     7
 65
   257
 75
     1
175
     1
 42
1.0
 92
        8
 66
     8
 43
1.0
 76
     1
 77
     6
 78
     2
 67
     7
 79
     5
170
     0
171
     0
290
     0
174
     0
 93
       13
 44
0.0
173
     0
291
     0
 45
0.0
1001
ACAD
1000
AcDbSavedByObjectVersion
1070
     0
  0
VISUALSTYLE
  5
37
102
{ACAD_REACTORS
330
2A
102
}
102
{ACAD_XDICTIONARY
360
B9
102
}
330
2A
100
AcDbVisualStyle
  2
Thicken
 70
    13
 71
     2
 72
     2
 73
     0
 90
        0
 40
-0.6
 41
-30.0
 62
     5
 63
     7
 74
     1
 91
        4
 64
     7
 65
   257
 75
     1
175
     1
 42
1.0
 92
       12
 66
     7
 43
1.0
 76
     1
 77
     6
 78
     2
 67
     7
 79
     5
170
     0
171
     0
290
     0
174
     0
 93
        1
 44
0.0
173
     0
291
     1
 45
0.0
1001
ACAD
1000
AcDbSavedByObjectVersion
1070
     0
  0
DICTIONARYVAR
  5
9F
102
{ACAD_REACTORS
330
9C
102
}
330
9C
100
DictionaryVariables
280
     0
  1
2
  0
DICTIONARYVAR
  5
A0
102
{ACAD_REACTORS
330
9C
102
}
330
9C
100
DictionaryVariables
280
     0
  1
1
  0
DICTIONARY
  5
C3
330
3D
100
AcDbDictionary
280
     1
281
     1
  3
ACAD_XREC_ROUNDTRIP
360
C4
  0
DICTIONARY
  5
C1
330
3C
100
AcDbDictionary
280
     1
281
     1
  3
ACAD_XREC_ROUNDTRIP
360
C2
  0
DICTIONARY
  5
C5
330
3E
100
AcDbDictionary
280
     1
281
     1
  3
ACAD_XREC_ROUNDTRIP
360
C6
  0
DICTIONARY
  5
A9
330
2F
100
AcDbDictionary
280
     1
281
     1
  3
ACAD_XREC_ROUNDTRIP
360
AA
  0
DICTIONARY
  5
AD
330
31
100
AcDbDictionary
280
     1
281
     1
  3
ACAD_XREC_ROUNDTRIP
360
AE
  0
DICTIONARY
  5
AB
330
30
100
AcDbDictionary
280
     1
281
     1
  3
ACAD_XREC_ROUNDTRIP
360
AC
  0
DICTIONARY
  5
AF
330
32
100
AcDbDictionary
280
     1
281
     1
  3
ACAD_XREC_ROUNDTRIP
360
B0
  0
DICTIONARY
  5
B7
330
36
100
AcDbDictionary
280
     1
281
     1
  3
ACAD_XREC_ROUNDTRIP
360
B8
  0
DICTIONARY
  5
BF
330
3A
100
AcDbDictionary
280
     1
281
     1
  3
ACAD_XREC_ROUNDTRIP
360
C0
  0
DICTIONARY
  5
B3
330
34
100
AcDbDictionary
280
     1
281
     1
  3
ACAD_XREC_ROUNDTRIP
360
B4
  0
DICTIONARY
  5
B5
330
35
100
AcDbDictionary
280
     1
281
     1
  3
ACAD_XREC_ROUNDTRIP
360
B6
  0
DICTIONARY
  5
BD
330
39
100
AcDbDictionary
280
     1
281
     1
  3
ACAD_XREC_ROUNDTRIP
360
BE
  0
DICTIONARY
  5
A1
330
2B
100
AcDbDictionary
280
     1
281
     1
  3
ACAD_XREC_ROUNDTRIP
360
A2
  0
DICTIONARY
  5
A3
330
2C
100
AcDbDictionary
280
     1
281
     1
  3
ACAD_XREC_ROUNDTRIP
360
A4
  0
DICTIONARY
  5
A5
330
2D
100
AcDbDictionary
280
     1
281
     1
  3
ACAD_XREC_ROUNDTRIP
360
A6
  0
DICTIONARY
  5
A7
330
2E
100
AcDbDictionary
280
     1
281
     1
  3
ACAD_XREC_ROUNDTRIP
360
A8
  0
DICTIONARY
  5
BB
330
38
100
AcDbDictionary
280
     1
281
     1
  3
ACAD_XREC_ROUNDTRIP
360
BC
  0
DICTIONARY
  5
B1
330
33
100
AcDbDictionary
280
     1
281
     1
  3
ACAD_XREC_ROUNDTRIP
360
B2
  0
DICTIONARY
  5
B9
330
37
100
AcDbDictionary
280
     1
281
     1
  3
ACAD_XREC_ROUNDTRIP
360
BA
  0
XRECORD
  5
C4
102
{ACAD_REACTORS
330
C3
102
}
330
C3
100
AcDbXrecord
280
     1
102
MATERIAL
148
0.0
149
0.0
149
0.0
 93
        0
 94
      127
282
     0
 72
     1
 77
     1
171
     1
175
     1
179
     1
273
     0
  0
XRECORD
  5
C2
102
{ACAD_REACTORS
330
C1
102
}
330
C1
100
AcDbXrecord
280
     1
102
MATERIAL
148
0.0
149
0.0
149
0.0
 93
        0
 94
      127
282
     0
 72
     1
 77
     1
171
     1
175
     1
179
     1
273
     0
  0
XRECORD
  5
C6
102
{ACAD_REACTORS
330
C5
102
}
330
C5
100
AcDbXrecord
280
     1
102
MATERIAL
148
0.0
149
0.0
149
0.0
 93
        0
 94
      127
282
     0
 72
     1
 77
     1
171
     1
175
     1
179
     1
273
     0
  0
XRECORD
  5
AA
102
{ACAD_REACTORS
330
A9
102
}
330
A9
100
AcDbXrecord
280
     1
102
RTVSPropertyOp0
 70
     1
102
RTVSPropertyOp1
 70
     1
102
RTVSPropertyOp2
 70
     1
102
RTVSPropertyOp3
 70
     1
102
RTVSPropertyOp4
 70
     1
102
RTVSPropertyOp5
 70
     1
102
RTVSPropertyOp6
 70
     1
102
RTVSPropertyOp7
 70
     1
102
RTVSPropertyOp8
 70
     1
102
RTVSPropertyOp9
 70
     1
102
RTVSPropertyOp10
 70
     1
102
RTVSPropertyOp11
 70
     1
102
RTVSPropertyOp12
 70
     1
102
RTVSPropertyOp13
 70
     1
102
RTVSPropertyOp14
 70
     1
102
RTVSPropertyOp15
 70
     1
102
RTVSPropertyOp16
 70
     1
102
RTVSPropertyOp17
 70
     1
102
RTVSPropertyOp18
 70
     1
102
RTVSPropertyOp19
 70
     1
102
RTVSPropertyOp20
 70
     1
102
RTVSPropertyOp21
 70
     1
102
RTVSPropertyOp22
 70
     1
102
RTVSPropertyOp23
 70
     1
102
RTVSPropertyOp24
 70
     1
102
RTVSPropertyOp25
 70
     1
102
RTVSPropertyOp26
 70
     1
102
RTVSPropertyOp27
 70
     1
  0
XRECORD
  5
AE
102
{ACAD_REACTORS
330
AD
102
}
330
AD
100
AcDbXrecord
280
     1
102
RTVSPropertyOp0
 70
     1
102
RTVSPropertyOp1
 70
     1
102
RTVSPropertyOp2
 70
     1
102
RTVSPropertyOp3
 70
     1
102
RTVSPropertyOp4
 70
     1
102
RTVSPropertyOp5
 70
     1
102
RTVSPropertyOp6
 70
     1
102
RTVSPropertyOp7
 70
     1
102
RTVSPropertyOp8
 70
     1
102
RTVSPropertyOp9
 70
     1
102
RTVSPropertyOp10
 70
     1
102
RTVSPropertyOp11
 70
     1
102
RTVSPropertyOp12
 70
     1
102
RTVSPropertyOp13
 70
     1
102
RTVSPropertyOp14
 70
     1
102
RTVSPropertyOp15
 70
     1
102
RTVSPropertyOp16
 70
     1
102
RTVSPropertyOp17
 70
     1
102
RTVSPropertyOp18
 70
     1
102
RTVSPropertyOp19
 70
     1
102
RTVSPropertyOp20
 70
     1
102
RTVSPropertyOp21
 70
     1
102
RTVSPropertyOp22
 70
     1
102
RTVSPropertyOp23
 70
     1
102
RTVSPropertyOp24
 70
     1
102
RTVSPropertyOp25
 70
     1
102
RTVSPropertyOp26
 70
     1
102
RTVSPropertyOp27
 70
     1
  0
XRECORD
  5
AC
102
{ACAD_REACTORS
330
AB
102
}
330
AB
100
AcDbXrecord
280
     1
102
RTVSPropertyOp0
 70
     1
102
RTVSPropertyOp1
 70
     1
102
RTVSPropertyOp2
 70
     1
102
RTVSPropertyOp3
 70
     1
102
RTVSPropertyOp4
 70
     1
102
RTVSPropertyOp5
 70
     1
102
RTVSPropertyOp6
 70
     1
102
RTVSPropertyOp7
 70
     1
102
RTVSPropertyOp8
 70
     1
102
RTVSPropertyOp9
 70
     1
102
RTVSPropertyOp10
 70
     1
102
RTVSPropertyOp11
 70
     1
102
RTVSPropertyOp12
 70
     1
102
RTVSPropertyOp13
 70
     1
102
RTVSPropertyOp14
 70
     1
102
RTVSPropertyOp15
 70
     1
102
RTVSPropertyOp16
 70
     1
102
RTVSPropertyOp17
 70
     1
102
RTVSPropertyOp18
 70
     1
102
RTVSPropertyOp19
 70
     1
102
RTVSPropertyOp20
 70
     1
102
RTVSPropertyOp21
 70
     1
102
RTVSPropertyOp22
 70
     1
102
RTVSPropertyOp23
 70
     1
102
RTVSPropertyOp24
 70
     1
102
RTVSPropertyOp25
 70
     1
102
RTVSPropertyOp26
 70
     1
102
RTVSPropertyOp27
 70
     1
  0
XRECORD
  5
B0
102
{ACAD_REACTORS
330
AF
102
}
330
AF
100
AcDbXrecord
280
     1
102
RTVSPropertyOp0
 70
     1
102
RTVSPropertyOp1
 70
     1
102
RTVSPropertyOp2
 70
     1
102
RTVSPropertyOp3
 70
     1
102
RTVSPropertyOp4
 70
     1
102
RTVSPropertyOp5
 70
     1
102
RTVSPropertyOp6
 70
     1
102
RTVSPropertyOp7
 70
     1
102
RTVSPropertyOp8
 70
     1
102
RTVSPropertyOp9
 70
     1
102
RTVSPropertyOp10
 70
     1
102
RTVSPropertyOp11
 70
     1
102
RTVSPropertyOp12
 70
     1
102
RTVSPropertyOp13
 70
     1
102
RTVSPropertyOp14
 70
     1
102
RTVSPropertyOp15
 70
     1
102
RTVSPropertyOp16
 70
     1
102
RTVSPropertyOp17
 70
     1
102
RTVSPropertyOp18
 70
     1
102
RTVSPropertyOp19
 70
     1
102
RTVSPropertyOp20
 70
     1
102
RTVSPropertyOp21
 70
     1
102
RTVSPropertyOp22
 70
     1
102
RTVSPropertyOp23
 70
     1
102
RTVSPropertyOp24
 70
     1
102
RTVSPropertyOp25
 70
     1
102
RTVSPropertyOp26
 70
     1
102
RTVSPropertyOp27
 70
     1
  0
XRECORD
  5
B8
102
{ACAD_REACTORS
330
B7
102
}
330
B7
100
AcDbXrecord
280
     1
102
RTVSPropertyOp0
 70
     1
102
RTVSPropertyOp1
 70
     1
102
RTVSPropertyOp2
 70
     1
102
RTVSPropertyOp3
 70
     1
102
RTVSPropertyOp4
 70
     1
102
RTVSPropertyOp5
 70
     1
102
RTVSPropertyOp6
 70
     1
102
RTVSPropertyOp7
 70
     1
102
RTVSPropertyOp8
 70
     1
102
RTVSPropertyOp9
 70
     1
102
RTVSPropertyOp10
 70
     1
102
RTVSPropertyOp11
 70
     1
102
RTVSPropertyOp12
 70
     1
102
RTVSPropertyOp13
 70
     1
102
RTVSPropertyOp14
 70
     1
102
RTVSPropertyOp15
 70
     1
102
RTVSPropertyOp16
 70
     1
102
RTVSPropertyOp17
 70
     1
102
RTVSPropertyOp18
 70
     1
102
RTVSPropertyOp19
 70
     1
102
RTVSPropertyOp20
 70
     1
102
RTVSPropertyOp21
 70
     1
102
RTVSPropertyOp22
 70
     1
102
RTVSPropertyOp23
 70
     1
102
RTVSPropertyOp24
 70
     1
102
RTVSPropertyOp25
 70
     1
102
RTVSPropertyOp26
 70
     1
102
RTVSPropertyOp27
 70
     1
  0
XRECORD
  5
C0
102
{ACAD_REACTORS
330
BF
102
}
330
BF
100
AcDbXrecord
280
     1
102
RTVSPropertyOp0
 70
     1
102
RTVSPropertyOp1
 70
     1
102
RTVSPropertyOp2
 70
     1
102
RTVSPropertyOp3
 70
     1
102
RTVSPropertyOp4
 70
     1
102
RTVSPropertyOp5
 70
     1
102
RTVSPropertyOp6
 70
     1
102
RTVSPropertyOp7
 70
     1
102
RTVSPropertyOp8
 70
     1
102
RTVSPropertyOp9
 70
     1
102
RTVSPropertyOp10
 70
     1
102
RTVSPropertyOp11
 70
     1
102
RTVSPropertyOp12
 70
     1
102
RTVSPropertyOp13
 70
     1
102
RTVSPropertyOp14
 70
     1
102
RTVSPropertyOp15
 70
     1
102
RTVSPropertyOp16
 70
     1
102
RTVSPropertyOp17
 70
     1
102
RTVSPropertyOp18
 70
     1
102
RTVSPropertyOp19
 70
     1
102
RTVSPropertyOp20
 70
     1
102
RTVSPropertyOp21
 70
     1
102
RTVSPropertyOp22
 70
     1
102
RTVSPropertyOp23
 70
     1
102
RTVSPropertyOp24
 70
     1
102
RTVSPropertyOp25
 70
     1
102
RTVSPropertyOp26
 70
     1
102
RTVSPropertyOp27
 70
     1
  0
XRECORD
  5
B4
102
{ACAD_REACTORS
330
B3
102
}
330
B3
100
AcDbXrecord
280
     1
102
RTVSPropertyOp0
 70
     1
102
RTVSPropertyOp1
 70
     1
102
RTVSPropertyOp2
 70
     1
102
RTVSPropertyOp3
 70
     1
102
RTVSPropertyOp4
 70
     1
102
RTVSPropertyOp5
 70
     1
102
RTVSPropertyOp6
 70
     1
102
RTVSPropertyOp7
 70
     1
102
RTVSPropertyOp8
 70
     1
102
RTVSPropertyOp9
 70
     1
102
RTVSPropertyOp10
 70
     1
102
RTVSPropertyOp11
 70
     1
102
RTVSPropertyOp12
 70
     1
102
RTVSPropertyOp13
 70
     1
102
RTVSPropertyOp14
 70
     1
102
RTVSPropertyOp15
 70
     1
102
RTVSPropertyOp16
 70
     1
102
RTVSPropertyOp17
 70
     1
102
RTVSPropertyOp18
 70
     1
102
RTVSPropertyOp19
 70
     1
102
RTVSPropertyOp20
 70
     1
102
RTVSPropertyOp21
 70
     1
102
RTVSPropertyOp22
 70
     1
102
RTVSPropertyOp23
 70
     1
102
RTVSPropertyOp24
 70
     1
102
RTVSPropertyOp25
 70
     1
102
RTVSPropertyOp26
 70
     1
102
RTVSPropertyOp27
 70
     1
  0
XRECORD
  5
B6
102
{ACAD_REACTORS
330
B5
102
}
330
B5
100
AcDbXrecord
280
     1
102
RTVSPropertyOp0
 70
     1
102
RTVSPropertyOp1
 70
     1
102
RTVSPropertyOp2
 70
     1
102
RTVSPropertyOp3
 70
     1
102
RTVSPropertyOp4
 70
     1
102
RTVSPropertyOp5
 70
     1
102
RTVSPropertyOp6
 70
     1
102
RTVSPropertyOp7
 70
     1
102
RTVSPropertyOp8
 70
     1
102
RTVSPropertyOp9
 70
     1
102
RTVSPropertyOp10
 70
     1
102
RTVSPropertyOp11
 70
     1
102
RTVSPropertyOp12
 70
     1
102
RTVSPropertyOp13
 70
     1
102
RTVSPropertyOp14
 70
     1
102
RTVSPropertyOp15
 70
     1
102
RTVSPropertyOp16
 70
     1
102
RTVSPropertyOp17
 70
     1
102
RTVSPropertyOp18
 70
     1
102
RTVSPropertyOp19
 70
     1
102
RTVSPropertyOp20
 70
     1
102
RTVSPropertyOp21
 70
     1
102
RTVSPropertyOp22
 70
     1
102
RTVSPropertyOp23
 70
     1
102
RTVSPropertyOp24
 70
     1
102
RTVSPropertyOp25
 70
     1
102
RTVSPropertyOp26
 70
     1
102
RTVSPropertyOp27
 70
     1
  0
XRECORD
  5
BE
102
{ACAD_REACTORS
330
BD
102
}
330
BD
100
AcDbXrecord
280
     1
102
RTVSPropertyOp0
 70
     1
102
RTVSPropertyOp1
 70
     1
102
RTVSPropertyOp2
 70
     1
102
RTVSPropertyOp3
 70
     1
102
RTVSPropertyOp4
 70
     1
102
RTVSPropertyOp5
 70
     1
102
RTVSPropertyOp6
 70
     1
102
RTVSPropertyOp7
 70
     1
102
RTVSPropertyOp8
 70
     1
102
RTVSPropertyOp9
 70
     1
102
RTVSPropertyOp10
 70
     1
102
RTVSPropertyOp11
 70
     1
102
RTVSPropertyOp12
 70
     1
102
RTVSPropertyOp13
 70
     1
102
RTVSPropertyOp14
 70
     1
102
RTVSPropertyOp15
 70
     1
102
RTVSPropertyOp16
 70
     1
102
RTVSPropertyOp17
 70
     1
102
RTVSPropertyOp18
 70
     1
102
RTVSPropertyOp19
 70
     1
102
RTVSPropertyOp20
 70
     1
102
RTVSPropertyOp21
 70
     1
102
RTVSPropertyOp22
 70
     1
102
RTVSPropertyOp23
 70
     1
102
RTVSPropertyOp24
 70
     1
102
RTVSPropertyOp25
 70
     1
102
RTVSPropertyOp26
 70
     1
102
RTVSPropertyOp27
 70
     1
  0
XRECORD
  5
A2
102
{ACAD_REACTORS
330
A1
102
}
330
A1
100
AcDbXrecord
280
     1
102
RTVSPropertyOp0
 70
     1
102
RTVSPropertyOp1
 70
     1
102
RTVSPropertyOp2
 70
     1
102
RTVSPropertyOp3
 70
     1
102
RTVSPropertyOp4
 70
     1
102
RTVSPropertyOp5
 70
     1
102
RTVSPropertyOp6
 70
     1
102
RTVSPropertyOp7
 70
     1
102
RTVSPropertyOp8
 70
     1
102
RTVSPropertyOp9
 70
     1
102
RTVSPropertyOp10
 70
     1
102
RTVSPropertyOp11
 70
     1
102
RTVSPropertyOp12
 70
     1
102
RTVSPropertyOp13
 70
     1
102
RTVSPropertyOp14
 70
     1
102
RTVSPropertyOp15
 70
     1
102
RTVSPropertyOp16
 70
     1
102
RTVSPropertyOp17
 70
     1
102
RTVSPropertyOp18
 70
     1
102
RTVSPropertyOp19
 70
     1
102
RTVSPropertyOp20
 70
     1
102
RTVSPropertyOp21
 70
     1
102
RTVSPropertyOp22
 70
     1
102
RTVSPropertyOp23
 70
     1
102
RTVSPropertyOp24
 70
     1
102
RTVSPropertyOp25
 70
     1
102
RTVSPropertyOp26
 70
     1
102
RTVSPropertyOp27
 70
     1
  0
XRECORD
  5
A4
102
{ACAD_REACTORS
330
A3
102
}
330
A3
100
AcDbXrecord
280
     1
102
RTVSPropertyOp0
 70
     1
102
RTVSPropertyOp1
 70
     1
102
RTVSPropertyOp2
 70
     1
102
RTVSPropertyOp3
 70
     1
102
RTVSPropertyOp4
 70
     1
102
RTVSPropertyOp5
 70
     1
102
RTVSPropertyOp6
 70
     1
102
RTVSPropertyOp7
 70
     1
102
RTVSPropertyOp8
 70
     1
102
RTVSPropertyOp9
 70
     1
102
RTVSPropertyOp10
 70
     1
102
RTVSPropertyOp11
 70
     1
102
RTVSPropertyOp12
 70
     1
102
RTVSPropertyOp13
 70
     1
102
RTVSPropertyOp14
 70
     1
102
RTVSPropertyOp15
 70
     1
102
RTVSPropertyOp16
 70
     1
102
RTVSPropertyOp17
 70
     1
102
RTVSPropertyOp18
 70
     1
102
RTVSPropertyOp19
 70
     1
102
RTVSPropertyOp20
 70
     1
102
RTVSPropertyOp21
 70
     1
102
RTVSPropertyOp22
 70
     1
102
RTVSPropertyOp23
 70
     1
102
RTVSPropertyOp24
 70
     1
102
RTVSPropertyOp25
 70
     1
102
RTVSPropertyOp26
 70
     1
102
RTVSPropertyOp27
 70
     1
  0
XRECORD
  5
A6
102
{ACAD_REACTORS
330
A5
102
}
330
A5
100
AcDbXrecord
280
     1
102
RTVSPropertyOp0
 70
     1
102
RTVSPropertyOp1
 70
     1
102
RTVSPropertyOp2
 70
     1
102
RTVSPropertyOp3
 70
     1
102
RTVSPropertyOp4
 70
     1
102
RTVSPropertyOp5
 70
     1
102
RTVSPropertyOp6
 70
     1
102
RTVSPropertyOp7
 70
     1
102
RTVSPropertyOp8
 70
     1
102
RTVSPropertyOp9
 70
     1
102
RTVSPropertyOp10
 70
     1
102
RTVSPropertyOp11
 70
     1
102
RTVSPropertyOp12
 70
     1
102
RTVSPropertyOp13
 70
     1
102
RTVSPropertyOp14
 70
     1
102
RTVSPropertyOp15
 70
     1
102
RTVSPropertyOp16
 70
     1
102
RTVSPropertyOp17
 70
     1
102
RTVSPropertyOp18
 70
     1
102
RTVSPropertyOp19
 70
     1
102
RTVSPropertyOp20
 70
     1
102
RTVSPropertyOp21
 70
     1
102
RTVSPropertyOp22
 70
     1
102
RTVSPropertyOp23
 70
     1
102
RTVSPropertyOp24
 70
     1
102
RTVSPropertyOp25
 70
     1
102
RTVSPropertyOp26
 70
     1
102
RTVSPropertyOp27
 70
     1
  0
XRECORD
  5
A8
102
{ACAD_REACTORS
330
A7
102
}
330
A7
100
AcDbXrecord
280
     1
102
RTVSPropertyOp0
 70
     1
102
RTVSPropertyOp1
 70
     1
102
RTVSPropertyOp2
 70
     1
102
RTVSPropertyOp3
 70
     1
102
RTVSPropertyOp4
 70
     1
102
RTVSPropertyOp5
 70
     1
102
RTVSPropertyOp6
 70
     1
102
RTVSPropertyOp7
 70
     1
102
RTVSPropertyOp8
 70
     1
102
RTVSPropertyOp9
 70
     1
102
RTVSPropertyOp10
 70
     1
102
RTVSPropertyOp11
 70
     1
102
RTVSPropertyOp12
 70
     1
102
RTVSPropertyOp13
 70
     1
102
RTVSPropertyOp14
 70
     1
102
RTVSPropertyOp15
 70
     1
102
RTVSPropertyOp16
 70
     1
102
RTVSPropertyOp17
 70
     1
102
RTVSPropertyOp18
 70
     1
102
RTVSPropertyOp19
 70
     1
102
RTVSPropertyOp20
 70
     1
102
RTVSPropertyOp21
 70
     1
102
RTVSPropertyOp22
 70
     1
102
RTVSPropertyOp23
 70
     1
102
RTVSPropertyOp24
 70
     1
102
RTVSPropertyOp25
 70
     1
102
RTVSPropertyOp26
 70
     1
102
RTVSPropertyOp27
 70
     1
  0
XRECORD
  5
BC
102
{ACAD_REACTORS
330
BB
102
}
330
BB
100
AcDbXrecord
280
     1
102
RTVSPropertyOp0
 70
     1
102
RTVSPropertyOp1
 70
     1
102
RTVSPropertyOp2
 70
     1
102
RTVSPropertyOp3
 70
     1
102
RTVSPropertyOp4
 70
     1
102
RTVSPropertyOp5
 70
     1
102
RTVSPropertyOp6
 70
     1
102
RTVSPropertyOp7
 70
     1
102
RTVSPropertyOp8
 70
     1
102
RTVSPropertyOp9
 70
     1
102
RTVSPropertyOp10
 70
     1
102
RTVSPropertyOp11
 70
     1
102
RTVSPropertyOp12
 70
     1
102
RTVSPropertyOp13
 70
     1
102
RTVSPropertyOp14
 70
     1
102
RTVSPropertyOp15
 70
     1
102
RTVSPropertyOp16
 70
     1
102
RTVSPropertyOp17
 70
     1
102
RTVSPropertyOp18
 70
     1
102
RTVSPropertyOp19
 70
     1
102
RTVSPropertyOp20
 70
     1
102
RTVSPropertyOp21
 70
     1
102
RTVSPropertyOp22
 70
     1
102
RTVSPropertyOp23
 70
     1
102
RTVSPropertyOp24
 70
     1
102
RTVSPropertyOp25
 70
     1
102
RTVSPropertyOp26
 70
     1
102
RTVSPropertyOp27
 70
     1
  0
XRECORD
  5
B2
102
{ACAD_REACTORS
330
B1
102
}
330
B1
100
AcDbXrecord
280
     1
102
RTVSPropertyOp0
 70
     1
102
RTVSPropertyOp1
 70
     1
102
RTVSPropertyOp2
 70
     1
102
RTVSPropertyOp3
 70
     1
102
RTVSPropertyOp4
 70
     1
102
RTVSPropertyOp5
 70
     1
102
RTVSPropertyOp6
 70
     1
102
RTVSPropertyOp7
 70
     1
102
RTVSPropertyOp8
 70
     1
102
RTVSPropertyOp9
 70
     1
102
RTVSPropertyOp10
 70
     1
102
RTVSPropertyOp11
 70
     1
102
RTVSPropertyOp12
 70
     1
102
RTVSPropertyOp13
 70
     1
102
RTVSPropertyOp14
 70
     1
102
RTVSPropertyOp15
 70
     1
102
RTVSPropertyOp16
 70
     1
102
RTVSPropertyOp17
 70
     1
102
RTVSPropertyOp18
 70
     1
102
RTVSPropertyOp19
 70
     1
102
RTVSPropertyOp20
 70
     1
102
RTVSPropertyOp21
 70
     1
102
RTVSPropertyOp22
 70
     1
102
RTVSPropertyOp23
 70
     1
102
RTVSPropertyOp24
 70
     1
102
RTVSPropertyOp25
 70
     1
102
RTVSPropertyOp26
 70
     1
102
RTVSPropertyOp27
 70
     1
  0
XRECORD
  5
BA
102
{ACAD_REACTORS
330
B9
102
}
330
B9
100
AcDbXrecord
280
     1
102
RTVSPropertyOp0
 70
     1
102
RTVSPropertyOp1
 70
     1
102
RTVSPropertyOp2
 70
     1
102
RTVSPropertyOp3
 70
     1
102
RTVSPropertyOp4
 70
     1
102
RTVSPropertyOp5
 70
     1
102
RTVSPropertyOp6
 70
     1
102
RTVSPropertyOp7
 70
     1
102
RTVSPropertyOp8
 70
     1
102
RTVSPropertyOp9
 70
     1
102
RTVSPropertyOp10
 70
     1
102
RTVSPropertyOp11
 70
     1
102
RTVSPropertyOp12
 70
     1
102
RTVSPropertyOp13
 70
     1
102
RTVSPropertyOp14
 70
     1
102
RTVSPropertyOp15
 70
     1
102
RTVSPropertyOp16
 70
     1
102
RTVSPropertyOp17
 70
     1
102
RTVSPropertyOp18
 70
     1
102
RTVSPropertyOp19
 70
     1
102
RTVSPropertyOp20
 70
     1
102
RTVSPropertyOp21
 70
     1
102
RTVSPropertyOp22
 70
     1
102
RTVSPropertyOp23
 70
     1
102
RTVSPropertyOp24
 70
     1
102
RTVSPropertyOp25
 70
     1
102
RTVSPropertyOp26
 70
     1
102
RTVSPropertyOp27
 70
     1
  0
ENDSEC
  0
EOF
