  0
SECTION
  2
HEADER
  9
$ACADVER
  1
AC1014
  9
$ACADMAINTVER
 70
     9
  9
$DWGCODEPAGE
  3
ANSI_1250
  9
$INSBASE
 10
0.0
 20
0.0
 30
0.0
  9
$EXTMIN
 10
-50.6757
 20
-32.8699
 30
0.0
  9
$EXTMAX
 10
50.6758
 20
32.8699
 30
0.0
  9
$LIMMIN
 10
0.0
 20
0.0
  9
$LIMMAX
 10
12.0
 20
9.0
  9
$ORTHOMODE
 70
     0
  9
$REGENMODE
 70
     1
  9
$FILLMODE
 70
     1
  9
$QTEXTMODE
 70
     0
  9
$MIRRTEXT
 70
     1
  9
$DRAGMODE
 70
     2
  9
$LTSCALE
 40
1.0
  9
$OSMODE
 70
    37
  9
$ATTMODE
 70
     1
  9
$TEXTSIZE
 40
0.2
  9
$TRACEWID
 40
0.05
  9
$TEXTSTYLE
  7
STANDARD
  9
$CLAYER
  8
0
  9
$CELTYPE
  6
BYLAYER
  9
$CECOLOR
 62
   256
  9
$CELTSCALE
 40
1.0
  9
$DELOBJ
 70
     1
  9
$DISPSILH
 70
     0
  9
$DIMSCALE
 40
1.0
  9
$DIMASZ
 40
0.18
  9
$DIMEXO
 40
0.0625
  9
$DIMDLI
 40
0.38
  9
$DIMRND
 40
0.0
  9
$DIMDLE
 40
0.0
  9
$DIMEXE
 40
0.18
  9
$DIMTP
 40
0.0
  9
$DIMTM
 40
0.0
  9
$DIMTXT
 40
0.18
  9
$DIMCEN
 40
0.09
  9
$DIMTSZ
 40
0.0
  9
$DIMTOL
 70
     0
  9
$DIMLIM
 70
     0
  9
$DIMTIH
 70
     1
  9
$DIMTOH
 70
     1
  9
$DIMSE1
 70
     0
  9
$DIMSE2
 70
     0
  9
$DIMTAD
 70
     0
  9
$DIMZIN
 70
     0
  9
$DIMBLK
  1

  9
$DIMASO
 70
     1
  9
$DIMSHO
 70
     1
  9
$DIMPOST
  1

  9
$DIMAPOST
  1

  9
$DIMALT
 70
     0
  9
$DIMALTD
 70
     2
  9
$DIMALTF
 40
25.4
  9
$DIMLFAC
 40
1.0
  9
$DIMTOFL
 70
     0
  9
$DIMTVP
 40
0.0
  9
$DIMTIX
 70
     0
  9
$DIMSOXD
 70
     0
  9
$DIMSAH
 70
     0
  9
$DIMBLK1
  1

  9
$DIMBLK2
  1

  9
$DIMSTYLE
  2
STANDARD
  9
$DIMCLRD
 70
     0
  9
$DIMCLRE
 70
     0
  9
$DIMCLRT
 70
     0
  9
$DIMTFAC
 40
1.0
  9
$DIMGAP
 40
0.09
  9
$DIMJUST
 70
     0
  9
$DIMSD1
 70
     0
  9
$DIMSD2
 70
     0
  9
$DIMTOLJ
 70
     1
  9
$DIMTZIN
 70
     0
  9
$DIMALTZ
 70
     0
  9
$DIMALTTZ
 70
     0
  9
$DIMFIT
 70
     3
  9
$DIMUPT
 70
     0
  9
$DIMUNIT
 70
     2
  9
$DIMDEC
 70
     4
  9
$DIMTDEC
 70
     4
  9
$DIMALTU
 70
     2
  9
$DIMALTTD
 70
     2
  9
$DIMTXSTY
  7
STANDARD
  9
$DIMAUNIT
 70
     0
  9
$LUNITS
 70
     2
  9
$LUPREC
 70
     4
  9
$SKETCHINC
 40
0.1
  9
$FILLETRAD
 40
0.5
  9
$AUNITS
 70
     0
  9
$AUPREC
 70
     0
  9
$MENU
  1
.
  9
$ELEVATION
 40
0.0
  9
$PELEVATION
 40
0.0
  9
$THICKNESS
 40
0.0
  9
$LIMCHECK
 70
     0
  9
$CHAMFERA
 40
0.5
  9
$CHAMFERB
 40
0.5
  9
$CHAMFERC
 40
1.0
  9
$CHAMFERD
 40
0.0
  9
$SKPOLY
 70
     0
  9
$TDCREATE
 40
2456272.417513032
  9
$TDUPDATE
 40
2456272.417513044
  9
$TDINDWG
 40
0.0000000116
  9
$TDUSRTIMER
 40
0.0000000116
  9
$USRTIMER
 70
     1
  9
$ANGBASE
 50
0.0
  9
$ANGDIR
 70
     0
  9
$PDMODE
 70
     0
  9
$PDSIZE
 40
0.0
  9
$PLINEWID
 40
0.0
  9
$COORDS
 70
     1
  9
$SPLFRAME
 70
     0
  9
$SPLINETYPE
 70
     6
  9
$SPLINESEGS
 70
     8
  9
$ATTDIA
 70
     0
  9
$ATTREQ
 70
     1
  9
$HANDLING
 70
     1
  9
$HANDSEED
  5
E6
  9
$SURFTAB1
 70
     6
  9
$SURFTAB2
 70
     6
  9
$SURFTYPE
 70
     6
  9
$SURFU
 70
     6
  9
$SURFV
 70
     6
  9
$UCSNAME
  2

  9
$UCSORG
 10
0.0
 20
0.0
 30
0.0
  9
$UCSXDIR
 10
1.0
 20
0.0
 30
0.0
  9
$UCSYDIR
 10
0.0
 20
1.0
 30
0.0
  9
$PUCSNAME
  2

  9
$PUCSORG
 10
0.0
 20
0.0
 30
0.0
  9
$PUCSXDIR
 10
1.0
 20
0.0
 30
0.0
  9
$PUCSYDIR
 10
0.0
 20
1.0
 30
0.0
  9
$USERI1
 70
     0
  9
$USERI2
 70
     0
  9
$USERI3
 70
     0
  9
$USERI4
 70
     0
  9
$USERI5
 70
     0
  9
$USERR1
 40
0.0
  9
$USERR2
 40
0.0
  9
$USERR3
 40
0.0
  9
$USERR4
 40
0.0
  9
$USERR5
 40
0.0
  9
$WORLDVIEW
 70
     1
  9
$SHADEDGE
 70
     3
  9
$SHADEDIF
 70
    70
  9
$TILEMODE
 70
     1
  9
$MAXACTVP
 70
    64
  9
$PINSBASE
 10
0.0
 20
0.0
 30
0.0
  9
$PLIMCHECK
 70
     0
  9
$PEXTMIN
 10
1.000000000000000E+20
 20
1.000000000000000E+20
 30
1.000000000000000E+20
  9
$PEXTMAX
 10
-1.000000000000000E+20
 20
-1.000000000000000E+20
 30
-1.000000000000000E+20
  9
$PLIMMIN
 10
0.0
 20
0.0
  9
$PLIMMAX
 10
12.0
 20
9.0
  9
$UNITMODE
 70
     0
  9
$VISRETAIN
 70
     1
  9
$PLINEGEN
 70
     0
  9
$PSLTSCALE
 70
     1
  9
$TREEDEPTH
 70
  3020
  9
$PICKSTYLE
 70
     1
  9
$CMLSTYLE
  2
STANDARD
  9
$CMLJUST
 70
     0
  9
$CMLSCALE
 40
1.0
  9
$PROXYGRAPHICS
 70
     1
  9
$MEASUREMENT
 70
     0
  0
ENDSEC
  0
SECTION
  2
CLASSES
  0
CLASS
  1
ACDBDICTIONARYWDFLT
  2
AcDbDictionaryWithDefault
  3
ObjectDBX Classes
 90
        0
280
     0
281
     0
  0
CLASS
  1
VISUALSTYLE
  2
AcDbVisualStyle
  3
ObjectDBX Classes
 90
     4095
280
     0
281
     0
  0
CLASS
  1
MATERIAL
  2
AcDbMaterial
  3
ObjectDBX Classes
 90
     1153
280
     0
281
     0
  0
CLASS
  1
DICTIONARYVAR
  2
AcDbDictionaryVar
  3
ObjectDBX Classes
 90
        0
280
     0
281
     0
  0
CLASS
  1
XRECORD
  2
AcDbXrecord
  3
AutoCAD 2000
 90
        0
280
     0
281
     0
  0
CLASS
  1
LWPOLYLINE
  2
AcDbPolyline
  3
AutoCAD 2000
 90
        0
280
     0
281
     1
  0
CLASS
  1
HATCH
  2
AcDbHatch
  3
AutoCAD 2000
 90
        0
280
     0
281
     1
  0
CLASS
  1
ACDBPLACEHOLDER
  2
AcDbPlaceHolder
  3
ObjectDBX Classes
 90
        0
280
     0
281
     0
  0
CLASS
  1
LAYOUT
  2
AcDbLayout
  3
ObjectDBX Classes
 90
        0
280
     0
281
     0
  0
ENDSEC
  0
SECTION
  2
TABLES
  0
TABLE
  2
VPORT
  5
8
330
0
100
AcDbSymbolTable
 70
     1
  0
VPORT
  5
29
330
8
100
AcDbSymbolTableRecord
100
AcDbViewportTableRecord
  2
*ACTIVE
 70
     0
 10
0.0
 20
0.0
 11
1.0
 21
1.0
 12
10.42990654205607
 22
4.5
 13
0.0
 23
0.0
 14
0.5
 24
0.5
 15
0.5
 25
0.5
 16
0.0
 26
0.0
 36
1.0
 17
0.0
 27
0.0
 37
0.0
 40
9.0
 41
1.972972972850329
 42
50.0
 43
0.0
 44
0.0
 50
0.0
 51
0.0
 71
     0
 72
   100
 73
     1
 74
     3
 75
     0
 76
     0
 77
     0
 78
     0
  0
ENDTAB
  0
TABLE
  2
LTYPE
  5
5
330
0
100
AcDbSymbolTable
 70
     1
  0
LTYPE
  5
14
330
5
100
AcDbSymbolTableRecord
100
AcDbLinetypeTableRecord
  2
BYBLOCK
 70
     0
  3

 72
    65
 73
     0
 40
0.0
  0
LTYPE
  5
15
330
5
100
AcDbSymbolTableRecord
100
AcDbLinetypeTableRecord
  2
BYLAYER
 70
     0
  3

 72
    65
 73
     0
 40
0.0
  0
LTYPE
  5
16
330
5
100
AcDbSymbolTableRecord
100
AcDbLinetypeTableRecord
  2
CONTINUOUS
 70
     0
  3
Solid line
 72
    65
 73
     0
 40
0.0
  0
ENDTAB
  0
TABLE
  2
LAYER
  5
2
330
0
100
AcDbSymbolTable
 70
     2
  0
LAYER
  5
10
330
2
100
AcDbSymbolTableRecord
100
AcDbLayerTableRecord
  2
0
 70
     0
 62
     7
  6
CONTINUOUS
  0
LAYER
  5
40
330
2
100
AcDbSymbolTableRecord
100
AcDbLayerTableRecord
  2
DEFAULT_2
 70
     0
 62
     7
  6
CONTINUOUS
  0
ENDTAB
  0
TABLE
  2
STYLE
  5
3
330
0
100
AcDbSymbolTable
 70
     1
  0
STYLE
  5
11
330
3
100
AcDbSymbolTableRecord
100
AcDbTextStyleTableRecord
  2
STANDARD
 70
     0
 40
0.0
 41
1.0
 50
0.0
 71
     0
 42
0.2
  3
txt
  4

  0
ENDTAB
  0
TABLE
  2
VIEW
  5
6
330
0
100
AcDbSymbolTable
 70
     0
  0
ENDTAB
  0
TABLE
  2
UCS
  5
7
330
0
100
AcDbSymbolTable
 70
     0
  0
ENDTAB
  0
TABLE
  2
APPID
  5
9
330
0
100
AcDbSymbolTable
 70
     2
  0
APPID
  5
12
330
9
100
AcDbSymbolTableRecord
100
AcDbRegAppTableRecord
  2
ACAD
 70
     0
  0
APPID
  5
3F
330
9
100
AcDbSymbolTableRecord
100
AcDbRegAppTableRecord
  2
ODA
 70
     0
  0
ENDTAB
  0
TABLE
  2
DIMSTYLE
  5
A
330
0
100
AcDbSymbolTable
 70
     1
  0
DIMSTYLE
105
27
330
A
100
AcDbSymbolTableRecord
100
AcDbDimStyleTableRecord
  2
STANDARD
 70
     0
  3

  4

  5

  6

  7

 40
1.0
 41
0.18
 42
0.0625
 43
0.38
 44
0.18
 45
0.0
 46
0.0
 47
0.0
 48
0.0
140
0.18
141
0.09
142
0.0
143
25.4
144
1.0
145
0.0
146
1.0
147
0.09
 71
     0
 72
     0
 73
     1
 74
     1
 75
     0
 76
     0
 77
     0
 78
     0
170
     0
171
     2
172
     0
173
     0
174
     0
175
     0
176
     0
177
     0
178
     0
270
     2
271
     4
272
     4
273
     2
274
     2
340
11
275
     0
280
     0
281
     0
282
     0
283
     1
284
     0
285
     0
286
     0
287
     3
288
     0
  0
ENDTAB
  0
TABLE
  2
BLOCK_RECORD
  5
1
330
0
100
AcDbSymbolTable
 70
     1
  0
BLOCK_RECORD
  5
1F
330
1
100
AcDbSymbolTableRecord
100
AcDbBlockTableRecord
  2
*MODEL_SPACE
  0
BLOCK_RECORD
  5
1B
330
1
100
AcDbSymbolTableRecord
100
AcDbBlockTableRecord
  2
*PAPER_SPACE
  0
ENDTAB
  0
ENDSEC
  0
SECTION
  2
BLOCKS
  0
BLOCK
  5
20
330
1F
100
AcDbEntity
  8
0
100
AcDbBlockBegin
  2
*MODEL_SPACE
 70
     0
 10
0.0
 20
0.0
 30
0.0
  3
*MODEL_SPACE
  1

  0
ENDBLK
  5
21
330
1F
100
AcDbEntity
  8
0
100
AcDbBlockEnd
  0
BLOCK
  5
1C
330
1B
100
AcDbEntity
 67
     1
  8
0
100
AcDbBlockBegin
  2
*PAPER_SPACE
 70
     0
 10
0.0
 20
0.0
 30
0.0
  3
*PAPER_SPACE
  1

  0
ENDBLK
  5
1D
330
1B
100
AcDbEntity
 67
     1
  8
0
100
AcDbBlockEnd
  0
ENDSEC
  0
SECTION
  2
ENTITIES
  0
SPLINE
  5
41
330
1F
100
AcDbEntity
  8
DEFAULT_2
 62
   250
100
AcDbSpline
210
0.0
220
0.0
230
1.0
 70
    24
 71
     3
 72
     8
 73
     4
 74
     0
 42
0.0000000001
 43
0.0000000001
 40
0.0
 40
0.0
 40
0.0
 40
0.0
 40
1.0
 40
1.0
 40
1.0
 40
1.0
 10
-38.3812
 20
-25.6798
 30
0.0
 10
-38.3812
 20
-25.6798
 30
0.0
 10
-38.3812
 20
-32.747
 30
0.0
 10
-38.3812
 20
-32.747
 30
0.0
  0
SPLINE
  5
42
330
1F
100
AcDbEntity
  8
DEFAULT_2
 62
   250
100
AcDbSpline
210
0.0
220
0.0
230
1.0
 70
    24
 71
     3
 72
     8
 73
     4
 74
     0
 42
0.0000000001
 43
0.0000000001
 40
0.0
 40
0.0
 40
0.0
 40
0.0
 40
1.0
 40
1.0
 40
1.0
 40
1.0
 10
4.004
 20
-25.8769
 30
0.0
 10
4.004
 20
-25.8769
 30
0.0
 10
4.004
 20
-32.8699
 30
0.0
 10
4.004
 20
-32.8699
 30
0.0
  0
SPLINE
  5
43
330
1F
100
AcDbEntity
  8
DEFAULT_2
 62
   250
100
AcDbSpline
210
0.0
220
0.0
230
1.0
 70
    24
 71
     3
 72
     8
 73
     4
 74
     0
 42
0.0000000001
 43
0.0000000001
 40
0.0
 40
0.0
 40
0.0
 40
0.0
 40
1.0
 40
1.0
 40
1.0
 40
1.0
 10
4.0036
 20
-31.9226
 30
0.0
 10
4.0036
 20
-31.9226
 30
0.0
 10
-38.2313
 20
-31.9226
 30
0.0
 10
-38.2313
 20
-31.9226
 30
0.0
  0
SPLINE
  5
44
330
1F
100
AcDbEntity
  8
DEFAULT_2
 62
   250
100
AcDbSpline
210
0.0
220
0.0
230
1.0
 70
    24
 71
     3
 72
     8
 73
     4
 74
     0
 42
0.0000000001
 43
0.0000000001
 40
0.0
 40
0.0
 40
0.0
 40
0.0
 40
1.0
 40
1.0
 40
1.0
 40
1.0
 10
-39.7486
 20
-24.3846
 30
0.0
 10
-39.7486
 20
-24.3846
 30
0.0
 10
-49.0365
 20
-24.3846
 30
0.0
 10
-49.0365
 20
-24.3846
 30
0.0
  0
SPLINE
  5
45
330
1F
100
AcDbEntity
  8
DEFAULT_2
 62
   250
100
AcDbSpline
210
0.0
220
0.0
230
1.0
 70
    24
 71
     3
 72
     8
 73
     4
 74
     0
 42
0.0000000001
 43
0.0000000001
 40
0.0
 40
0.0
 40
0.0
 40
0.0
 40
1.0
 40
1.0
 40
1.0
 40
1.0
 10
-39.0649
 20
23.9484
 30
0.0
 10
-39.0649
 20
23.9484
 30
0.0
 10
-48.0129
 20
23.9484
 30
0.0
 10
-48.0129
 20
23.9484
 30
0.0
  0
SPLINE
  5
46
330
1F
100
AcDbEntity
  8
DEFAULT_2
 62
   250
100
AcDbSpline
210
0.0
220
0.0
230
1.0
 70
    24
 71
     3
 72
     8
 73
     4
 74
     0
 42
0.0000000001
 43
0.0000000001
 40
0.0
 40
0.0
 40
0.0
 40
0.0
 40
1.0
 40
1.0
 40
1.0
 40
1.0
 10
-47.1062
 20
-24.3846
 30
0.0
 10
-47.1062
 20
-24.3846
 30
0.0
 10
-47.1062
 20
23.7802
 30
0.0
 10
-47.1062
 20
23.7802
 30
0.0
  0
SPLINE
  5
47
330
1F
100
AcDbEntity
  8
DEFAULT_2
 62
   250
100
AcDbSpline
210
0.0
220
0.0
230
1.0
 70
    24
 71
     3
 72
     8
 73
     4
 74
     0
 42
0.0000000001
 43
0.0000000001
 40
0.0
 40
0.0
 40
0.0
 40
0.0
 40
1.0
 40
1.0
 40
1.0
 40
1.0
 10
-29.0856
 20
24.9789
 30
0.0
 10
-29.0856
 20
24.9789
 30
0.0
 10
-29.0856
 20
29.6612
 30
0.0
 10
-29.0856
 20
29.6612
 30
0.0
  0
SPLINE
  5
48
330
1F
100
AcDbEntity
  8
DEFAULT_2
 62
   250
100
AcDbSpline
210
0.0
220
0.0
230
1.0
 70
    24
 71
     3
 72
     8
 73
     4
 74
     0
 42
0.0000000001
 43
0.0000000001
 40
0.0
 40
0.0
 40
0.0
 40
0.0
 40
1.0
 40
1.0
 40
1.0
 40
1.0
 10
-5.291
 20
24.5743
 30
0.0
 10
-5.291
 20
24.5743
 30
0.0
 10
-5.291
 20
29.3417
 30
0.0
 10
-5.291
 20
29.3417
 30
0.0
  0
SPLINE
  5
49
330
1F
100
AcDbEntity
  8
DEFAULT_2
 62
   250
100
AcDbSpline
210
0.0
220
0.0
230
1.0
 70
    24
 71
     3
 72
     8
 73
     4
 74
     0
 42
0.0000000001
 43
0.0000000001
 40
0.0
 40
0.0
 40
0.0
 40
0.0
 40
1.0
 40
1.0
 40
1.0
 40
1.0
 10
-5.2902
 20
28.4567
 30
0.0
 10
-5.2902
 20
28.4567
 30
0.0
 10
-29.0548
 20
28.4567
 30
0.0
 10
-29.0548
 20
28.4567
 30
0.0
  0
SPLINE
  5
4A
330
1F
100
AcDbEntity
  8
DEFAULT_2
 62
   250
100
AcDbSpline
210
0.0
220
0.0
230
1.0
 70
    24
 71
     3
 72
     8
 73
     4
 74
     0
 42
0.0000000001
 43
0.0000000001
 40
0.0
 40
0.0
 40
0.0
 40
0.0
 40
1.0
 40
1.0
 40
1.0
 40
1.0
 10
-39.1209
 20
9.0768
 30
0.0
 10
-39.1209
 20
9.0768
 30
0.0
 10
-42.7306
 20
9.0768
 30
0.0
 10
-42.7306
 20
9.0768
 30
0.0
  0
SPLINE
  5
4B
330
1F
100
AcDbEntity
  8
DEFAULT_2
 62
   250
100
AcDbSpline
210
0.0
220
0.0
230
1.0
 70
    24
 71
     3
 72
     8
 73
     4
 74
     0
 42
0.0000000001
 43
0.0000000001
 40
0.0
 40
0.0
 40
0.0
 40
0.0
 40
1.0
 40
1.0
 40
1.0
 40
1.0
 10
-41.979
 20
-24.3846
 30
0.0
 10
-41.979
 20
-24.3846
 30
0.0
 10
-41.979
 20
9.0469
 30
0.0
 10
-41.979
 20
9.0469
 30
0.0
  0
SPLINE
  5
4C
330
1F
100
AcDbEntity
  8
DEFAULT_2
 62
   250
100
AcDbSpline
210
0.0
220
0.0
230
1.0
 70
    24
 71
     3
 72
     8
 73
     4
 74
     0
 42
0.0000000001
 43
0.0000000001
 40
0.0
 40
0.0
 40
0.0
 40
0.0
 40
1.0
 40
1.0
 40
1.0
 40
1.0
 10
26.0877
 20
-3.4497
 30
0.0
 10
26.0877
 20
-3.4497
 30
0.0
 10
26.0877
 20
-8.5868
 30
0.0
 10
26.0877
 20
-8.5868
 30
0.0
  0
SPLINE
  5
4D
330
1F
100
AcDbEntity
  8
DEFAULT_2
 62
   250
100
AcDbSpline
210
0.0
220
0.0
230
1.0
 70
    24
 71
     3
 72
     8
 73
     4
 74
     0
 42
0.0000000001
 43
0.0000000001
 40
0.0
 40
0.0
 40
0.0
 40
0.0
 40
1.0
 40
1.0
 40
1.0
 40
1.0
 10
25.3441
 20
-3.5042
 30
0.0
 10
25.3441
 20
-3.5042
 30
0.0
 10
25.3441
 20
-8.5868
 30
0.0
 10
25.3441
 20
-8.5868
 30
0.0
  0
SPLINE
  5
4E
330
1F
100
AcDbEntity
  8
DEFAULT_2
 62
   250
100
AcDbSpline
210
0.0
220
0.0
230
1.0
 70
    24
 71
     3
 72
     8
 73
     4
 74
     0
 42
0.0000000001
 43
0.0000000001
 40
0.0
 40
0.0
 40
0.0
 40
0.0
 40
1.0
 40
1.0
 40
1.0
 40
1.0
 10
18.2523
 20
-8.0005
 30
0.0
 10
18.2523
 20
-8.0005
 30
0.0
 10
31.8736
 20
-8.0005
 30
0.0
 10
31.8736
 20
-8.0005
 30
0.0
  0
SPLINE
  5
4F
330
1F
100
AcDbEntity
  8
DEFAULT_2
 62
   250
100
AcDbSpline
210
0.0
220
0.0
230
1.0
 70
    24
 71
     3
 72
     8
 73
     4
 74
     0
 42
0.0000000001
 43
0.0000000001
 40
0.0
 40
0.0
 40
0.0
 40
0.0
 40
1.0
 40
1.0
 40
1.0
 40
1.0
 10
36.498
 20
-24.3846
 30
0.0
 10
36.498
 20
-24.3846
 30
0.0
 10
36.498
 20
-16.4865
 30
0.0
 10
36.498
 20
-16.4865
 30
0.0
  0
SPLINE
  5
50
330
1F
100
AcDbEntity
  8
DEFAULT_2
 62
   250
100
AcDbSpline
210
0.0
220
0.0
230
1.0
 70
    24
 71
     3
 72
     8
 73
     4
 74
     0
 42
0.0000000001
 43
0.0000000001
 40
0.0
 40
0.0
 40
0.0
 40
0.0
 40
1.0
 40
1.0
 40
1.0
 40
1.0
 10
37.2416
 20
-24.3846
 30
0.0
 10
37.2416
 20
-24.3846
 30
0.0
 10
37.2416
 20
-16.4865
 30
0.0
 10
37.2416
 20
-16.4865
 30
0.0
  0
SPLINE
  5
51
330
1F
100
AcDbEntity
  8
DEFAULT_2
 62
   250
100
AcDbSpline
210
0.0
220
0.0
230
1.0
 70
    11
 71
     3
 72
    40
 73
    36
 74
     0
 42
0.0000000001
 43
0.0000000001
 40
0.0
 40
0.0
 40
0.0
 40
0.0
 40
0.1
 40
0.1
 40
0.1
 40
0.1
 40
0.2
 40
0.2
 40
0.2
 40
0.2
 40
0.3
 40
0.3
 40
0.3
 40
0.3
 40
0.4
 40
0.4
 40
0.4
 40
0.4
 40
0.5
 40
0.5
 40
0.5
 40
0.5
 40
0.6
 40
0.6
 40
0.6
 40
0.6
 40
0.7
 40
0.7
 40
0.7
 40
0.7
 40
0.8
 40
0.8
 40
0.8
 40
0.8
 40
1.0
 40
1.0
 40
1.0
 40
1.0
 10
40.5791
 20
31.1728
 30
0.0
 10
40.5791
 20
31.1728
 30
0.0
 10
40.3717
 20
31.1728
 30
0.0
 10
40.3717
 20
31.1728
 30
0.0
 10
40.3717
 20
31.1728
 30
0.0
 10
40.3717
 20
31.1728
 30
0.0
 10
40.3717
 20
32.4949
 30
0.0
 10
40.3717
 20
32.4949
 30
0.0
 10
40.3717
 20
32.4949
 30
0.0
 10
40.3218
 20
32.4473
 30
0.0
 10
40.2565
 20
32.3997
 30
0.0
 10
40.1754
 20
32.352
 30
0.0
 10
40.1754
 20
32.352
 30
0.0
 10
40.094
 20
32.3045
 30
0.0
 10
40.0211
 20
32.2686
 30
0.0
 10
39.9567
 20
32.2451
 30
0.0
 10
39.9567
 20
32.2451
 30
0.0
 10
39.9567
 20
32.2451
 30
0.0
 10
39.9567
 20
32.4452
 30
0.0
 10
39.9567
 20
32.4452
 30
0.0
 10
39.9567
 20
32.4452
 30
0.0
 10
40.0727
 20
32.5
 30
0.0
 10
40.1743
 20
32.5661
 30
0.0
 10
40.2613
 20
32.6436
 30
0.0
 10
40.2613
 20
32.6436
 30
0.0
 10
40.3478
 20
32.7215
 30
0.0
 10
40.4095
 20
32.7967
 30
0.0
 10
40.4458
 20
32.8699
 30
0.0
 10
40.4458
 20
32.8699
 30
0.0
 10
40.4458
 20
32.8699
 30
0.0
 10
40.5791
 20
32.8699
 30
0.0
 10
40.5791
 20
32.8699
 30
0.0
 10
40.5791
 20
32.8699
 30
0.0
 10
40.5791
 20
32.8699
 30
0.0
 10
40.5791
 20
31.1728
 30
0.0
 10
40.5791
 20
31.1728
 30
0.0
  0
SPLINE
  5
52
330
1F
100
AcDbEntity
  8
DEFAULT_2
 62
   250
100
AcDbSpline
210
0.0
220
0.0
230
1.0
 70
    11
 71
     3
 72
    92
 73
    88
 74
     0
 42
0.0000000001
 43
0.0000000001
 40
0.0
 40
0.0
 40
0.0
 40
0.0
 40
0.0434782608695652
 40
0.0434782608695652
 40
0.0434782608695652
 40
0.0434782608695652
 40
0.0869565217391304
 40
0.0869565217391304
 40
0.0869565217391304
 40
0.0869565217391304
 40
0.1304347826086956
 40
0.1304347826086956
 40
0.1304347826086956
 40
0.1304347826086956
 40
0.1739130434782609
 40
0.1739130434782609
 40
0.1739130434782609
 40
0.1739130434782609
 40
0.2173913043478261
 40
0.2173913043478261
 40
0.2173913043478261
 40
0.2173913043478261
 40
0.2608695652173913
 40
0.2608695652173913
 40
0.2608695652173913
 40
0.2608695652173913
 40
0.3043478260869565
 40
0.3043478260869565
 40
0.3043478260869565
 40
0.3043478260869565
 40
0.3478260869565217
 40
0.3478260869565217
 40
0.3478260869565217
 40
0.3478260869565217
 40
0.391304347826087
 40
0.391304347826087
 40
0.391304347826087
 40
0.391304347826087
 40
0.4347826086956522
 40
0.4347826086956522
 40
0.4347826086956522
 40
0.4347826086956522
 40
0.4782608695652174
 40
0.4782608695652174
 40
0.4782608695652174
 40
0.4782608695652174
 40
0.5217391304347826
 40
0.5217391304347826
 40
0.5217391304347826
 40
0.5217391304347826
 40
0.5652173913043478
 40
0.5652173913043478
 40
0.5652173913043478
 40
0.5652173913043478
 40
0.6086956521739131
 40
0.6086956521739131
 40
0.6086956521739131
 40
0.6086956521739131
 40
0.6521739130434783
 40
0.6521739130434783
 40
0.6521739130434783
 40
0.6521739130434783
 40
0.6956521739130435
 40
0.6956521739130435
 40
0.6956521739130435
 40
0.6956521739130435
 40
0.7391304347826086
 40
0.7391304347826086
 40
0.7391304347826086
 40
0.7391304347826086
 40
0.782608695652174
 40
0.782608695652174
 40
0.782608695652174
 40
0.782608695652174
 40
0.8260869565217391
 40
0.8260869565217391
 40
0.8260869565217391
 40
0.8260869565217391
 40
0.8695652173913043
 40
0.8695652173913043
 40
0.8695652173913043
 40
0.8695652173913043
 40
0.9130434782608695
 40
0.9130434782608695
 40
0.9130434782608695
 40
0.9130434782608695
 40
1.0
 40
1.0
 40
1.0
 40
1.0
 10
42.2015
 20
31.3722
 30
0.0
 10
42.2015
 20
31.3722
 30
0.0
 10
42.2015
 20
31.1728
 30
0.0
 10
42.2015
 20
31.1728
 30
0.0
 10
42.2015
 20
31.1728
 30
0.0
 10
42.2015
 20
31.1728
 30
0.0
 10
41.0844
 20
31.1728
 30
0.0
 10
41.0844
 20
31.1728
 30
0.0
 10
41.0844
 20
31.1728
 30
0.0
 10
41.0828
 20
31.2228
 30
0.0
 10
41.0907
 20
31.2708
 30
0.0
 10
41.1084
 20
31.3168
 30
0.0
 10
41.1084
 20
31.3168
 30
0.0
 10
41.1367
 20
31.3932
 30
0.0
 10
41.1823
 20
31.4679
 30
0.0
 10
41.2449
 20
31.5419
 30
0.0
 10
41.2449
 20
31.5419
 30
0.0
 10
41.3078
 20
31.6155
 30
0.0
 10
41.3983
 20
31.7008
 30
0.0
 10
41.5163
 20
31.7976
 30
0.0
 10
41.5163
 20
31.7976
 30
0.0
 10
41.7002
 20
31.9483
 30
0.0
 10
41.8245
 20
32.0675
 30
0.0
 10
41.8891
 20
32.1557
 30
0.0
 10
41.8891
 20
32.1557
 30
0.0
 10
41.9536
 20
32.2435
 30
0.0
 10
41.9858
 20
32.3268
 30
0.0
 10
41.9858
 20
32.4053
 30
0.0
 10
41.9858
 20
32.4053
 30
0.0
 10
41.9858
 20
32.4874
 30
0.0
 10
41.9563
 20
32.5567
 30
0.0
 10
41.8977
 20
32.6134
 30
0.0
 10
41.8977
 20
32.6134
 30
0.0
 10
41.8387
 20
32.6696
 30
0.0
 10
41.7619
 20
32.698
 30
0.0
 10
41.6675
 20
32.698
 30
0.0
 10
41.6675
 20
32.698
 30
0.0
 10
41.5675
 20
32.698
 30
0.0
 10
41.4877
 20
32.668
 30
0.0
 10
41.4279
 20
32.6079
 30
0.0
 10
41.4279
 20
32.6079
 30
0.0
 10
41.3677
 20
32.5481
 30
0.0
 10
41.3374
 20
32.465
 30
0.0
 10
41.3366
 20
32.3591
 30
0.0
 10
41.3366
 20
32.3591
 30
0.0
 10
41.3366
 20
32.3591
 30
0.0
 10
41.1233
 20
32.3808
 30
0.0
 10
41.1233
 20
32.3808
 30
0.0
 10
41.1233
 20
32.3808
 30
0.0
 10
41.1379
 20
32.5403
 30
0.0
 10
41.193
 20
32.6613
 30
0.0
 10
41.2881
 20
32.7448
 30
0.0
 10
41.2881
 20
32.7448
 30
0.0
 10
41.3834
 20
32.8281
 30
0.0
 10
41.5117
 20
32.8699
 30
0.0
 10
41.6723
 20
32.8699
 30
0.0
 10
41.6723
 20
32.8699
 30
0.0
 10
41.8343
 20
32.8699
 30
0.0
 10
41.9626
 20
32.8246
 30
0.0
 10
42.0571
 20
32.7349
 30
0.0
 10
42.0571
 20
32.7349
 30
0.0
 10
42.1518
 20
32.6448
 30
0.0
 10
42.199
 20
32.5335
 30
0.0
 10
42.199
 20
32.4005
 30
0.0
 10
42.199
 20
32.4005
 30
0.0
 10
42.199
 20
32.3329
 30
0.0
 10
42.1853
 20
32.2663
 30
0.0
 10
42.1574
 20
32.201
 30
0.0
 10
42.1574
 20
32.201
 30
0.0
 10
42.1299
 20
32.1357
 30
0.0
 10
42.0838
 20
32.0669
 30
0.0
 10
42.0197
 20
31.9947
 30
0.0
 10
42.0197
 20
31.9947
 30
0.0
 10
41.9555
 20
31.9224
 30
0.0
 10
41.8489
 20
31.8232
 30
0.0
 10
41.6998
 20
31.6974
 30
0.0
 10
41.6998
 20
31.6974
 30
0.0
 10
41.5755
 20
31.5927
 30
0.0
 10
41.4955
 20
31.5219
 30
0.0
 10
41.4602
 20
31.4845
 30
0.0
 10
41.4602
 20
31.4845
 30
0.0
 10
41.4247
 20
31.4475
 30
0.0
 10
41.3956
 20
31.41
 30
0.0
 10
41.3725
 20
31.3722
 30
0.0
 10
41.3725
 20
31.3722
 30
0.0
 10
41.3725
 20
31.3722
 30
0.0
 10
42.2015
 20
31.3722
 30
0.0
 10
42.2015
 20
31.3722
 30
0.0
  0
SPLINE
  5
53
330
1F
100
AcDbEntity
  8
DEFAULT_2
 62
   250
100
AcDbSpline
210
0.0
220
0.0
230
1.0
 70
    24
 71
     3
 72
     8
 73
     4
 74
     0
 42
0.0000000001
 43
0.0000000001
 40
0.0
 40
0.0
 40
0.0
 40
0.0
 40
1.0
 40
1.0
 40
1.0
 40
1.0
 10
36.498
 20
13.1456
 30
0.0
 10
36.498
 20
13.1456
 30
0.0
 10
36.498
 20
30.8126
 30
0.0
 10
36.498
 20
30.8126
 30
0.0
  0
SPLINE
  5
54
330
1F
100
AcDbEntity
  8
DEFAULT_2
 62
   250
100
AcDbSpline
210
0.0
220
0.0
230
1.0
 70
    24
 71
     3
 72
     8
 73
     4
 74
     0
 42
0.0000000001
 43
0.0000000001
 40
0.0
 40
0.0
 40
0.0
 40
0.0
 40
1.0
 40
1.0
 40
1.0
 40
1.0
 10
45.421
 20
25.2727
 30
0.0
 10
45.421
 20
25.2727
 30
0.0
 10
45.421
 20
30.922
 30
0.0
 10
45.421
 20
30.922
 30
0.0
  0
SPLINE
  5
55
330
1F
100
AcDbEntity
  8
DEFAULT_2
 62
   250
100
AcDbSpline
210
0.0
220
0.0
230
1.0
 70
    24
 71
     3
 72
     8
 73
     4
 74
     0
 42
0.0000000001
 43
0.0000000001
 40
0.0
 40
0.0
 40
0.0
 40
0.0
 40
1.0
 40
1.0
 40
1.0
 40
1.0
 10
50.6758
 20
30.1169
 30
0.0
 10
50.6758
 20
30.1169
 30
0.0
 10
31.4292
 20
30.1169
 30
0.0
 10
31.4292
 20
30.1169
 30
0.0
  0
SPLINE
  5
56
330
1F
100
AcDbEntity
  8
DEFAULT_2
 62
   250
100
AcDbSpline
210
0.0
220
0.0
230
1.0
 70
    24
 71
     3
 72
     8
 73
     4
 74
     0
 42
0.0000000001
 43
0.0000000001
 40
0.0
 40
0.0
 40
0.0
 40
0.0
 40
1.0
 40
1.0
 40
1.0
 40
1.0
 10
24.29
 20
-2.0771
 30
0.0
 10
24.29
 20
-2.0771
 30
0.0
 10
18.8505
 20
-2.0771
 30
0.0
 10
18.8505
 20
-2.0771
 30
0.0
  0
SPLINE
  5
57
330
1F
100
AcDbEntity
  8
DEFAULT_2
 62
   250
100
AcDbSpline
210
0.0
220
0.0
230
1.0
 70
    24
 71
     3
 72
     8
 73
     4
 74
     0
 42
0.0000000001
 43
0.0000000001
 40
0.0
 40
0.0
 40
0.0
 40
0.0
 40
1.0
 40
1.0
 40
1.0
 40
1.0
 10
24.4264
 20
23.9484
 30
0.0
 10
24.4264
 20
23.9484
 30
0.0
 10
18.8505
 20
23.9484
 30
0.0
 10
18.8505
 20
23.9484
 30
0.0
  0
SPLINE
  5
58
330
1F
100
AcDbEntity
  8
DEFAULT_2
 62
   250
100
AcDbSpline
210
0.0
220
0.0
230
1.0
 70
    24
 71
     3
 72
     8
 73
     4
 74
     0
 42
0.0000000001
 43
0.0000000001
 40
0.0
 40
0.0
 40
0.0
 40
0.0
 40
1.0
 40
1.0
 40
1.0
 40
1.0
 10
19.6967
 20
-2.1722
 30
0.0
 10
19.6967
 20
-2.1722
 30
0.0
 10
19.6967
 20
23.7391
 30
0.0
 10
19.6967
 20
23.7391
 30
0.0
  0
SPLINE
  5
59
330
1F
100
AcDbEntity
  8
DEFAULT_2
 62
   250
100
AcDbSpline
210
0.0
220
0.0
230
1.0
 70
    24
 71
     3
 72
     8
 73
     4
 74
     0
 42
0.0000000001
 43
0.0000000001
 40
0.0
 40
0.0
 40
0.0
 40
0.0
 40
1.0
 40
1.0
 40
1.0
 40
1.0
 10
-38.3804
 20
-24.3846
 30
0.0
 10
-38.3804
 20
-24.3846
 30
0.0
 10
4.004
 20
-24.3846
 30
0.0
 10
4.004
 20
-24.3846
 30
0.0
  0
SPLINE
  5
5A
330
1F
100
AcDbEntity
  8
DEFAULT_2
 62
   250
100
AcDbSpline
210
0.0
220
0.0
230
1.0
 70
    24
 71
     3
 72
     8
 73
     4
 74
     0
 42
0.0000000001
 43
0.0000000001
 40
0.0
 40
0.0
 40
0.0
 40
0.0
 40
1.0
 40
1.0
 40
1.0
 40
1.0
 10
-38.3801
 20
-24.3846
 30
0.0
 10
-38.3801
 20
-24.3846
 30
0.0
 10
-38.3801
 20
23.962
 30
0.0
 10
-38.3801
 20
23.962
 30
0.0
  0
SPLINE
  5
5B
330
1F
100
AcDbEntity
  8
DEFAULT_2
 62
   250
100
AcDbSpline
210
0.0
220
0.0
230
1.0
 70
    24
 71
     3
 72
     8
 73
     4
 74
     0
 42
0.0000000001
 43
0.0000000001
 40
0.0
 40
0.0
 40
0.0
 40
0.0
 40
1.0
 40
1.0
 40
1.0
 40
1.0
 10
-38.3804
 20
9.0768
 30
0.0
 10
-38.3804
 20
9.0768
 30
0.0
 10
-28.342
 20
9.0768
 30
0.0
 10
-28.342
 20
9.0768
 30
0.0
  0
SPLINE
  5
5C
330
1F
100
AcDbEntity
  8
DEFAULT_2
 62
   250
100
AcDbSpline
210
0.0
220
0.0
230
1.0
 70
    24
 71
     3
 72
     8
 73
     4
 74
     0
 42
0.0000000001
 43
0.0000000001
 40
0.0
 40
0.0
 40
0.0
 40
0.0
 40
1.0
 40
1.0
 40
1.0
 40
1.0
 10
-6.0344
 20
9.0768
 30
0.0
 10
-6.0344
 20
9.0768
 30
0.0
 10
4.004
 20
9.0768
 30
0.0
 10
4.004
 20
9.0768
 30
0.0
  0
SPLINE
  5
5D
330
1F
100
AcDbEntity
  8
DEFAULT_2
 62
   250
100
AcDbSpline
210
0.0
220
0.0
230
1.0
 70
    24
 71
     3
 72
     8
 73
     4
 74
     0
 42
0.0000000001
 43
0.0000000001
 40
0.0
 40
0.0
 40
0.0
 40
0.0
 40
1.0
 40
1.0
 40
1.0
 40
1.0
 10
4.004
 20
23.9085
 30
0.0
 10
4.004
 20
23.9085
 30
0.0
 10
4.004
 20
-24.3846
 30
0.0
 10
4.004
 20
-24.3846
 30
0.0
  0
SPLINE
  5
5E
330
1F
100
AcDbEntity
  8
DEFAULT_2
 62
   250
100
AcDbSpline
210
0.0
220
0.0
230
1.0
 70
    24
 71
     3
 72
     8
 73
     4
 74
     0
 42
0.0000000001
 43
0.0000000001
 40
0.0
 40
0.0
 40
0.0
 40
0.0
 40
1.0
 40
1.0
 40
1.0
 40
1.0
 10
-38.3849
 20
23.9484
 30
0.0
 10
-38.3849
 20
23.9484
 30
0.0
 10
-28.342
 20
23.9484
 30
0.0
 10
-28.342
 20
23.9484
 30
0.0
  0
SPLINE
  5
5F
330
1F
100
AcDbEntity
  8
DEFAULT_2
 62
   250
100
AcDbSpline
210
0.0
220
0.0
230
1.0
 70
    24
 71
     3
 72
     8
 73
     4
 74
     0
 42
0.0000000001
 43
0.0000000001
 40
0.0
 40
0.0
 40
0.0
 40
0.0
 40
1.0
 40
1.0
 40
1.0
 40
1.0
 10
-6.0344
 20
23.9484
 30
0.0
 10
-6.0344
 20
23.9484
 30
0.0
 10
4.1148
 20
23.9484
 30
0.0
 10
4.1148
 20
23.9484
 30
0.0
  0
SPLINE
  5
60
330
1F
100
AcDbEntity
  8
DEFAULT_2
 62
   250
100
AcDbSpline
210
0.0
220
0.0
230
1.0
 70
    24
 71
     3
 72
     8
 73
     4
 74
     0
 42
0.0000000001
 43
0.0000000001
 40
0.0
 40
0.0
 40
0.0
 40
0.0
 40
1.0
 40
1.0
 40
1.0
 40
1.0
 10
36.498
 20
-24.3846
 30
0.0
 10
36.498
 20
-24.3846
 30
0.0
 10
37.2416
 20
-24.3846
 30
0.0
 10
37.2416
 20
-24.3846
 30
0.0
  0
SPLINE
  5
61
330
1F
100
AcDbEntity
  8
DEFAULT_2
 62
   250
100
AcDbSpline
210
0.0
220
0.0
230
1.0
 70
    24
 71
     3
 72
     8
 73
     4
 74
     0
 42
0.0000000001
 43
0.0000000001
 40
0.0
 40
0.0
 40
0.0
 40
0.0
 40
1.0
 40
1.0
 40
1.0
 40
1.0
 10
25.3441
 20
-2.0771
 30
0.0
 10
25.3441
 20
-2.0771
 30
0.0
 10
25.3441
 20
23.9484
 30
0.0
 10
25.3441
 20
23.9484
 30
0.0
  0
SPLINE
  5
62
330
1F
100
AcDbEntity
  8
DEFAULT_2
 62
   250
100
AcDbSpline
210
0.0
220
0.0
230
1.0
 70
    24
 71
     3
 72
     8
 73
     4
 74
     0
 42
0.0000000001
 43
0.0000000001
 40
0.0
 40
0.0
 40
0.0
 40
0.0
 40
1.0
 40
1.0
 40
1.0
 40
1.0
 10
26.0877
 20
-2.0771
 30
0.0
 10
26.0877
 20
-2.0771
 30
0.0
 10
26.0877
 20
23.9484
 30
0.0
 10
26.0877
 20
23.9484
 30
0.0
  0
SPLINE
  5
63
330
1F
100
AcDbEntity
  8
DEFAULT_2
 62
   250
100
AcDbSpline
210
0.0
220
0.0
230
1.0
 70
    24
 71
     3
 72
     8
 73
     4
 74
     0
 42
0.0000000001
 43
0.0000000001
 40
0.0
 40
0.0
 40
0.0
 40
0.0
 40
1.0
 40
1.0
 40
1.0
 40
1.0
 10
26.0877
 20
-2.0771
 30
0.0
 10
26.0877
 20
-2.0771
 30
0.0
 10
25.3441
 20
-2.0771
 30
0.0
 10
25.3441
 20
-2.0771
 30
0.0
  0
SPLINE
  5
64
330
1F
100
AcDbEntity
  8
DEFAULT_2
 62
   250
100
AcDbSpline
210
0.0
220
0.0
230
1.0
 70
    24
 71
     3
 72
     8
 73
     4
 74
     0
 42
0.0000000001
 43
0.0000000001
 40
0.0
 40
0.0
 40
0.0
 40
0.0
 40
1.0
 40
1.0
 40
1.0
 40
1.0
 10
36.498
 20
-24.3846
 30
0.0
 10
36.498
 20
-24.3846
 30
0.0
 10
36.498
 20
10.1921
 30
0.0
 10
36.498
 20
10.1921
 30
0.0
  0
SPLINE
  5
65
330
1F
100
AcDbEntity
  8
DEFAULT_2
 62
   250
100
AcDbSpline
210
0.0
220
0.0
230
1.0
 70
    24
 71
     3
 72
     8
 73
     4
 74
     0
 42
0.0000000001
 43
0.0000000001
 40
0.0
 40
0.0
 40
0.0
 40
0.0
 40
1.0
 40
1.0
 40
1.0
 40
1.0
 10
37.2416
 20
-24.3846
 30
0.0
 10
37.2416
 20
-24.3846
 30
0.0
 10
37.2416
 20
10.1921
 30
0.0
 10
37.2416
 20
10.1921
 30
0.0
  0
SPLINE
  5
66
330
1F
100
AcDbEntity
  8
DEFAULT_2
 62
   250
100
AcDbSpline
210
0.0
220
0.0
230
1.0
 70
    24
 71
     3
 72
     8
 73
     4
 74
     0
 42
0.0000000001
 43
0.0000000001
 40
0.0
 40
0.0
 40
0.0
 40
0.0
 40
1.0
 40
1.0
 40
1.0
 40
1.0
 10
37.2416
 20
12.051
 30
0.0
 10
37.2416
 20
12.051
 30
0.0
 10
37.2416
 20
15.3972
 30
0.0
 10
37.2416
 20
15.3972
 30
0.0
  0
SPLINE
  5
67
330
1F
100
AcDbEntity
  8
DEFAULT_2
 62
   250
100
AcDbSpline
210
0.0
220
0.0
230
1.0
 70
    24
 71
     3
 72
     8
 73
     4
 74
     0
 42
0.0000000001
 43
0.0000000001
 40
0.0
 40
0.0
 40
0.0
 40
0.0
 40
1.0
 40
1.0
 40
1.0
 40
1.0
 10
37.2416
 20
19.1152
 30
0.0
 10
37.2416
 20
19.1152
 30
0.0
 10
37.2416
 20
22.4613
 30
0.0
 10
37.2416
 20
22.4613
 30
0.0
  0
SPLINE
  5
68
330
1F
100
AcDbEntity
  8
DEFAULT_2
 62
   250
100
AcDbSpline
210
0.0
220
0.0
230
1.0
 70
    24
 71
     3
 72
     8
 73
     4
 74
     0
 42
0.0000000001
 43
0.0000000001
 40
0.0
 40
0.0
 40
0.0
 40
0.0
 40
1.0
 40
1.0
 40
1.0
 40
1.0
 10
39.4723
 20
23.2048
 30
0.0
 10
39.4723
 20
23.2048
 30
0.0
 10
39.4723
 20
23.9484
 30
0.0
 10
39.4723
 20
23.9484
 30
0.0
  0
SPLINE
  5
69
330
1F
100
AcDbEntity
  8
DEFAULT_2
 62
   250
100
AcDbSpline
210
0.0
220
0.0
230
1.0
 70
    24
 71
     3
 72
     8
 73
     4
 74
     0
 42
0.0000000001
 43
0.0000000001
 40
0.0
 40
0.0
 40
0.0
 40
0.0
 40
1.0
 40
1.0
 40
1.0
 40
1.0
 10
37.9852
 20
12.051
 30
0.0
 10
37.9852
 20
12.051
 30
0.0
 10
37.2416
 20
12.051
 30
0.0
 10
37.2416
 20
12.051
 30
0.0
  0
SPLINE
  5
6A
330
1F
100
AcDbEntity
  8
DEFAULT_2
 62
   250
100
AcDbSpline
210
0.0
220
0.0
230
1.0
 70
    24
 71
     3
 72
     8
 73
     4
 74
     0
 42
0.0000000001
 43
0.0000000001
 40
0.0
 40
0.0
 40
0.0
 40
0.0
 40
1.0
 40
1.0
 40
1.0
 40
1.0
 10
37.9852
 20
15.3972
 30
0.0
 10
37.9852
 20
15.3972
 30
0.0
 10
37.2416
 20
15.3972
 30
0.0
 10
37.2416
 20
15.3972
 30
0.0
  0
SPLINE
  5
6B
330
1F
100
AcDbEntity
  8
DEFAULT_2
 62
   250
100
AcDbSpline
210
0.0
220
0.0
230
1.0
 70
    24
 71
     3
 72
     8
 73
     4
 74
     0
 42
0.0000000001
 43
0.0000000001
 40
0.0
 40
0.0
 40
0.0
 40
0.0
 40
1.0
 40
1.0
 40
1.0
 40
1.0
 10
37.9852
 20
19.1152
 30
0.0
 10
37.9852
 20
19.1152
 30
0.0
 10
37.2416
 20
19.1152
 30
0.0
 10
37.2416
 20
19.1152
 30
0.0
  0
SPLINE
  5
6C
330
1F
100
AcDbEntity
  8
DEFAULT_2
 62
   250
100
AcDbSpline
210
0.0
220
0.0
230
1.0
 70
    24
 71
     3
 72
     8
 73
     4
 74
     0
 42
0.0000000001
 43
0.0000000001
 40
0.0
 40
0.0
 40
0.0
 40
0.0
 40
1.0
 40
1.0
 40
1.0
 40
1.0
 10
37.9852
 20
22.4613
 30
0.0
 10
37.9852
 20
22.4613
 30
0.0
 10
37.2416
 20
22.4613
 30
0.0
 10
37.2416
 20
22.4613
 30
0.0
  0
SPLINE
  5
6D
330
1F
100
AcDbEntity
  8
DEFAULT_2
 62
   250
100
AcDbSpline
210
0.0
220
0.0
230
1.0
 70
    24
 71
     3
 72
     8
 73
     4
 74
     0
 42
0.0000000001
 43
0.0000000001
 40
0.0
 40
0.0
 40
0.0
 40
0.0
 40
1.0
 40
1.0
 40
1.0
 40
1.0
 10
26.0877
 20
23.9484
 30
0.0
 10
26.0877
 20
23.9484
 30
0.0
 10
25.3441
 20
23.9484
 30
0.0
 10
25.3441
 20
23.9484
 30
0.0
  0
SPLINE
  5
6E
330
1F
100
AcDbEntity
  8
DEFAULT_2
 62
   250
100
AcDbSpline
210
0.0
220
0.0
230
1.0
 70
    24
 71
     3
 72
     8
 73
     4
 74
     0
 42
0.0000000001
 43
0.0000000001
 40
0.0
 40
0.0
 40
0.0
 40
0.0
 40
1.0
 40
1.0
 40
1.0
 40
1.0
 10
-29.0855
 20
22.833
 30
0.0
 10
-29.0855
 20
22.833
 30
0.0
 10
-29.0855
 20
11.6793
 30
0.0
 10
-29.0855
 20
11.6793
 30
0.0
  0
SPLINE
  5
6F
330
1F
100
AcDbEntity
  8
DEFAULT_2
 62
   250
100
AcDbSpline
210
0.0
220
0.0
230
1.0
 70
    24
 71
     3
 72
     8
 73
     4
 74
     0
 42
0.0000000001
 43
0.0000000001
 40
0.0
 40
0.0
 40
0.0
 40
0.0
 40
1.0
 40
1.0
 40
1.0
 40
1.0
 10
-28.3427
 20
23.8604
 30
0.0
 10
-28.3427
 20
23.8604
 30
0.0
 10
-28.3427
 20
8.9724
 30
0.0
 10
-28.3427
 20
8.9724
 30
0.0
  0
SPLINE
  5
70
330
1F
100
AcDbEntity
  8
DEFAULT_2
 62
   250
100
AcDbSpline
210
0.0
220
0.0
230
1.0
 70
    24
 71
     3
 72
     8
 73
     4
 74
     0
 42
0.0000000001
 43
0.0000000001
 40
0.0
 40
0.0
 40
0.0
 40
0.0
 40
1.0
 40
1.0
 40
1.0
 40
1.0
 10
-6.0344
 20
9.1956
 30
0.0
 10
-6.0344
 20
9.1956
 30
0.0
 10
-6.0344
 20
23.9348
 30
0.0
 10
-6.0344
 20
23.9348
 30
0.0
  0
SPLINE
  5
71
330
1F
100
AcDbEntity
  8
DEFAULT_2
 62
   250
100
AcDbSpline
210
0.0
220
0.0
230
1.0
 70
    24
 71
     3
 72
     8
 73
     4
 74
     0
 42
0.0000000001
 43
0.0000000001
 40
0.0
 40
0.0
 40
0.0
 40
0.0
 40
1.0
 40
1.0
 40
1.0
 40
1.0
 10
-5.2907
 20
11.6793
 30
0.0
 10
-5.2907
 20
11.6793
 30
0.0
 10
-5.2907
 20
22.833
 30
0.0
 10
-5.2907
 20
22.833
 30
0.0
  0
SPLINE
  5
72
330
1F
100
AcDbEntity
  8
DEFAULT_2
 62
   250
100
AcDbSpline
210
0.0
220
0.0
230
1.0
 70
    24
 71
     3
 72
     8
 73
     4
 74
     0
 42
0.0000000001
 43
0.0000000001
 40
0.0
 40
0.0
 40
0.0
 40
0.0
 40
1.0
 40
1.0
 40
1.0
 40
1.0
 10
-6.0344
 20
11.3075
 30
0.0
 10
-6.0344
 20
11.3075
 30
0.0
 10
-28.342
 20
11.3075
 30
0.0
 10
-28.342
 20
11.3075
 30
0.0
  0
SPLINE
  5
73
330
1F
100
AcDbEntity
  8
DEFAULT_2
 62
   250
100
AcDbSpline
210
0.0
220
0.0
230
1.0
 70
    24
 71
     3
 72
     8
 73
     4
 74
     0
 42
0.0000000001
 43
0.0000000001
 40
0.0
 40
0.0
 40
0.0
 40
0.0
 40
1.0
 40
1.0
 40
1.0
 40
1.0
 10
-5.2907
 20
11.6793
 30
0.0
 10
-5.2907
 20
11.6793
 30
0.0
 10
-6.0344
 20
11.6793
 30
0.0
 10
-6.0344
 20
11.6793
 30
0.0
  0
SPLINE
  5
74
330
1F
100
AcDbEntity
  8
DEFAULT_2
 62
   250
100
AcDbSpline
210
0.0
220
0.0
230
1.0
 70
    24
 71
     3
 72
     8
 73
     4
 74
     0
 42
0.0000000001
 43
0.0000000001
 40
0.0
 40
0.0
 40
0.0
 40
0.0
 40
1.0
 40
1.0
 40
1.0
 40
1.0
 10
-28.342
 20
11.6793
 30
0.0
 10
-28.342
 20
11.6793
 30
0.0
 10
-29.0855
 20
11.6793
 30
0.0
 10
-29.0855
 20
11.6793
 30
0.0
  0
SPLINE
  5
75
330
1F
100
AcDbEntity
  8
DEFAULT_2
 62
   250
100
AcDbSpline
210
0.0
220
0.0
230
1.0
 70
    24
 71
     3
 72
     8
 73
     4
 74
     0
 42
0.0000000001
 43
0.0000000001
 40
0.0
 40
0.0
 40
0.0
 40
0.0
 40
1.0
 40
1.0
 40
1.0
 40
1.0
 10
-6.0344
 20
23.9484
 30
0.0
 10
-6.0344
 20
23.9484
 30
0.0
 10
-28.342
 20
23.9484
 30
0.0
 10
-28.342
 20
23.9484
 30
0.0
  0
SPLINE
  5
76
330
1F
100
AcDbEntity
  8
DEFAULT_2
 62
   250
100
AcDbSpline
210
0.0
220
0.0
230
1.0
 70
    24
 71
     3
 72
     8
 73
     4
 74
     0
 42
0.0000000001
 43
0.0000000001
 40
0.0
 40
0.0
 40
0.0
 40
0.0
 40
1.0
 40
1.0
 40
1.0
 40
1.0
 10
37.2416
 20
15.769
 30
0.0
 10
37.2416
 20
15.769
 30
0.0
 10
37.2416
 20
18.7433
 30
0.0
 10
37.2416
 20
18.7433
 30
0.0
  0
SPLINE
  5
77
330
1F
100
AcDbEntity
  8
DEFAULT_2
 62
   250
100
AcDbSpline
210
0.0
220
0.0
230
1.0
 70
    24
 71
     3
 72
     8
 73
     4
 74
     0
 42
0.0000000001
 43
0.0000000001
 40
0.0
 40
0.0
 40
0.0
 40
0.0
 40
1.0
 40
1.0
 40
1.0
 40
1.0
 10
37.9852
 20
22.833
 30
0.0
 10
37.9852
 20
22.833
 30
0.0
 10
37.9852
 20
18.7433
 30
0.0
 10
37.9852
 20
18.7433
 30
0.0
  0
SPLINE
  5
78
330
1F
100
AcDbEntity
  8
DEFAULT_2
 62
   250
100
AcDbSpline
210
0.0
220
0.0
230
1.0
 70
    24
 71
     3
 72
     8
 73
     4
 74
     0
 42
0.0000000001
 43
0.0000000001
 40
0.0
 40
0.0
 40
0.0
 40
0.0
 40
1.0
 40
1.0
 40
1.0
 40
1.0
 10
37.9852
 20
15.769
 30
0.0
 10
37.9852
 20
15.769
 30
0.0
 10
37.9852
 20
11.6793
 30
0.0
 10
37.9852
 20
11.6793
 30
0.0
  0
SPLINE
  5
79
330
1F
100
AcDbEntity
  8
DEFAULT_2
 62
   250
100
AcDbSpline
210
0.0
220
0.0
230
1.0
 70
    24
 71
     3
 72
     8
 73
     4
 74
     0
 42
0.0000000001
 43
0.0000000001
 40
0.0
 40
0.0
 40
0.0
 40
0.0
 40
1.0
 40
1.0
 40
1.0
 40
1.0
 10
37.9852
 20
15.769
 30
0.0
 10
37.9852
 20
15.769
 30
0.0
 10
37.9852
 20
18.7433
 30
0.0
 10
37.9852
 20
18.7433
 30
0.0
  0
SPLINE
  5
7A
330
1F
100
AcDbEntity
  8
DEFAULT_2
 62
   250
100
AcDbSpline
210
0.0
220
0.0
230
1.0
 70
    24
 71
     3
 72
     8
 73
     4
 74
     0
 42
0.0000000001
 43
0.0000000001
 40
0.0
 40
0.0
 40
0.0
 40
0.0
 40
1.0
 40
1.0
 40
1.0
 40
1.0
 10
44.6774
 20
22.833
 30
0.0
 10
44.6774
 20
22.833
 30
0.0
 10
44.6774
 20
11.6793
 30
0.0
 10
44.6774
 20
11.6793
 30
0.0
  0
SPLINE
  5
7B
330
1F
100
AcDbEntity
  8
DEFAULT_2
 62
   250
100
AcDbSpline
210
0.0
220
0.0
230
1.0
 70
    24
 71
     3
 72
     8
 73
     4
 74
     0
 42
0.0000000001
 43
0.0000000001
 40
0.0
 40
0.0
 40
0.0
 40
0.0
 40
1.0
 40
1.0
 40
1.0
 40
1.0
 10
45.421
 20
23.2048
 30
0.0
 10
45.421
 20
23.2048
 30
0.0
 10
45.421
 20
11.3075
 30
0.0
 10
45.421
 20
11.3075
 30
0.0
  0
SPLINE
  5
7C
330
1F
100
AcDbEntity
  8
DEFAULT_2
 62
   250
100
AcDbSpline
210
0.0
220
0.0
230
1.0
 70
    24
 71
     3
 72
     8
 73
     4
 74
     0
 42
0.0000000001
 43
0.0000000001
 40
0.0
 40
0.0
 40
0.0
 40
0.0
 40
1.0
 40
1.0
 40
1.0
 40
1.0
 10
44.6774
 20
10.5639
 30
0.0
 10
44.6774
 20
10.5639
 30
0.0
 10
37.6134
 20
10.5639
 30
0.0
 10
37.6134
 20
10.5639
 30
0.0
  0
SPLINE
  5
7D
330
1F
100
AcDbEntity
  8
DEFAULT_2
 62
   250
100
AcDbSpline
210
0.0
220
0.0
230
1.0
 70
    24
 71
     3
 72
     8
 73
     4
 74
     0
 42
0.0000000001
 43
0.0000000001
 40
0.0
 40
0.0
 40
0.0
 40
0.0
 40
1.0
 40
1.0
 40
1.0
 40
1.0
 10
37.6134
 20
11.3075
 30
0.0
 10
37.6134
 20
11.3075
 30
0.0
 10
44.3056
 20
11.3075
 30
0.0
 10
44.3056
 20
11.3075
 30
0.0
  0
SPLINE
  5
7E
330
1F
100
AcDbEntity
  8
DEFAULT_2
 62
   250
100
AcDbSpline
210
0.0
220
0.0
230
1.0
 70
    24
 71
     3
 72
     8
 73
     4
 74
     0
 42
0.0000000001
 43
0.0000000001
 40
0.0
 40
0.0
 40
0.0
 40
0.0
 40
1.0
 40
1.0
 40
1.0
 40
1.0
 10
44.5183
 20
11.6793
 30
0.0
 10
44.5183
 20
11.6793
 30
0.0
 10
37.9852
 20
11.6793
 30
0.0
 10
37.9852
 20
11.6793
 30
0.0
  0
SPLINE
  5
7F
330
1F
100
AcDbEntity
  8
DEFAULT_2
 62
   250
100
AcDbSpline
210
0.0
220
0.0
230
1.0
 70
    24
 71
     3
 72
     8
 73
     4
 74
     0
 42
0.0000000001
 43
0.0000000001
 40
0.0
 40
0.0
 40
0.0
 40
0.0
 40
1.0
 40
1.0
 40
1.0
 40
1.0
 10
37.9852
 20
15.769
 30
0.0
 10
37.9852
 20
15.769
 30
0.0
 10
37.2416
 20
15.769
 30
0.0
 10
37.2416
 20
15.769
 30
0.0
  0
SPLINE
  5
80
330
1F
100
AcDbEntity
  8
DEFAULT_2
 62
   250
100
AcDbSpline
210
0.0
220
0.0
230
1.0
 70
    24
 71
     3
 72
     8
 73
     4
 74
     0
 42
0.0000000001
 43
0.0000000001
 40
0.0
 40
0.0
 40
0.0
 40
0.0
 40
1.0
 40
1.0
 40
1.0
 40
1.0
 10
37.2416
 20
18.7433
 30
0.0
 10
37.2416
 20
18.7433
 30
0.0
 10
37.9852
 20
18.7433
 30
0.0
 10
37.9852
 20
18.7433
 30
0.0
  0
SPLINE
  5
81
330
1F
100
AcDbEntity
  8
DEFAULT_2
 62
   250
100
AcDbSpline
210
0.0
220
0.0
230
1.0
 70
    24
 71
     3
 72
     8
 73
     4
 74
     0
 42
0.0000000001
 43
0.0000000001
 40
0.0
 40
0.0
 40
0.0
 40
0.0
 40
1.0
 40
1.0
 40
1.0
 40
1.0
 10
37.9852
 20
22.833
 30
0.0
 10
37.9852
 20
22.833
 30
0.0
 10
44.7081
 20
22.833
 30
0.0
 10
44.7081
 20
22.833
 30
0.0
  0
SPLINE
  5
82
330
1F
100
AcDbEntity
  8
DEFAULT_2
 62
   250
100
AcDbSpline
210
0.0
220
0.0
230
1.0
 70
    24
 71
     3
 72
     8
 73
     4
 74
     0
 42
0.0000000001
 43
0.0000000001
 40
0.0
 40
0.0
 40
0.0
 40
0.0
 40
1.0
 40
1.0
 40
1.0
 40
1.0
 10
44.3056
 20
23.2048
 30
0.0
 10
44.3056
 20
23.2048
 30
0.0
 10
39.4723
 20
23.2048
 30
0.0
 10
39.4723
 20
23.2048
 30
0.0
  0
SPLINE
  5
83
330
1F
100
AcDbEntity
  8
DEFAULT_2
 62
   250
100
AcDbSpline
210
0.0
220
0.0
230
1.0
 70
    24
 71
     3
 72
     8
 73
     4
 74
     0
 42
0.0000000001
 43
0.0000000001
 40
0.0
 40
0.0
 40
0.0
 40
0.0
 40
1.0
 40
1.0
 40
1.0
 40
1.0
 10
39.4723
 20
23.9484
 30
0.0
 10
39.4723
 20
23.9484
 30
0.0
 10
44.6774
 20
23.9484
 30
0.0
 10
44.6774
 20
23.9484
 30
0.0
  0
SPLINE
  5
84
330
1F
100
AcDbEntity
  8
DEFAULT_2
 62
   250
100
AcDbSpline
210
0.0
220
0.0
230
1.0
 70
     8
 71
     3
 72
     8
 73
     4
 74
     0
 42
0.0000000001
 43
0.0000000001
 40
0.0
 40
0.0
 40
0.0
 40
0.0
 40
1.0
 40
1.0
 40
1.0
 40
1.0
 10
37.6134
 20
11.3075
 30
0.0
 10
36.9974
 20
11.3075
 30
0.0
 10
36.498
 20
10.8081
 30
0.0
 10
36.498
 20
10.1921
 30
0.0
  0
SPLINE
  5
85
330
1F
100
AcDbEntity
  8
DEFAULT_2
 62
   250
100
AcDbSpline
210
0.0
220
0.0
230
1.0
 70
     8
 71
     3
 72
     8
 73
     4
 74
     0
 42
0.0000000001
 43
0.0000000001
 40
0.0
 40
0.0
 40
0.0
 40
0.0
 40
1.0
 40
1.0
 40
1.0
 40
1.0
 10
45.421
 20
23.2048
 30
0.0
 10
45.421
 20
23.6155
 30
0.0
 10
45.0881
 20
23.9484
 30
0.0
 10
44.6774
 20
23.9484
 30
0.0
  0
SPLINE
  5
86
330
1F
100
AcDbEntity
  8
DEFAULT_2
 62
   250
100
AcDbSpline
210
0.0
220
0.0
230
1.0
 70
     8
 71
     3
 72
     8
 73
     4
 74
     0
 42
0.0000000001
 43
0.0000000001
 40
0.0
 40
0.0
 40
0.0
 40
0.0
 40
1.0
 40
1.0
 40
1.0
 40
1.0
 10
44.6774
 20
10.5639
 30
0.0
 10
45.0881
 20
10.5639
 30
0.0
 10
45.421
 20
10.8968
 30
0.0
 10
45.421
 20
11.3075
 30
0.0
  0
SPLINE
  5
87
330
1F
100
AcDbEntity
  8
DEFAULT_2
 62
   250
100
AcDbSpline
210
0.0
220
0.0
230
1.0
 70
     8
 71
     3
 72
     8
 73
     4
 74
     0
 42
0.0000000001
 43
0.0000000001
 40
0.0
 40
0.0
 40
0.0
 40
0.0
 40
1.0
 40
1.0
 40
1.0
 40
1.0
 10
37.6134
 20
10.5639
 30
0.0
 10
37.408
 20
10.5639
 30
0.0
 10
37.2416
 20
10.3974
 30
0.0
 10
37.2416
 20
10.1921
 30
0.0
  0
SPLINE
  5
88
330
1F
100
AcDbEntity
  8
DEFAULT_2
 62
   250
100
AcDbSpline
210
0.0
220
0.0
230
1.0
 70
     8
 71
     3
 72
     8
 73
     4
 74
     0
 42
0.0000000001
 43
0.0000000001
 40
0.0
 40
0.0
 40
0.0
 40
0.0
 40
1.0
 40
1.0
 40
1.0
 40
1.0
 10
44.3056
 20
11.3075
 30
0.0
 10
44.511
 20
11.3075
 30
0.0
 10
44.6774
 20
11.474
 30
0.0
 10
44.6774
 20
11.6793
 30
0.0
  0
SPLINE
  5
89
330
1F
100
AcDbEntity
  8
DEFAULT_2
 62
   250
100
AcDbSpline
210
0.0
220
0.0
230
1.0
 70
     8
 71
     3
 72
     8
 73
     4
 74
     0
 42
0.0000000001
 43
0.0000000001
 40
0.0
 40
0.0
 40
0.0
 40
0.0
 40
1.0
 40
1.0
 40
1.0
 40
1.0
 10
44.6774
 20
22.833
 30
0.0
 10
44.6774
 20
23.0385
 30
0.0
 10
44.511
 20
23.2048
 30
0.0
 10
44.3056
 20
23.2048
 30
0.0
  0
SPLINE
  5
8A
330
1F
100
AcDbEntity
  8
DEFAULT_2
 62
   250
100
AcDbSpline
210
0.0
220
0.0
230
1.0
 70
    24
 71
     3
 72
     8
 73
     4
 74
     0
 42
0.0000000001
 43
0.0000000001
 40
0.0
 40
0.0
 40
0.0
 40
0.0
 40
1.0
 40
1.0
 40
1.0
 40
1.0
 10
36.498
 20
-20.2949
 30
0.0
 10
36.498
 20
-20.2949
 30
0.0
 10
36.498
 20
-16.5769
 30
0.0
 10
36.498
 20
-16.5769
 30
0.0
  0
SPLINE
  5
8B
330
1F
100
AcDbEntity
  8
DEFAULT_2
 62
   250
100
AcDbSpline
210
0.0
220
0.0
230
1.0
 70
    24
 71
     3
 72
     8
 73
     4
 74
     0
 42
0.0000000001
 43
0.0000000001
 40
0.0
 40
0.0
 40
0.0
 40
0.0
 40
1.0
 40
1.0
 40
1.0
 40
1.0
 10
37.2416
 20
-20.2949
 30
0.0
 10
37.2416
 20
-20.2949
 30
0.0
 10
37.2416
 20
-16.5769
 30
0.0
 10
37.2416
 20
-16.5769
 30
0.0
  0
SPLINE
  5
8C
330
1F
100
AcDbEntity
  8
DEFAULT_2
 62
   250
100
AcDbSpline
210
0.0
220
0.0
230
1.0
 70
    11
 71
     3
 72
    20
 73
    16
 74
     0
 42
0.0000000001
 43
0.0000000001
 40
0.0
 40
0.0
 40
0.0
 40
0.0
 40
0.2
 40
0.2
 40
0.2
 40
0.2
 40
0.4
 40
0.4
 40
0.4
 40
0.4
 40
0.6
 40
0.6
 40
0.6
 40
0.6
 40
1.0
 40
1.0
 40
1.0
 40
1.0
 10
-28.342
 20
-18.4359
 30
0.0
 10
-28.342
 20
-17.4093
 30
0.0
 10
-29.1742
 20
-16.5769
 30
0.0
 10
-30.2009
 20
-16.5769
 30
0.0
 10
-30.2009
 20
-16.5769
 30
0.0
 10
-31.2275
 20
-16.5769
 30
0.0
 10
-32.0599
 20
-17.4093
 30
0.0
 10
-32.0599
 20
-18.4359
 30
0.0
 10
-32.0599
 20
-18.4359
 30
0.0
 10
-32.0599
 20
-19.4626
 30
0.0
 10
-31.2275
 20
-20.2949
 30
0.0
 10
-30.2009
 20
-20.2949
 30
0.0
 10
-30.2009
 20
-20.2949
 30
0.0
 10
-29.1742
 20
-20.2949
 30
0.0
 10
-28.342
 20
-19.4626
 30
0.0
 10
-28.342
 20
-18.4359
 30
0.0
  0
SPLINE
  5
8D
330
1F
100
AcDbEntity
  8
DEFAULT_2
 62
   250
100
AcDbSpline
210
0.0
220
0.0
230
1.0
 70
    11
 71
     3
 72
    20
 73
    16
 74
     0
 42
0.0000000001
 43
0.0000000001
 40
0.0
 40
0.0
 40
0.0
 40
0.0
 40
0.2
 40
0.2
 40
0.2
 40
0.2
 40
0.4
 40
0.4
 40
0.4
 40
0.4
 40
0.6
 40
0.6
 40
0.6
 40
0.6
 40
1.0
 40
1.0
 40
1.0
 40
1.0
 10
-2.3164
 20
-18.4359
 30
0.0
 10
-2.3164
 20
-17.4093
 30
0.0
 10
-3.1487
 20
-16.5769
 30
0.0
 10
-4.1754
 20
-16.5769
 30
0.0
 10
-4.1754
 20
-16.5769
 30
0.0
 10
-5.202
 20
-16.5769
 30
0.0
 10
-6.0344
 20
-17.4093
 30
0.0
 10
-6.0344
 20
-18.4359
 30
0.0
 10
-6.0344
 20
-18.4359
 30
0.0
 10
-6.0344
 20
-19.4626
 30
0.0
 10
-5.202
 20
-20.2949
 30
0.0
 10
-4.1754
 20
-20.2949
 30
0.0
 10
-4.1754
 20
-20.2949
 30
0.0
 10
-3.1487
 20
-20.2949
 30
0.0
 10
-2.3164
 20
-19.4626
 30
0.0
 10
-2.3164
 20
-18.4359
 30
0.0
  0
SPLINE
  5
8E
330
1F
100
AcDbEntity
  8
DEFAULT_2
 62
   250
100
AcDbSpline
210
0.0
220
0.0
230
1.0
 70
    11
 71
     3
 72
    20
 73
    16
 74
     0
 42
0.0000000001
 43
0.0000000001
 40
0.0
 40
0.0
 40
0.0
 40
0.0
 40
0.2
 40
0.2
 40
0.2
 40
0.2
 40
0.4
 40
0.4
 40
0.4
 40
0.4
 40
0.6
 40
0.6
 40
0.6
 40
0.6
 40
1.0
 40
1.0
 40
1.0
 40
1.0
 10
-28.342
 20
-8.0257
 30
0.0
 10
-28.342
 20
-6.9991
 30
0.0
 10
-29.1742
 20
-6.1669
 30
0.0
 10
-30.2009
 20
-6.1669
 30
0.0
 10
-30.2009
 20
-6.1669
 30
0.0
 10
-31.2275
 20
-6.1669
 30
0.0
 10
-32.0599
 20
-6.9991
 30
0.0
 10
-32.0599
 20
-8.0257
 30
0.0
 10
-32.0599
 20
-8.0257
 30
0.0
 10
-32.0599
 20
-9.0524
 30
0.0
 10
-31.2275
 20
-9.8847
 30
0.0
 10
-30.2009
 20
-9.8847
 30
0.0
 10
-30.2009
 20
-9.8847
 30
0.0
 10
-29.1742
 20
-9.8847
 30
0.0
 10
-28.342
 20
-9.0524
 30
0.0
 10
-28.342
 20
-8.0257
 30
0.0
  0
SPLINE
  5
8F
330
1F
100
AcDbEntity
  8
DEFAULT_2
 62
   250
100
AcDbSpline
210
0.0
220
0.0
230
1.0
 70
    11
 71
     3
 72
    20
 73
    16
 74
     0
 42
0.0000000001
 43
0.0000000001
 40
0.0
 40
0.0
 40
0.0
 40
0.0
 40
0.2
 40
0.2
 40
0.2
 40
0.2
 40
0.4
 40
0.4
 40
0.4
 40
0.4
 40
0.6
 40
0.6
 40
0.6
 40
0.6
 40
1.0
 40
1.0
 40
1.0
 40
1.0
 10
-2.3164
 20
-8.0257
 30
0.0
 10
-2.3164
 20
-6.9991
 30
0.0
 10
-3.1487
 20
-6.1669
 30
0.0
 10
-4.1754
 20
-6.1669
 30
0.0
 10
-4.1754
 20
-6.1669
 30
0.0
 10
-5.202
 20
-6.1669
 30
0.0
 10
-6.0344
 20
-6.9991
 30
0.0
 10
-6.0344
 20
-8.0257
 30
0.0
 10
-6.0344
 20
-8.0257
 30
0.0
 10
-6.0344
 20
-9.0524
 30
0.0
 10
-5.202
 20
-9.8847
 30
0.0
 10
-4.1754
 20
-9.8847
 30
0.0
 10
-4.1754
 20
-9.8847
 30
0.0
 10
-3.1487
 20
-9.8847
 30
0.0
 10
-2.3164
 20
-9.0524
 30
0.0
 10
-2.3164
 20
-8.0257
 30
0.0
  0
SPLINE
  5
90
330
1F
100
AcDbEntity
  8
DEFAULT_2
 62
   250
100
AcDbSpline
210
0.0
220
0.0
230
1.0
 70
    11
 71
     3
 72
    20
 73
    16
 74
     0
 42
0.0000000001
 43
0.0000000001
 40
0.0
 40
0.0
 40
0.0
 40
0.0
 40
0.2
 40
0.2
 40
0.2
 40
0.2
 40
0.4
 40
0.4
 40
0.4
 40
0.4
 40
0.6
 40
0.6
 40
0.6
 40
0.6
 40
1.0
 40
1.0
 40
1.0
 40
1.0
 10
-28.342
 20
2.3844
 30
0.0
 10
-28.342
 20
3.4111
 30
0.0
 10
-29.1742
 20
4.2433
 30
0.0
 10
-30.2009
 20
4.2433
 30
0.0
 10
-30.2009
 20
4.2433
 30
0.0
 10
-31.2275
 20
4.2433
 30
0.0
 10
-32.0599
 20
3.4111
 30
0.0
 10
-32.0599
 20
2.3844
 30
0.0
 10
-32.0599
 20
2.3844
 30
0.0
 10
-32.0599
 20
1.3578
 30
0.0
 10
-31.2275
 20
0.5255
 30
0.0
 10
-30.2009
 20
0.5255
 30
0.0
 10
-30.2009
 20
0.5255
 30
0.0
 10
-29.1742
 20
0.5255
 30
0.0
 10
-28.342
 20
1.3578
 30
0.0
 10
-28.342
 20
2.3844
 30
0.0
  0
SPLINE
  5
91
330
1F
100
AcDbEntity
  8
DEFAULT_2
 62
   250
100
AcDbSpline
210
0.0
220
0.0
230
1.0
 70
    11
 71
     3
 72
    20
 73
    16
 74
     0
 42
0.0000000001
 43
0.0000000001
 40
0.0
 40
0.0
 40
0.0
 40
0.0
 40
0.2
 40
0.2
 40
0.2
 40
0.2
 40
0.4
 40
0.4
 40
0.4
 40
0.4
 40
0.6
 40
0.6
 40
0.6
 40
0.6
 40
1.0
 40
1.0
 40
1.0
 40
1.0
 10
-2.3164
 20
2.3844
 30
0.0
 10
-2.3164
 20
3.4111
 30
0.0
 10
-3.1487
 20
4.2433
 30
0.0
 10
-4.1754
 20
4.2433
 30
0.0
 10
-4.1754
 20
4.2433
 30
0.0
 10
-5.202
 20
4.2433
 30
0.0
 10
-6.0344
 20
3.4111
 30
0.0
 10
-6.0344
 20
2.3844
 30
0.0
 10
-6.0344
 20
2.3844
 30
0.0
 10
-6.0344
 20
1.3578
 30
0.0
 10
-5.202
 20
0.5255
 30
0.0
 10
-4.1754
 20
0.5255
 30
0.0
 10
-4.1754
 20
0.5255
 30
0.0
 10
-3.1487
 20
0.5255
 30
0.0
 10
-2.3164
 20
1.3578
 30
0.0
 10
-2.3164
 20
2.3844
 30
0.0
  0
SPLINE
  5
92
330
1F
100
AcDbEntity
  8
DEFAULT_2
 62
   250
100
AcDbSpline
210
0.0
220
0.0
230
1.0
 70
    11
 71
     3
 72
    20
 73
    16
 74
     0
 42
0.0000000001
 43
0.0000000001
 40
0.0
 40
0.0
 40
0.0
 40
0.0
 40
0.2
 40
0.2
 40
0.2
 40
0.2
 40
0.4
 40
0.4
 40
0.4
 40
0.4
 40
0.6
 40
0.6
 40
0.6
 40
0.6
 40
1.0
 40
1.0
 40
1.0
 40
1.0
 10
-15.3293
 20
-12.4873
 30
0.0
 10
-15.3293
 20
-11.4606
 30
0.0
 10
-16.1615
 20
-10.6282
 30
0.0
 10
-17.1882
 20
-10.6282
 30
0.0
 10
-17.1882
 20
-10.6282
 30
0.0
 10
-18.2148
 20
-10.6282
 30
0.0
 10
-19.0471
 20
-11.4606
 30
0.0
 10
-19.0471
 20
-12.4873
 30
0.0
 10
-19.0471
 20
-12.4873
 30
0.0
 10
-19.0471
 20
-13.5139
 30
0.0
 10
-18.2148
 20
-14.3462
 30
0.0
 10
-17.1882
 20
-14.3462
 30
0.0
 10
-17.1882
 20
-14.3462
 30
0.0
 10
-16.1615
 20
-14.3462
 30
0.0
 10
-15.3293
 20
-13.5139
 30
0.0
 10
-15.3293
 20
-12.4873
 30
0.0
  0
SPLINE
  5
93
330
1F
100
AcDbEntity
  8
DEFAULT_2
 62
   250
100
AcDbSpline
210
0.0
220
0.0
230
1.0
 70
    11
 71
     3
 72
    20
 73
    16
 74
     0
 42
0.0000000001
 43
0.0000000001
 40
0.0
 40
0.0
 40
0.0
 40
0.0
 40
0.2
 40
0.2
 40
0.2
 40
0.2
 40
0.4
 40
0.4
 40
0.4
 40
0.4
 40
0.6
 40
0.6
 40
0.6
 40
0.6
 40
1.0
 40
1.0
 40
1.0
 40
1.0
 10
-15.3293
 20
-2.0771
 30
0.0
 10
-15.3293
 20
-1.0505
 30
0.0
 10
-16.1615
 20
-0.2181
 30
0.0
 10
-17.1882
 20
-0.2181
 30
0.0
 10
-17.1882
 20
-0.2181
 30
0.0
 10
-18.2148
 20
-0.2181
 30
0.0
 10
-19.0471
 20
-1.0505
 30
0.0
 10
-19.0471
 20
-2.0771
 30
0.0
 10
-19.0471
 20
-2.0771
 30
0.0
 10
-19.0471
 20
-3.1038
 30
0.0
 10
-18.2148
 20
-3.936
 30
0.0
 10
-17.1882
 20
-3.936
 30
0.0
 10
-17.1882
 20
-3.936
 30
0.0
 10
-16.1615
 20
-3.936
 30
0.0
 10
-15.3293
 20
-3.1038
 30
0.0
 10
-15.3293
 20
-2.0771
 30
0.0
  0
SPLINE
  5
94
330
1F
100
AcDbEntity
  8
DEFAULT_2
 62
   250
100
AcDbSpline
210
0.0
220
0.0
230
1.0
 70
    24
 71
     3
 72
     8
 73
     4
 74
     0
 42
0.0000000001
 43
0.0000000001
 40
0.0
 40
0.0
 40
0.0
 40
0.0
 40
1.0
 40
1.0
 40
1.0
 40
1.0
 10
37.2416
 20
15.769
 30
0.0
 10
37.2416
 20
15.769
 30
0.0
 10
37.2416
 20
18.7433
 30
0.0
 10
37.2416
 20
18.7433
 30
0.0
  0
SPLINE
  5
95
330
1F
100
AcDbEntity
  8
DEFAULT_2
 62
   250
100
AcDbSpline
210
0.0
220
0.0
230
1.0
 70
    24
 71
     3
 72
     8
 73
     4
 74
     0
 42
0.0000000001
 43
0.0000000001
 40
0.0
 40
0.0
 40
0.0
 40
0.0
 40
1.0
 40
1.0
 40
1.0
 40
1.0
 10
37.9852
 20
15.769
 30
0.0
 10
37.9852
 20
15.769
 30
0.0
 10
37.9852
 20
18.7433
 30
0.0
 10
37.9852
 20
18.7433
 30
0.0
  0
SPLINE
  5
96
330
1F
100
AcDbEntity
  8
DEFAULT_2
 62
   250
100
AcDbSpline
210
0.0
220
0.0
230
1.0
 70
    24
 71
     3
 72
     8
 73
     4
 74
     0
 42
0.0000000001
 43
0.0000000001
 40
0.0
 40
0.0
 40
0.0
 40
0.0
 40
1.0
 40
1.0
 40
1.0
 40
1.0
 10
44.6774
 20
11.6793
 30
0.0
 10
44.6774
 20
11.6793
 30
0.0
 10
44.6774
 20
22.833
 30
0.0
 10
44.6774
 20
22.833
 30
0.0
  0
SPLINE
  5
97
330
1F
100
AcDbEntity
  8
DEFAULT_2
 62
   250
100
AcDbSpline
210
0.0
220
0.0
230
1.0
 70
    24
 71
     3
 72
     8
 73
     4
 74
     0
 42
0.0000000001
 43
0.0000000001
 40
0.0
 40
0.0
 40
0.0
 40
0.0
 40
1.0
 40
1.0
 40
1.0
 40
1.0
 10
44.6774
 20
11.6793
 30
0.0
 10
44.6774
 20
11.6793
 30
0.0
 10
38.1339
 20
11.6793
 30
0.0
 10
38.1339
 20
11.6793
 30
0.0
  0
SPLINE
  5
98
330
1F
100
AcDbEntity
  8
DEFAULT_2
 62
   250
100
AcDbSpline
210
0.0
220
0.0
230
1.0
 70
    24
 71
     3
 72
     8
 73
     4
 74
     0
 42
0.0000000001
 43
0.0000000001
 40
0.0
 40
0.0
 40
0.0
 40
0.0
 40
1.0
 40
1.0
 40
1.0
 40
1.0
 10
37.9852
 20
15.769
 30
0.0
 10
37.9852
 20
15.769
 30
0.0
 10
37.2416
 20
15.769
 30
0.0
 10
37.2416
 20
15.769
 30
0.0
  0
SPLINE
  5
99
330
1F
100
AcDbEntity
  8
DEFAULT_2
 62
   250
100
AcDbSpline
210
0.0
220
0.0
230
1.0
 70
    24
 71
     3
 72
     8
 73
     4
 74
     0
 42
0.0000000001
 43
0.0000000001
 40
0.0
 40
0.0
 40
0.0
 40
0.0
 40
1.0
 40
1.0
 40
1.0
 40
1.0
 10
37.9852
 20
18.7433
 30
0.0
 10
37.9852
 20
18.7433
 30
0.0
 10
37.2416
 20
18.7433
 30
0.0
 10
37.2416
 20
18.7433
 30
0.0
  0
SPLINE
  5
9A
330
1F
100
AcDbEntity
  8
DEFAULT_2
 62
   250
100
AcDbSpline
210
0.0
220
0.0
230
1.0
 70
    11
 71
     3
 72
    92
 73
    88
 74
     0
 42
0.0000000001
 43
0.0000000001
 40
0.0
 40
0.0
 40
0.0
 40
0.0
 40
0.0434782608695652
 40
0.0434782608695652
 40
0.0434782608695652
 40
0.0434782608695652
 40
0.0869565217391304
 40
0.0869565217391304
 40
0.0869565217391304
 40
0.0869565217391304
 40
0.1304347826086956
 40
0.1304347826086956
 40
0.1304347826086956
 40
0.1304347826086956
 40
0.1739130434782609
 40
0.1739130434782609
 40
0.1739130434782609
 40
0.1739130434782609
 40
0.2173913043478261
 40
0.2173913043478261
 40
0.2173913043478261
 40
0.2173913043478261
 40
0.2608695652173913
 40
0.2608695652173913
 40
0.2608695652173913
 40
0.2608695652173913
 40
0.3043478260869565
 40
0.3043478260869565
 40
0.3043478260869565
 40
0.3043478260869565
 40
0.3478260869565217
 40
0.3478260869565217
 40
0.3478260869565217
 40
0.3478260869565217
 40
0.391304347826087
 40
0.391304347826087
 40
0.391304347826087
 40
0.391304347826087
 40
0.4347826086956522
 40
0.4347826086956522
 40
0.4347826086956522
 40
0.4347826086956522
 40
0.4782608695652174
 40
0.4782608695652174
 40
0.4782608695652174
 40
0.4782608695652174
 40
0.5217391304347826
 40
0.5217391304347826
 40
0.5217391304347826
 40
0.5217391304347826
 40
0.5652173913043478
 40
0.5652173913043478
 40
0.5652173913043478
 40
0.5652173913043478
 40
0.6086956521739131
 40
0.6086956521739131
 40
0.6086956521739131
 40
0.6086956521739131
 40
0.6521739130434783
 40
0.6521739130434783
 40
0.6521739130434783
 40
0.6521739130434783
 40
0.6956521739130435
 40
0.6956521739130435
 40
0.6956521739130435
 40
0.6956521739130435
 40
0.7391304347826086
 40
0.7391304347826086
 40
0.7391304347826086
 40
0.7391304347826086
 40
0.782608695652174
 40
0.782608695652174
 40
0.782608695652174
 40
0.782608695652174
 40
0.8260869565217391
 40
0.8260869565217391
 40
0.8260869565217391
 40
0.8260869565217391
 40
0.8695652173913043
 40
0.8695652173913043
 40
0.8695652173913043
 40
0.8695652173913043
 40
0.9130434782608695
 40
0.9130434782608695
 40
0.9130434782608695
 40
0.9130434782608695
 40
1.0
 40
1.0
 40
1.0
 40
1.0
 10
-19.8901
 20
-30.3255
 30
0.0
 10
-19.8901
 20
-30.3255
 30
0.0
 10
-19.5334
 20
-30.2953
 30
0.0
 10
-19.5334
 20
-30.2953
 30
0.0
 10
-19.5334
 20
-30.2953
 30
0.0
 10
-19.507
 20
-30.4691
 30
0.0
 10
-19.4458
 20
-30.5992
 30
0.0
 10
-19.3498
 20
-30.6868
 30
0.0
 10
-19.3498
 20
-30.6868
 30
0.0
 10
-19.2533
 20
-30.7744
 30
0.0
 10
-19.1373
 20
-30.8182
 30
0.0
 10
-19.0015
 20
-30.8182
 30
0.0
 10
-19.0015
 20
-30.8182
 30
0.0
 10
-18.8379
 20
-30.8182
 30
0.0
 10
-18.6995
 20
-30.7563
 30
0.0
 10
-18.5869
 20
-30.6334
 30
0.0
 10
-18.5869
 20
-30.6334
 30
0.0
 10
-18.4735
 20
-30.5098
 30
0.0
 10
-18.4168
 20
-30.3462
 30
0.0
 10
-18.4168
 20
-30.1428
 30
0.0
 10
-18.4168
 20
-30.1428
 30
0.0
 10
-18.4168
 20
-29.9489
 30
0.0
 10
-18.4709
 20
-29.7963
 30
0.0
 10
-18.5797
 20
-29.6843
 30
0.0
 10
-18.5797
 20
-29.6843
 30
0.0
 10
-18.6886
 20
-29.5722
 30
0.0
 10
-18.8308
 20
-29.5162
 30
0.0
 10
-19.0073
 20
-29.5162
 30
0.0
 10
-19.0073
 20
-29.5162
 30
0.0
 10
-19.1168
 20
-29.5162
 30
0.0
 10
-19.2152
 20
-29.5412
 30
0.0
 10
-19.3035
 20
-29.5908
 30
0.0
 10
-19.3035
 20
-29.5908
 30
0.0
 10
-19.3917
 20
-29.6405
 30
0.0
 10
-19.4605
 20
-29.7048
 30
0.0
 10
-19.5108
 20
-29.7841
 30
0.0
 10
-19.5108
 20
-29.7841
 30
0.0
 10
-19.5108
 20
-29.7841
 30
0.0
 10
-19.8296
 20
-29.7429
 30
0.0
 10
-19.8296
 20
-29.7429
 30
0.0
 10
-19.8296
 20
-29.7429
 30
0.0
 10
-19.8296
 20
-29.7429
 30
0.0
 10
-19.5617
 20
-28.3223
 30
0.0
 10
-19.5617
 20
-28.3223
 30
0.0
 10
-19.5617
 20
-28.3223
 30
0.0
 10
-19.5617
 20
-28.3223
 30
0.0
 10
-18.1863
 20
-28.3223
 30
0.0
 10
-18.1863
 20
-28.3223
 30
0.0
 10
-18.1863
 20
-28.3223
 30
0.0
 10
-18.1863
 20
-28.3223
 30
0.0
 10
-18.1863
 20
-28.6469
 30
0.0
 10
-18.1863
 20
-28.6469
 30
0.0
 10
-18.1863
 20
-28.6469
 30
0.0
 10
-18.1863
 20
-28.6469
 30
0.0
 10
-19.29
 20
-28.6469
 30
0.0
 10
-19.29
 20
-28.6469
 30
0.0
 10
-19.29
 20
-28.6469
 30
0.0
 10
-19.29
 20
-28.6469
 30
0.0
 10
-19.4393
 20
-29.39
 30
0.0
 10
-19.4393
 20
-29.39
 30
0.0
 10
-19.4393
 20
-29.39
 30
0.0
 10
-19.2733
 20
-29.274
 30
0.0
 10
-19.0987
 20
-29.2161
 30
0.0
 10
-18.9165
 20
-29.2161
 30
0.0
 10
-18.9165
 20
-29.2161
 30
0.0
 10
-18.675
 20
-29.2161
 30
0.0
 10
-18.4716
 20
-29.2998
 30
0.0
 10
-18.3054
 20
-29.4672
 30
0.0
 10
-18.3054
 20
-29.4672
 30
0.0
 10
-18.1393
 20
-29.6346
 30
0.0
 10
-18.0563
 20
-29.8497
 30
0.0
 10
-18.0563
 20
-30.1124
 30
0.0
 10
-18.0563
 20
-30.1124
 30
0.0
 10
-18.0563
 20
-30.3629
 30
0.0
 10
-18.1296
 20
-30.5793
 30
0.0
 10
-18.2752
 20
-30.7615
 30
0.0
 10
-18.2752
 20
-30.7615
 30
0.0
 10
-18.4528
 20
-30.985
 30
0.0
 10
-18.695
 20
-31.0969
 30
0.0
 10
-19.0015
 20
-31.0969
 30
0.0
 10
-19.0015
 20
-31.0969
 30
0.0
 10
-19.2533
 20
-31.0969
 30
0.0
 10
-19.4586
 20
-31.0269
 30
0.0
 10
-19.6177
 20
-30.8858
 30
0.0
 10
-19.6177
 20
-30.8858
 30
0.0
 10
-19.7768
 20
-30.7447
 30
0.0
 10
-19.8675
 20
-30.558
 30
0.0
 10
-19.8901
 20
-30.3255
 30
0.0
  0
SPLINE
  5
9B
330
1F
100
AcDbEntity
  8
DEFAULT_2
 62
   250
100
AcDbSpline
210
0.0
220
0.0
230
1.0
 70
    11
 71
     3
 72
    48
 73
    44
 74
     0
 42
0.0000000001
 43
0.0000000001
 40
0.0
 40
0.0
 40
0.0
 40
0.0
 40
0.0833333333333333
 40
0.0833333333333333
 40
0.0833333333333333
 40
0.0833333333333333
 40
0.1666666666666667
 40
0.1666666666666667
 40
0.1666666666666667
 40
0.1666666666666667
 40
0.25
 40
0.25
 40
0.25
 40
0.25
 40
0.3333333333333333
 40
0.3333333333333333
 40
0.3333333333333333
 40
0.3333333333333333
 40
0.4166666666666667
 40
0.4166666666666667
 40
0.4166666666666667
 40
0.4166666666666667
 40
0.5
 40
0.5
 40
0.5
 40
0.5
 40
0.5833333333333334
 40
0.5833333333333334
 40
0.5833333333333334
 40
0.5833333333333334
 40
0.6666666666666666
 40
0.6666666666666666
 40
0.6666666666666666
 40
0.6666666666666666
 40
0.75
 40
0.75
 40
0.75
 40
0.75
 40
0.8333333333333334
 40
0.8333333333333334
 40
0.8333333333333334
 40
0.8333333333333334
 40
1.0
 40
1.0
 40
1.0
 40
1.0
 10
-17.7188
 20
-28.6469
 30
0.0
 10
-17.7188
 20
-28.6469
 30
0.0
 10
-17.7188
 20
-28.3204
 30
0.0
 10
-17.7188
 20
-28.3204
 30
0.0
 10
-17.7188
 20
-28.3204
 30
0.0
 10
-17.7188
 20
-28.3204
 30
0.0
 10
-15.9287
 20
-28.3204
 30
0.0
 10
-15.9287
 20
-28.3204
 30
0.0
 10
-15.9287
 20
-28.3204
 30
0.0
 10
-15.9287
 20
-28.3204
 30
0.0
 10
-15.9287
 20
-28.5845
 30
0.0
 10
-15.9287
 20
-28.5845
 30
0.0
 10
-15.9287
 20
-28.5845
 30
0.0
 10
-16.1045
 20
-28.7717
 30
0.0
 10
-16.2791
 20
-29.021
 30
0.0
 10
-16.4522
 20
-29.3314
 30
0.0
 10
-16.4522
 20
-29.3314
 30
0.0
 10
-16.6249
 20
-29.6417
 30
0.0
 10
-16.7587
 20
-29.9618
 30
0.0
 10
-16.8528
 20
-30.2895
 30
0.0
 10
-16.8528
 20
-30.2895
 30
0.0
 10
-16.921
 20
-30.5213
 30
0.0
 10
-16.9641
 20
-30.7744
 30
0.0
 10
-16.9828
 20
-31.05
 30
0.0
 10
-16.9828
 20
-31.05
 30
0.0
 10
-16.9828
 20
-31.05
 30
0.0
 10
-17.3318
 20
-31.05
 30
0.0
 10
-17.3318
 20
-31.05
 30
0.0
 10
-17.3318
 20
-31.05
 30
0.0
 10
-17.328
 20
-30.8323
 30
0.0
 10
-17.2855
 20
-30.5696
 30
0.0
 10
-17.2037
 20
-30.2612
 30
0.0
 10
-17.2037
 20
-30.2612
 30
0.0
 10
-17.1219
 20
-29.9534
 30
0.0
 10
-17.0047
 20
-29.656
 30
0.0
 10
-16.8521
 20
-29.37
 30
0.0
 10
-16.8521
 20
-29.37
 30
0.0
 10
-16.6989
 20
-29.0841
 30
0.0
 10
-16.5366
 20
-28.8427
 30
0.0
 10
-16.3641
 20
-28.6469
 30
0.0
 10
-16.3641
 20
-28.6469
 30
0.0
 10
-16.3641
 20
-28.6469
 30
0.0
 10
-17.7188
 20
-28.6469
 30
0.0
 10
-17.7188
 20
-28.6469
 30
0.0
  0
SPLINE
  5
9C
330
1F
100
AcDbEntity
  8
DEFAULT_2
 62
   250
100
AcDbSpline
210
0.0
220
0.0
230
1.0
 70
    11
 71
     3
 72
    20
 73
    16
 74
     0
 42
0.0000000001
 43
0.0000000001
 40
0.0
 40
0.0
 40
0.0
 40
0.0
 40
0.2
 40
0.2
 40
0.2
 40
0.2
 40
0.4
 40
0.4
 40
0.4
 40
0.4
 40
0.6
 40
0.6
 40
0.6
 40
0.6
 40
1.0
 40
1.0
 40
1.0
 40
1.0
 10
-0.3259
 20
-31.2482
 30
0.0
 10
-0.3259
 20
-31.2482
 30
0.0
 10
3.8495
 20
-31.8376
 30
0.0
 10
3.8495
 20
-31.8376
 30
0.0
 10
3.8495
 20
-31.8376
 30
0.0
 10
3.8495
 20
-31.8376
 30
0.0
 10
3.8495
 20
-31.9684
 30
0.0
 10
3.8495
 20
-31.9684
 30
0.0
 10
3.8495
 20
-31.9684
 30
0.0
 10
3.8495
 20
-31.9684
 30
0.0
 10
-0.3259
 20
-32.5969
 30
0.0
 10
-0.3259
 20
-32.5969
 30
0.0
 10
-0.3259
 20
-32.5969
 30
0.0
 10
-0.3259
 20
-32.5969
 30
0.0
 10
-0.3259
 20
-31.2482
 30
0.0
 10
-0.3259
 20
-31.2482
 30
0.0
  0
SPLINE
  5
9D
330
1F
100
AcDbEntity
  8
DEFAULT_2
 62
   250
100
AcDbSpline
210
0.0
220
0.0
230
1.0
 70
    11
 71
     3
 72
    20
 73
    16
 74
     0
 42
0.0000000001
 43
0.0000000001
 40
0.0
 40
0.0
 40
0.0
 40
0.0
 40
0.2
 40
0.2
 40
0.2
 40
0.2
 40
0.4
 40
0.4
 40
0.4
 40
0.4
 40
0.6
 40
0.6
 40
0.6
 40
0.6
 40
1.0
 40
1.0
 40
1.0
 40
1.0
 10
-34.0914
 20
-32.5969
 30
0.0
 10
-34.0914
 20
-32.5969
 30
0.0
 10
-38.2669
 20
-32.0076
 30
0.0
 10
-38.2669
 20
-32.0076
 30
0.0
 10
-38.2669
 20
-32.0076
 30
0.0
 10
-38.2669
 20
-32.0076
 30
0.0
 10
-38.2669
 20
-31.8767
 30
0.0
 10
-38.2669
 20
-31.8767
 30
0.0
 10
-38.2669
 20
-31.8767
 30
0.0
 10
-38.2669
 20
-31.8767
 30
0.0
 10
-34.0914
 20
-31.2484
 30
0.0
 10
-34.0914
 20
-31.2484
 30
0.0
 10
-34.0914
 20
-31.2484
 30
0.0
 10
-34.0914
 20
-31.2484
 30
0.0
 10
-34.0914
 20
-32.5969
 30
0.0
 10
-34.0914
 20
-32.5969
 30
0.0
  0
SPLINE
  5
9E
330
1F
100
AcDbEntity
  8
DEFAULT_2
 62
   250
100
AcDbSpline
210
0.0
220
0.0
230
1.0
 70
    11
 71
     3
 72
    48
 73
    44
 74
     0
 42
0.0000000001
 43
0.0000000001
 40
0.0
 40
0.0
 40
0.0
 40
0.0
 40
0.0833333333333333
 40
0.0833333333333333
 40
0.0833333333333333
 40
0.0833333333333333
 40
0.1666666666666667
 40
0.1666666666666667
 40
0.1666666666666667
 40
0.1666666666666667
 40
0.25
 40
0.25
 40
0.25
 40
0.25
 40
0.3333333333333333
 40
0.3333333333333333
 40
0.3333333333333333
 40
0.3333333333333333
 40
0.4166666666666667
 40
0.4166666666666667
 40
0.4166666666666667
 40
0.4166666666666667
 40
0.5
 40
0.5
 40
0.5
 40
0.5
 40
0.5833333333333334
 40
0.5833333333333334
 40
0.5833333333333334
 40
0.5833333333333334
 40
0.6666666666666666
 40
0.6666666666666666
 40
0.6666666666666666
 40
0.6666666666666666
 40
0.75
 40
0.75
 40
0.75
 40
0.75
 40
0.8333333333333334
 40
0.8333333333333334
 40
0.8333333333333334
 40
0.8333333333333334
 40
1.0
 40
1.0
 40
1.0
 40
1.0
 10
-42.836
 20
-9.1414
 30
0.0
 10
-42.836
 20
-9.1414
 30
0.0
 10
-43.4979
 20
-9.1414
 30
0.0
 10
-43.4979
 20
-9.1414
 30
0.0
 10
-43.4979
 20
-9.1414
 30
0.0
 10
-43.4979
 20
-9.1414
 30
0.0
 10
-43.4979
 20
-10.341
 30
0.0
 10
-43.4979
 20
-10.341
 30
0.0
 10
-43.4979
 20
-10.341
 30
0.0
 10
-43.4979
 20
-10.341
 30
0.0
 10
-43.8096
 20
-10.341
 30
0.0
 10
-43.8096
 20
-10.341
 30
0.0
 10
-43.8096
 20
-10.341
 30
0.0
 10
-43.8096
 20
-10.341
 30
0.0
 10
-45.6016
 20
-9.0788
 30
0.0
 10
-45.6016
 20
-9.0788
 30
0.0
 10
-45.6016
 20
-9.0788
 30
0.0
 10
-45.6016
 20
-9.0788
 30
0.0
 10
-45.6016
 20
-8.8013
 30
0.0
 10
-45.6016
 20
-8.8013
 30
0.0
 10
-45.6016
 20
-8.8013
 30
0.0
 10
-45.6016
 20
-8.8013
 30
0.0
 10
-43.8096
 20
-8.8013
 30
0.0
 10
-43.8096
 20
-8.8013
 30
0.0
 10
-43.8096
 20
-8.8013
 30
0.0
 10
-43.8096
 20
-8.8013
 30
0.0
 10
-43.8096
 20
-8.4279
 30
0.0
 10
-43.8096
 20
-8.4279
 30
0.0
 10
-43.8096
 20
-8.4279
 30
0.0
 10
-43.8096
 20
-8.4279
 30
0.0
 10
-43.4979
 20
-8.4279
 30
0.0
 10
-43.4979
 20
-8.4279
 30
0.0
 10
-43.4979
 20
-8.4279
 30
0.0
 10
-43.4979
 20
-8.4279
 30
0.0
 10
-43.4979
 20
-8.8013
 30
0.0
 10
-43.4979
 20
-8.8013
 30
0.0
 10
-43.4979
 20
-8.8013
 30
0.0
 10
-43.4979
 20
-8.8013
 30
0.0
 10
-42.836
 20
-8.8013
 30
0.0
 10
-42.836
 20
-8.8013
 30
0.0
 10
-42.836
 20
-8.8013
 30
0.0
 10
-42.836
 20
-8.8013
 30
0.0
 10
-42.836
 20
-9.1414
 30
0.0
 10
-42.836
 20
-9.1414
 30
0.0
  0
SPLINE
  5
9F
330
1F
100
AcDbEntity
  8
DEFAULT_2
 62
   250
100
AcDbSpline
210
0.0
220
0.0
230
1.0
 70
    11
 71
     3
 72
    16
 73
    12
 74
     0
 42
0.0000000001
 43
0.0000000001
 40
0.0
 40
0.0
 40
0.0
 40
0.0
 40
0.25
 40
0.25
 40
0.25
 40
0.25
 40
0.5
 40
0.5
 40
0.5
 40
0.5
 40
1.0
 40
1.0
 40
1.0
 40
1.0
 10
-43.8096
 20
-9.1414
 30
0.0
 10
-43.8096
 20
-9.1414
 30
0.0
 10
-45.0562
 20
-9.1414
 30
0.0
 10
-45.0562
 20
-9.1414
 30
0.0
 10
-45.0562
 20
-9.1414
 30
0.0
 10
-45.0562
 20
-9.1414
 30
0.0
 10
-43.8096
 20
-10.0067
 30
0.0
 10
-43.8096
 20
-10.0067
 30
0.0
 10
-43.8096
 20
-10.0067
 30
0.0
 10
-43.8096
 20
-10.0067
 30
0.0
 10
-43.8096
 20
-9.1414
 30
0.0
 10
-43.8096
 20
-9.1414
 30
0.0
  0
SPLINE
  5
A0
330
1F
100
AcDbEntity
  8
DEFAULT_2
 62
   250
100
AcDbSpline
210
0.0
220
0.0
230
1.0
 70
    11
 71
     3
 72
    92
 73
    88
 74
     0
 42
0.0000000001
 43
0.0000000001
 40
0.0
 40
0.0
 40
0.0
 40
0.0
 40
0.0434782608695652
 40
0.0434782608695652
 40
0.0434782608695652
 40
0.0434782608695652
 40
0.0869565217391304
 40
0.0869565217391304
 40
0.0869565217391304
 40
0.0869565217391304
 40
0.1304347826086956
 40
0.1304347826086956
 40
0.1304347826086956
 40
0.1304347826086956
 40
0.1739130434782609
 40
0.1739130434782609
 40
0.1739130434782609
 40
0.1739130434782609
 40
0.2173913043478261
 40
0.2173913043478261
 40
0.2173913043478261
 40
0.2173913043478261
 40
0.2608695652173913
 40
0.2608695652173913
 40
0.2608695652173913
 40
0.2608695652173913
 40
0.3043478260869565
 40
0.3043478260869565
 40
0.3043478260869565
 40
0.3043478260869565
 40
0.3478260869565217
 40
0.3478260869565217
 40
0.3478260869565217
 40
0.3478260869565217
 40
0.391304347826087
 40
0.391304347826087
 40
0.391304347826087
 40
0.391304347826087
 40
0.4347826086956522
 40
0.4347826086956522
 40
0.4347826086956522
 40
0.4347826086956522
 40
0.4782608695652174
 40
0.4782608695652174
 40
0.4782608695652174
 40
0.4782608695652174
 40
0.5217391304347826
 40
0.5217391304347826
 40
0.5217391304347826
 40
0.5217391304347826
 40
0.5652173913043478
 40
0.5652173913043478
 40
0.5652173913043478
 40
0.5652173913043478
 40
0.6086956521739131
 40
0.6086956521739131
 40
0.6086956521739131
 40
0.6086956521739131
 40
0.6521739130434783
 40
0.6521739130434783
 40
0.6521739130434783
 40
0.6521739130434783
 40
0.6956521739130435
 40
0.6956521739130435
 40
0.6956521739130435
 40
0.6956521739130435
 40
0.7391304347826086
 40
0.7391304347826086
 40
0.7391304347826086
 40
0.7391304347826086
 40
0.782608695652174
 40
0.782608695652174
 40
0.782608695652174
 40
0.782608695652174
 40
0.8260869565217391
 40
0.8260869565217391
 40
0.8260869565217391
 40
0.8260869565217391
 40
0.8695652173913043
 40
0.8695652173913043
 40
0.8695652173913043
 40
0.8695652173913043
 40
0.9130434782608695
 40
0.9130434782608695
 40
0.9130434782608695
 40
0.9130434782608695
 40
1.0
 40
1.0
 40
1.0
 40
1.0
 10
-43.5605
 20
-8.0808
 30
0.0
 10
-43.5605
 20
-8.0808
 30
0.0
 10
-43.5907
 20
-7.7241
 30
0.0
 10
-43.5907
 20
-7.7241
 30
0.0
 10
-43.5907
 20
-7.7241
 30
0.0
 10
-43.4169
 20
-7.6977
 30
0.0
 10
-43.2868
 20
-7.6365
 30
0.0
 10
-43.1992
 20
-7.5405
 30
0.0
 10
-43.1992
 20
-7.5405
 30
0.0
 10
-43.1116
 20
-7.444
 30
0.0
 10
-43.0678
 20
-7.328
 30
0.0
 10
-43.0678
 20
-7.1922
 30
0.0
 10
-43.0678
 20
-7.1922
 30
0.0
 10
-43.0678
 20
-7.0286
 30
0.0
 10
-43.1297
 20
-6.8902
 30
0.0
 10
-43.2526
 20
-6.7776
 30
0.0
 10
-43.2526
 20
-6.7776
 30
0.0
 10
-43.3762
 20
-6.6642
 30
0.0
 10
-43.5398
 20
-6.6075
 30
0.0
 10
-43.7432
 20
-6.6075
 30
0.0
 10
-43.7432
 20
-6.6075
 30
0.0
 10
-43.9371
 20
-6.6075
 30
0.0
 10
-44.0897
 20
-6.6616
 30
0.0
 10
-44.2017
 20
-6.7705
 30
0.0
 10
-44.2017
 20
-6.7705
 30
0.0
 10
-44.3138
 20
-6.8793
 30
0.0
 10
-44.3698
 20
-7.0215
 30
0.0
 10
-44.3698
 20
-7.198
 30
0.0
 10
-44.3698
 20
-7.198
 30
0.0
 10
-44.3698
 20
-7.3075
 30
0.0
 10
-44.3448
 20
-7.4059
 30
0.0
 10
-44.2952
 20
-7.4942
 30
0.0
 10
-44.2952
 20
-7.4942
 30
0.0
 10
-44.2455
 20
-7.5824
 30
0.0
 10
-44.1812
 20
-7.6513
 30
0.0
 10
-44.1019
 20
-7.7015
 30
0.0
 10
-44.1019
 20
-7.7015
 30
0.0
 10
-44.1019
 20
-7.7015
 30
0.0
 10
-44.1431
 20
-8.0203
 30
0.0
 10
-44.1431
 20
-8.0203
 30
0.0
 10
-44.1431
 20
-8.0203
 30
0.0
 10
-44.1431
 20
-8.0203
 30
0.0
 10
-45.5637
 20
-7.7524
 30
0.0
 10
-45.5637
 20
-7.7524
 30
0.0
 10
-45.5637
 20
-7.7524
 30
0.0
 10
-45.5637
 20
-7.7524
 30
0.0
 10
-45.5637
 20
-6.377
 30
0.0
 10
-45.5637
 20
-6.377
 30
0.0
 10
-45.5637
 20
-6.377
 30
0.0
 10
-45.5637
 20
-6.377
 30
0.0
 10
-45.2391
 20
-6.377
 30
0.0
 10
-45.2391
 20
-6.377
 30
0.0
 10
-45.2391
 20
-6.377
 30
0.0
 10
-45.2391
 20
-6.377
 30
0.0
 10
-45.2391
 20
-7.4807
 30
0.0
 10
-45.2391
 20
-7.4807
 30
0.0
 10
-45.2391
 20
-7.4807
 30
0.0
 10
-45.2391
 20
-7.4807
 30
0.0
 10
-44.496
 20
-7.63
 30
0.0
 10
-44.496
 20
-7.63
 30
0.0
 10
-44.496
 20
-7.63
 30
0.0
 10
-44.612
 20
-7.464
 30
0.0
 10
-44.6699
 20
-7.2894
 30
0.0
 10
-44.6699
 20
-7.1072
 30
0.0
 10
-44.6699
 20
-7.1072
 30
0.0
 10
-44.6699
 20
-6.8657
 30
0.0
 10
-44.5862
 20
-6.6623
 30
0.0
 10
-44.4188
 20
-6.4961
 30
0.0
 10
-44.4188
 20
-6.4961
 30
0.0
 10
-44.2514
 20
-6.3301
 30
0.0
 10
-44.0363
 20
-6.247
 30
0.0
 10
-43.7736
 20
-6.247
 30
0.0
 10
-43.7736
 20
-6.247
 30
0.0
 10
-43.5231
 20
-6.247
 30
0.0
 10
-43.3067
 20
-6.3203
 30
0.0
 10
-43.1245
 20
-6.4659
 30
0.0
 10
-43.1245
 20
-6.4659
 30
0.0
 10
-42.901
 20
-6.6436
 30
0.0
 10
-42.7891
 20
-6.8857
 30
0.0
 10
-42.7891
 20
-7.1922
 30
0.0
 10
-42.7891
 20
-7.1922
 30
0.0
 10
-42.7891
 20
-7.444
 30
0.0
 10
-42.8591
 20
-7.6493
 30
0.0
 10
-43.0001
 20
-7.8084
 30
0.0
 10
-43.0001
 20
-7.8084
 30
0.0
 10
-43.1413
 20
-7.9675
 30
0.0
 10
-43.328
 20
-8.0582
 30
0.0
 10
-43.5605
 20
-8.0808
 30
0.0
  0
SPLINE
  5
A1
330
1F
100
AcDbEntity
  8
DEFAULT_2
 62
   250
100
AcDbSpline
210
0.0
220
0.0
230
1.0
 70
    11
 71
     3
 72
    20
 73
    16
 74
     0
 42
0.0000000001
 43
0.0000000001
 40
0.0
 40
0.0
 40
0.0
 40
0.0
 40
0.2
 40
0.2
 40
0.2
 40
0.2
 40
0.4
 40
0.4
 40
0.4
 40
0.4
 40
0.6
 40
0.6
 40
0.6
 40
0.6
 40
1.0
 40
1.0
 40
1.0
 40
1.0
 10
-42.6534
 20
4.845
 30
0.0
 10
-42.6534
 20
4.845
 30
0.0
 10
-42.0642
 20
9.0204
 30
0.0
 10
-42.0642
 20
9.0204
 30
0.0
 10
-42.0642
 20
9.0204
 30
0.0
 10
-42.0642
 20
9.0204
 30
0.0
 10
-41.9332
 20
9.0204
 30
0.0
 10
-41.9332
 20
9.0204
 30
0.0
 10
-41.9332
 20
9.0204
 30
0.0
 10
-41.9332
 20
9.0204
 30
0.0
 10
-41.3048
 20
4.845
 30
0.0
 10
-41.3048
 20
4.845
 30
0.0
 10
-41.3048
 20
4.845
 30
0.0
 10
-41.3048
 20
4.845
 30
0.0
 10
-42.6534
 20
4.845
 30
0.0
 10
-42.6534
 20
4.845
 30
0.0
  0
SPLINE
  5
A2
330
1F
100
AcDbEntity
  8
DEFAULT_2
 62
   250
100
AcDbSpline
210
0.0
220
0.0
230
1.0
 70
    11
 71
     3
 72
    20
 73
    16
 74
     0
 42
0.0000000001
 43
0.0000000001
 40
0.0
 40
0.0
 40
0.0
 40
0.0
 40
0.2
 40
0.2
 40
0.2
 40
0.2
 40
0.4
 40
0.4
 40
0.4
 40
0.4
 40
0.6
 40
0.6
 40
0.6
 40
0.6
 40
1.0
 40
1.0
 40
1.0
 40
1.0
 10
-41.3048
 20
-20.0775
 30
0.0
 10
-41.3048
 20
-20.0775
 30
0.0
 10
-41.894
 20
-24.253
 30
0.0
 10
-41.894
 20
-24.253
 30
0.0
 10
-41.894
 20
-24.253
 30
0.0
 10
-41.894
 20
-24.253
 30
0.0
 10
-42.0249
 20
-24.253
 30
0.0
 10
-42.0249
 20
-24.253
 30
0.0
 10
-42.0249
 20
-24.253
 30
0.0
 10
-42.0249
 20
-24.253
 30
0.0
 10
-42.6534
 20
-20.0775
 30
0.0
 10
-42.6534
 20
-20.0775
 30
0.0
 10
-42.6534
 20
-20.0775
 30
0.0
 10
-42.6534
 20
-20.0775
 30
0.0
 10
-41.3048
 20
-20.0775
 30
0.0
 10
-41.3048
 20
-20.0775
 30
0.0
  0
SPLINE
  5
A3
330
1F
100
AcDbEntity
  8
DEFAULT_2
 62
   250
100
AcDbSpline
210
0.0
220
0.0
230
1.0
 70
    11
 71
     3
 72
    80
 73
    76
 74
     0
 42
0.0000000001
 43
0.0000000001
 40
0.0
 40
0.0
 40
0.0
 40
0.0
 40
0.05
 40
0.05
 40
0.05
 40
0.05
 40
0.1
 40
0.1
 40
0.1
 40
0.1
 40
0.15
 40
0.15
 40
0.15
 40
0.15
 40
0.2
 40
0.2
 40
0.2
 40
0.2
 40
0.25
 40
0.25
 40
0.25
 40
0.25
 40
0.3
 40
0.3
 40
0.3
 40
0.3
 40
0.35
 40
0.35
 40
0.35
 40
0.35
 40
0.4
 40
0.4
 40
0.4
 40
0.4
 40
0.45
 40
0.45
 40
0.45
 40
0.45
 40
0.5
 40
0.5
 40
0.5
 40
0.5
 40
0.55
 40
0.55
 40
0.55
 40
0.55
 40
0.6
 40
0.6
 40
0.6
 40
0.6
 40
0.65
 40
0.65
 40
0.65
 40
0.65
 40
0.7
 40
0.7
 40
0.7
 40
0.7
 40
0.75
 40
0.75
 40
0.75
 40
0.75
 40
0.8
 40
0.8
 40
0.8
 40
0.8
 40
0.85
 40
0.85
 40
0.85
 40
0.85
 40
0.9
 40
0.9
 40
0.9
 40
0.9
 40
1.0
 40
1.0
 40
1.0
 40
1.0
 10
-49.9867
 20
-1.363
 30
0.0
 10
-49.9867
 20
-1.363
 30
0.0
 10
-49.9603
 20
-1.7003
 30
0.0
 10
-49.9603
 20
-1.7003
 30
0.0
 10
-49.9603
 20
-1.7003
 30
0.0
 10
-50.0936
 20
-1.7306
 30
0.0
 10
-50.1908
 20
-1.7732
 30
0.0
 10
-50.2506
 20
-1.8285
 30
0.0
 10
-50.2506
 20
-1.8285
 30
0.0
 10
-50.348
 20
-1.9206
 30
0.0
 10
-50.3963
 20
-2.0339
 30
0.0
 10
-50.3963
 20
-2.1685
 30
0.0
 10
-50.3963
 20
-2.1685
 30
0.0
 10
-50.3963
 20
-2.2767
 30
0.0
 10
-50.3659
 20
-2.3713
 30
0.0
 10
-50.3054
 20
-2.4531
 30
0.0
 10
-50.3054
 20
-2.4531
 30
0.0
 10
-50.2275
 20
-2.56
 30
0.0
 10
-50.1136
 20
-2.6444
 30
0.0
 10
-49.9641
 20
-2.7061
 30
0.0
 10
-49.9641
 20
-2.7061
 30
0.0
 10
-49.8148
 20
-2.7673
 30
0.0
 10
-49.6016
 20
-2.7995
 30
0.0
 10
-49.3248
 20
-2.8021
 30
0.0
 10
-49.3248
 20
-2.8021
 30
0.0
 10
-49.449
 20
-2.7204
 30
0.0
 10
-49.5418
 20
-2.6206
 30
0.0
 10
-49.6023
 20
-2.502
 30
0.0
 10
-49.6023
 20
-2.502
 30
0.0
 10
-49.6621
 20
-2.3843
 30
0.0
 10
-49.6924
 20
-2.26
 30
0.0
 10
-49.6924
 20
-2.1305
 30
0.0
 10
-49.6924
 20
-2.1305
 30
0.0
 10
-49.6924
 20
-1.9039
 30
0.0
 10
-49.6094
 20
-1.7113
 30
0.0
 10
-49.4425
 20
-1.5522
 30
0.0
 10
-49.4425
 20
-1.5522
 30
0.0
 10
-49.2758
 20
-1.3933
 30
0.0
 10
-49.0607
 20
-1.3133
 30
0.0
 10
-48.7968
 20
-1.3133
 30
0.0
 10
-48.7968
 20
-1.3133
 30
0.0
 10
-48.6229
 20
-1.3133
 30
0.0
 10
-48.4619
 20
-1.3514
 30
0.0
 10
-48.3124
 20
-1.4261
 30
0.0
 10
-48.3124
 20
-1.4261
 30
0.0
 10
-48.1638
 20
-1.5007
 30
0.0
 10
-48.0492
 20
-1.6038
 30
0.0
 10
-47.9699
 20
-1.7346
 30
0.0
 10
-47.9699
 20
-1.7346
 30
0.0
 10
-47.8908
 20
-1.8652
 30
0.0
 10
-47.8515
 20
-2.0133
 30
0.0
 10
-47.8515
 20
-2.1795
 30
0.0
 10
-47.8515
 20
-2.1795
 30
0.0
 10
-47.8515
 20
-2.4627
 30
0.0
 10
-47.9551
 20
-2.6932
 30
0.0
 10
-48.1638
 20
-2.8716
 30
0.0
 10
-48.1638
 20
-2.8716
 30
0.0
 10
-48.3717
 20
-3.0507
 30
0.0
 10
-48.7149
 20
-3.1395
 30
0.0
 10
-49.1927
 20
-3.1395
 30
0.0
 10
-49.1927
 20
-3.1395
 30
0.0
 10
-49.7271
 20
-3.1395
 30
0.0
 10
-50.1155
 20
-3.041
 30
0.0
 10
-50.3582
 20
-2.8433
 30
0.0
 10
-50.3582
 20
-2.8433
 30
0.0
 10
-50.5695
 20
-2.6713
 30
0.0
 10
-50.6757
 20
-2.4396
 30
0.0
 10
-50.6757
 20
-2.1473
 30
0.0
 10
-50.6757
 20
-2.1473
 30
0.0
 10
-50.6757
 20
-1.9302
 30
0.0
 10
-50.6145
 20
-1.7519
 30
0.0
 10
-50.4921
 20
-1.6129
 30
0.0
 10
-50.4921
 20
-1.6129
 30
0.0
 10
-50.3704
 20
-1.4738
 30
0.0
 10
-50.2018
 20
-1.3907
 30
0.0
 10
-49.9867
 20
-1.363
 30
0.0
  0
SPLINE
  5
A4
330
1F
100
AcDbEntity
  8
DEFAULT_2
 62
   250
100
AcDbSpline
210
0.0
220
0.0
230
1.0
 70
    11
 71
     3
 72
    40
 73
    36
 74
     0
 42
0.0000000001
 43
0.0000000001
 40
0.0
 40
0.0
 40
0.0
 40
0.0
 40
0.1
 40
0.1
 40
0.1
 40
0.1
 40
0.2
 40
0.2
 40
0.2
 40
0.2
 40
0.3
 40
0.3
 40
0.3
 40
0.3
 40
0.4
 40
0.4
 40
0.4
 40
0.4
 40
0.5
 40
0.5
 40
0.5
 40
0.5
 40
0.6
 40
0.6
 40
0.6
 40
0.6
 40
0.7
 40
0.7
 40
0.7
 40
0.7
 40
0.8
 40
0.8
 40
0.8
 40
0.8
 40
1.0
 40
1.0
 40
1.0
 40
1.0
 10
-48.7949
 20
-2.7494
 30
0.0
 10
-48.6775
 20
-2.7494
 30
0.0
 10
-48.5656
 20
-2.7242
 30
0.0
 10
-48.4587
 20
-2.6746
 30
0.0
 10
-48.4587
 20
-2.6746
 30
0.0
 10
-48.3517
 20
-2.6251
 30
0.0
 10
-48.2707
 20
-2.5555
 30
0.0
 10
-48.2147
 20
-2.4667
 30
0.0
 10
-48.2147
 20
-2.4667
 30
0.0
 10
-48.1586
 20
-2.3772
 30
0.0
 10
-48.1302
 20
-2.2831
 30
0.0
 10
-48.1302
 20
-2.1852
 30
0.0
 10
-48.1302
 20
-2.1852
 30
0.0
 10
-48.1302
 20
-2.0416
 30
0.0
 10
-48.1883
 20
-1.9187
 30
0.0
 10
-48.3041
 20
-1.8156
 30
0.0
 10
-48.3041
 20
-1.8156
 30
0.0
 10
-48.42
 20
-1.7127
 30
0.0
 10
-48.5772
 20
-1.661
 30
0.0
 10
-48.7754
 20
-1.661
 30
0.0
 10
-48.7754
 20
-1.661
 30
0.0
 10
-48.9667
 20
-1.661
 30
0.0
 10
-49.1174
 20
-1.712
 30
0.0
 10
-49.2275
 20
-1.8137
 30
0.0
 10
-49.2275
 20
-1.8137
 30
0.0
 10
-49.3377
 20
-1.9154
 30
0.0
 10
-49.3924
 20
-2.0435
 30
0.0
 10
-49.3924
 20
-2.1981
 30
0.0
 10
-49.3924
 20
-2.1981
 30
0.0
 10
-49.3924
 20
-2.352
 30
0.0
 10
-49.3377
 20
-2.4822
 30
0.0
 10
-49.2275
 20
-2.5889
 30
0.0
 10
-49.2275
 20
-2.5889
 30
0.0
 10
-49.1174
 20
-2.6958
 30
0.0
 10
-48.9731
 20
-2.7494
 30
0.0
 10
-48.7949
 20
-2.7494
 30
0.0
  0
SPLINE
  5
A5
330
1F
100
AcDbEntity
  8
DEFAULT_2
 62
   250
100
AcDbSpline
210
0.0
220
0.0
230
1.0
 70
    11
 71
     3
 72
    92
 73
    88
 74
     0
 42
0.0000000001
 43
0.0000000001
 40
0.0
 40
0.0
 40
0.0
 40
0.0
 40
0.0434782608695652
 40
0.0434782608695652
 40
0.0434782608695652
 40
0.0434782608695652
 40
0.0869565217391304
 40
0.0869565217391304
 40
0.0869565217391304
 40
0.0869565217391304
 40
0.1304347826086956
 40
0.1304347826086956
 40
0.1304347826086956
 40
0.1304347826086956
 40
0.1739130434782609
 40
0.1739130434782609
 40
0.1739130434782609
 40
0.1739130434782609
 40
0.2173913043478261
 40
0.2173913043478261
 40
0.2173913043478261
 40
0.2173913043478261
 40
0.2608695652173913
 40
0.2608695652173913
 40
0.2608695652173913
 40
0.2608695652173913
 40
0.3043478260869565
 40
0.3043478260869565
 40
0.3043478260869565
 40
0.3043478260869565
 40
0.3478260869565217
 40
0.3478260869565217
 40
0.3478260869565217
 40
0.3478260869565217
 40
0.391304347826087
 40
0.391304347826087
 40
0.391304347826087
 40
0.391304347826087
 40
0.4347826086956522
 40
0.4347826086956522
 40
0.4347826086956522
 40
0.4347826086956522
 40
0.4782608695652174
 40
0.4782608695652174
 40
0.4782608695652174
 40
0.4782608695652174
 40
0.5217391304347826
 40
0.5217391304347826
 40
0.5217391304347826
 40
0.5217391304347826
 40
0.5652173913043478
 40
0.5652173913043478
 40
0.5652173913043478
 40
0.5652173913043478
 40
0.6086956521739131
 40
0.6086956521739131
 40
0.6086956521739131
 40
0.6086956521739131
 40
0.6521739130434783
 40
0.6521739130434783
 40
0.6521739130434783
 40
0.6521739130434783
 40
0.6956521739130435
 40
0.6956521739130435
 40
0.6956521739130435
 40
0.6956521739130435
 40
0.7391304347826086
 40
0.7391304347826086
 40
0.7391304347826086
 40
0.7391304347826086
 40
0.782608695652174
 40
0.782608695652174
 40
0.782608695652174
 40
0.782608695652174
 40
0.8260869565217391
 40
0.8260869565217391
 40
0.8260869565217391
 40
0.8260869565217391
 40
0.8695652173913043
 40
0.8695652173913043
 40
0.8695652173913043
 40
0.8695652173913043
 40
0.9130434782608695
 40
0.9130434782608695
 40
0.9130434782608695
 40
0.9130434782608695
 40
1.0
 40
1.0
 40
1.0
 40
1.0
 10
-48.6229
 20
-0.976
 30
0.0
 10
-48.6229
 20
-0.976
 30
0.0
 10
-48.6532
 20
-0.6193
 30
0.0
 10
-48.6532
 20
-0.6193
 30
0.0
 10
-48.6532
 20
-0.6193
 30
0.0
 10
-48.4793
 20
-0.5928
 30
0.0
 10
-48.3493
 20
-0.5316
 30
0.0
 10
-48.2617
 20
-0.4357
 30
0.0
 10
-48.2617
 20
-0.4357
 30
0.0
 10
-48.174
 20
-0.3392
 30
0.0
 10
-48.1302
 20
-0.2232
 30
0.0
 10
-48.1302
 20
-0.0874
 30
0.0
 10
-48.1302
 20
-0.0874
 30
0.0
 10
-48.1302
 20
0.0762
 30
0.0
 10
-48.1921
 20
0.2146
 30
0.0
 10
-48.315
 20
0.3273
 30
0.0
 10
-48.315
 20
0.3273
 30
0.0
 10
-48.4387
 20
0.4406
 30
0.0
 10
-48.6023
 20
0.4973
 30
0.0
 10
-48.8057
 20
0.4973
 30
0.0
 10
-48.8057
 20
0.4973
 30
0.0
 10
-48.9995
 20
0.4973
 30
0.0
 10
-49.1522
 20
0.4432
 30
0.0
 10
-49.2642
 20
0.3344
 30
0.0
 10
-49.2642
 20
0.3344
 30
0.0
 10
-49.3763
 20
0.2255
 30
0.0
 10
-49.4323
 20
0.0833
 30
0.0
 10
-49.4323
 20
-0.0932
 30
0.0
 10
-49.4323
 20
-0.0932
 30
0.0
 10
-49.4323
 20
-0.2027
 30
0.0
 10
-49.4072
 20
-0.3011
 30
0.0
 10
-49.3577
 20
-0.3894
 30
0.0
 10
-49.3577
 20
-0.3894
 30
0.0
 10
-49.308
 20
-0.4776
 30
0.0
 10
-49.2436
 20
-0.5464
 30
0.0
 10
-49.1644
 20
-0.5967
 30
0.0
 10
-49.1644
 20
-0.5967
 30
0.0
 10
-49.1644
 20
-0.5967
 30
0.0
 10
-49.2056
 20
-0.9155
 30
0.0
 10
-49.2056
 20
-0.9155
 30
0.0
 10
-49.2056
 20
-0.9155
 30
0.0
 10
-49.2056
 20
-0.9155
 30
0.0
 10
-50.6261
 20
-0.6476
 30
0.0
 10
-50.6261
 20
-0.6476
 30
0.0
 10
-50.6261
 20
-0.6476
 30
0.0
 10
-50.6261
 20
-0.6476
 30
0.0
 10
-50.6261
 20
0.7278
 30
0.0
 10
-50.6261
 20
0.7278
 30
0.0
 10
-50.6261
 20
0.7278
 30
0.0
 10
-50.6261
 20
0.7278
 30
0.0
 10
-50.3016
 20
0.7278
 30
0.0
 10
-50.3016
 20
0.7278
 30
0.0
 10
-50.3016
 20
0.7278
 30
0.0
 10
-50.3016
 20
0.7278
 30
0.0
 10
-50.3016
 20
-0.3759
 30
0.0
 10
-50.3016
 20
-0.3759
 30
0.0
 10
-50.3016
 20
-0.3759
 30
0.0
 10
-50.3016
 20
-0.3759
 30
0.0
 10
-49.5585
 20
-0.5252
 30
0.0
 10
-49.5585
 20
-0.5252
 30
0.0
 10
-49.5585
 20
-0.5252
 30
0.0
 10
-49.6744
 20
-0.3591
 30
0.0
 10
-49.7323
 20
-0.1846
 30
0.0
 10
-49.7323
 20
-0.0024
 30
0.0
 10
-49.7323
 20
-0.0024
 30
0.0
 10
-49.7323
 20
0.2391
 30
0.0
 10
-49.6487
 20
0.4425
 30
0.0
 10
-49.4813
 20
0.6087
 30
0.0
 10
-49.4813
 20
0.6087
 30
0.0
 10
-49.3138
 20
0.7748
 30
0.0
 10
-49.0988
 20
0.8579
 30
0.0
 10
-48.8361
 20
0.8579
 30
0.0
 10
-48.8361
 20
0.8579
 30
0.0
 10
-48.5856
 20
0.8579
 30
0.0
 10
-48.3691
 20
0.7845
 30
0.0
 10
-48.1869
 20
0.639
 30
0.0
 10
-48.1869
 20
0.639
 30
0.0
 10
-47.9635
 20
0.4613
 30
0.0
 10
-47.8515
 20
0.2191
 30
0.0
 10
-47.8515
 20
-0.0874
 30
0.0
 10
-47.8515
 20
-0.0874
 30
0.0
 10
-47.8515
 20
-0.3392
 30
0.0
 10
-47.9216
 20
-0.5445
 30
0.0
 10
-48.0626
 20
-0.7036
 30
0.0
 10
-48.0626
 20
-0.7036
 30
0.0
 10
-48.2037
 20
-0.8627
 30
0.0
 10
-48.3905
 20
-0.9534
 30
0.0
 10
-48.6229
 20
-0.976
 30
0.0
  0
SPLINE
  5
A6
330
1F
100
AcDbEntity
  8
DEFAULT_2
 62
   250
100
AcDbSpline
210
0.0
220
0.0
230
1.0
 70
    11
 71
     3
 72
    20
 73
    16
 74
     0
 42
0.0000000001
 43
0.0000000001
 40
0.0
 40
0.0
 40
0.0
 40
0.0
 40
0.2
 40
0.2
 40
0.2
 40
0.2
 40
0.4
 40
0.4
 40
0.4
 40
0.4
 40
0.6
 40
0.6
 40
0.6
 40
0.6
 40
1.0
 40
1.0
 40
1.0
 40
1.0
 10
-47.7602
 20
19.6905
 30
0.0
 10
-47.7602
 20
19.6905
 30
0.0
 10
-47.1709
 20
23.866
 30
0.0
 10
-47.1709
 20
23.866
 30
0.0
 10
-47.1709
 20
23.866
 30
0.0
 10
-47.1709
 20
23.866
 30
0.0
 10
-47.04
 20
23.866
 30
0.0
 10
-47.04
 20
23.866
 30
0.0
 10
-47.04
 20
23.866
 30
0.0
 10
-47.04
 20
23.866
 30
0.0
 10
-46.4115
 20
19.6905
 30
0.0
 10
-46.4115
 20
19.6905
 30
0.0
 10
-46.4115
 20
19.6905
 30
0.0
 10
-46.4115
 20
19.6905
 30
0.0
 10
-47.7602
 20
19.6905
 30
0.0
 10
-47.7602
 20
19.6905
 30
0.0
  0
SPLINE
  5
A7
330
1F
100
AcDbEntity
  8
DEFAULT_2
 62
   250
100
AcDbSpline
210
0.0
220
0.0
230
1.0
 70
    11
 71
     3
 72
    20
 73
    16
 74
     0
 42
0.0000000001
 43
0.0000000001
 40
0.0
 40
0.0
 40
0.0
 40
0.0
 40
0.2
 40
0.2
 40
0.2
 40
0.2
 40
0.4
 40
0.4
 40
0.4
 40
0.4
 40
0.6
 40
0.6
 40
0.6
 40
0.6
 40
1.0
 40
1.0
 40
1.0
 40
1.0
 10
-46.3566
 20
-20.0879
 30
0.0
 10
-46.3566
 20
-20.0879
 30
0.0
 10
-46.9459
 20
-24.2634
 30
0.0
 10
-46.9459
 20
-24.2634
 30
0.0
 10
-46.9459
 20
-24.2634
 30
0.0
 10
-46.9459
 20
-24.2634
 30
0.0
 10
-47.0768
 20
-24.2634
 30
0.0
 10
-47.0768
 20
-24.2634
 30
0.0
 10
-47.0768
 20
-24.2634
 30
0.0
 10
-47.0768
 20
-24.2634
 30
0.0
 10
-47.7053
 20
-20.0879
 30
0.0
 10
-47.7053
 20
-20.0879
 30
0.0
 10
-47.7053
 20
-20.0879
 30
0.0
 10
-47.7053
 20
-20.0879
 30
0.0
 10
-46.3566
 20
-20.0879
 30
0.0
 10
-46.3566
 20
-20.0879
 30
0.0
  0
SPLINE
  5
A8
330
1F
100
AcDbEntity
  8
DEFAULT_2
 62
   250
100
AcDbSpline
210
0.0
220
0.0
230
1.0
 70
    24
 71
     3
 72
     8
 73
     4
 74
     0
 42
0.0000000001
 43
0.0000000001
 40
0.0
 40
0.0
 40
0.0
 40
0.0
 40
1.0
 40
1.0
 40
1.0
 40
1.0
 10
-5.3393
 20
22.6953
 30
0.0
 10
-5.3393
 20
22.6953
 30
0.0
 10
-6.083
 20
22.6953
 30
0.0
 10
-6.083
 20
22.6953
 30
0.0
  0
SPLINE
  5
A9
330
1F
100
AcDbEntity
  8
DEFAULT_2
 62
   250
100
AcDbSpline
210
0.0
220
0.0
230
1.0
 70
    24
 71
     3
 72
     8
 73
     4
 74
     0
 42
0.0000000001
 43
0.0000000001
 40
0.0
 40
0.0
 40
0.0
 40
0.0
 40
1.0
 40
1.0
 40
1.0
 40
1.0
 10
-28.3198
 20
22.6864
 30
0.0
 10
-28.3198
 20
22.6864
 30
0.0
 10
-29.0633
 20
22.6864
 30
0.0
 10
-29.0633
 20
22.6864
 30
0.0
  0
SPLINE
  5
AA
330
1F
100
AcDbEntity
  8
DEFAULT_2
 62
   250
100
AcDbSpline
210
0.0
220
0.0
230
1.0
 70
    11
 71
     3
 72
   124
 73
   120
 74
     0
 42
0.0000000001
 43
0.0000000001
 40
0.0
 40
0.0
 40
0.0
 40
0.0
 40
0.032258064516129
 40
0.032258064516129
 40
0.032258064516129
 40
0.032258064516129
 40
0.0645161290322581
 40
0.0645161290322581
 40
0.0645161290322581
 40
0.0645161290322581
 40
0.0967741935483871
 40
0.0967741935483871
 40
0.0967741935483871
 40
0.0967741935483871
 40
0.1290322580645161
 40
0.1290322580645161
 40
0.1290322580645161
 40
0.1290322580645161
 40
0.1612903225806452
 40
0.1612903225806452
 40
0.1612903225806452
 40
0.1612903225806452
 40
0.1935483870967742
 40
0.1935483870967742
 40
0.1935483870967742
 40
0.1935483870967742
 40
0.2258064516129032
 40
0.2258064516129032
 40
0.2258064516129032
 40
0.2258064516129032
 40
0.2580645161290323
 40
0.2580645161290323
 40
0.2580645161290323
 40
0.2580645161290323
 40
0.2903225806451613
 40
0.2903225806451613
 40
0.2903225806451613
 40
0.2903225806451613
 40
0.3225806451612903
 40
0.3225806451612903
 40
0.3225806451612903
 40
0.3225806451612903
 40
0.3548387096774194
 40
0.3548387096774194
 40
0.3548387096774194
 40
0.3548387096774194
 40
0.3870967741935484
 40
0.3870967741935484
 40
0.3870967741935484
 40
0.3870967741935484
 40
0.4193548387096774
 40
0.4193548387096774
 40
0.4193548387096774
 40
0.4193548387096774
 40
0.4516129032258064
 40
0.4516129032258064
 40
0.4516129032258064
 40
0.4516129032258064
 40
0.4838709677419355
 40
0.4838709677419355
 40
0.4838709677419355
 40
0.4838709677419355
 40
0.5161290322580645
 40
0.5161290322580645
 40
0.5161290322580645
 40
0.5161290322580645
 40
0.5483870967741935
 40
0.5483870967741935
 40
0.5483870967741935
 40
0.5483870967741935
 40
0.5806451612903226
 40
0.5806451612903226
 40
0.5806451612903226
 40
0.5806451612903226
 40
0.6129032258064516
 40
0.6129032258064516
 40
0.6129032258064516
 40
0.6129032258064516
 40
0.6451612903225806
 40
0.6451612903225806
 40
0.6451612903225806
 40
0.6451612903225806
 40
0.6774193548387096
 40
0.6774193548387096
 40
0.6774193548387096
 40
0.6774193548387096
 40
0.7096774193548387
 40
0.7096774193548387
 40
0.7096774193548387
 40
0.7096774193548387
 40
0.7419354838709677
 40
0.7419354838709677
 40
0.7419354838709677
 40
0.7419354838709677
 40
0.7741935483870968
 40
0.7741935483870968
 40
0.7741935483870968
 40
0.7741935483870968
 40
0.8064516129032258
 40
0.8064516129032258
 40
0.8064516129032258
 40
0.8064516129032258
 40
0.8387096774193549
 40
0.8387096774193549
 40
0.8387096774193549
 40
0.8387096774193549
 40
0.8709677419354839
 40
0.8709677419354839
 40
0.8709677419354839
 40
0.8709677419354839
 40
0.9032258064516129
 40
0.9032258064516129
 40
0.9032258064516129
 40
0.9032258064516129
 40
0.9354838709677419
 40
0.9354838709677419
 40
0.9354838709677419
 40
0.9354838709677419
 40
1.0
 40
1.0
 40
1.0
 40
1.0
 10
-19.1351
 20
29.684
 30
0.0
 10
-19.1351
 20
29.684
 30
0.0
 10
-18.7958
 20
29.7291
 30
0.0
 10
-18.7958
 20
29.7291
 30
0.0
 10
-18.7958
 20
29.7291
 30
0.0
 10
-18.7565
 20
29.5366
 30
0.0
 10
-18.6901
 20
29.3982
 30
0.0
 10
-18.5967
 20
29.3132
 30
0.0
 10
-18.5967
 20
29.3132
 30
0.0
 10
-18.5028
 20
29.2282
 30
0.0
 10
-18.3888
 20
29.1856
 30
0.0
 10
-18.2542
 20
29.1856
 30
0.0
 10
-18.2542
 20
29.1856
 30
0.0
 10
-18.0946
 20
29.1856
 30
0.0
 10
-17.9593
 20
29.241
 30
0.0
 10
-17.8491
 20
29.3518
 30
0.0
 10
-17.8491
 20
29.3518
 30
0.0
 10
-17.7397
 20
29.4625
 30
0.0
 10
-17.6843
 20
29.5997
 30
0.0
 10
-17.6843
 20
29.7633
 30
0.0
 10
-17.6843
 20
29.7633
 30
0.0
 10
-17.6843
 20
29.9191
 30
0.0
 10
-17.7352
 20
30.0479
 30
0.0
 10
-17.8369
 20
30.1489
 30
0.0
 10
-17.8369
 20
30.1489
 30
0.0
 10
-17.9393
 20
30.25
 30
0.0
 10
-18.0687
 20
30.3009
 30
0.0
 10
-18.2259
 20
30.3009
 30
0.0
 10
-18.2259
 20
30.3009
 30
0.0
 10
-18.2902
 20
30.3009
 30
0.0
 10
-18.3702
 20
30.288
 30
0.0
 10
-18.4654
 20
30.263
 30
0.0
 10
-18.4654
 20
30.263
 30
0.0
 10
-18.4654
 20
30.263
 30
0.0
 10
-18.4274
 20
30.561
 30
0.0
 10
-18.4274
 20
30.561
 30
0.0
 10
-18.4274
 20
30.561
 30
0.0
 10
-18.4049
 20
30.5585
 30
0.0
 10
-18.3869
 20
30.5572
 30
0.0
 10
-18.3728
 20
30.5572
 30
0.0
 10
-18.3728
 20
30.5572
 30
0.0
 10
-18.2285
 20
30.5572
 30
0.0
 10
-18.0984
 20
30.5952
 30
0.0
 10
-17.9825
 20
30.6705
 30
0.0
 10
-17.9825
 20
30.6705
 30
0.0
 10
-17.8665
 20
30.7458
 30
0.0
 10
-17.8086
 20
30.8624
 30
0.0
 10
-17.8086
 20
31.0195
 30
0.0
 10
-17.8086
 20
31.0195
 30
0.0
 10
-17.8086
 20
31.1438
 30
0.0
 10
-17.8512
 20
31.2474
 30
0.0
 10
-17.9355
 20
31.3286
 30
0.0
 10
-17.9355
 20
31.3286
 30
0.0
 10
-18.0198
 20
31.4103
 30
0.0
 10
-18.1287
 20
31.4516
 30
0.0
 10
-18.262
 20
31.4516
 30
0.0
 10
-18.262
 20
31.4516
 30
0.0
 10
-18.394
 20
31.4516
 30
0.0
 10
-18.504
 20
31.4098
 30
0.0
 10
-18.5917
 20
31.3273
 30
0.0
 10
-18.5917
 20
31.3273
 30
0.0
 10
-18.6798
 20
31.2442
 30
0.0
 10
-18.7365
 20
31.1193
 30
0.0
 10
-18.7617
 20
30.9532
 30
0.0
 10
-18.7617
 20
30.9532
 30
0.0
 10
-18.7617
 20
30.9532
 30
0.0
 10
-19.1009
 20
31.0137
 30
0.0
 10
-19.1009
 20
31.0137
 30
0.0
 10
-19.1009
 20
31.0137
 30
0.0
 10
-19.0597
 20
31.2416
 30
0.0
 10
-18.9651
 20
31.4181
 30
0.0
 10
-18.8182
 20
31.543
 30
0.0
 10
-18.8182
 20
31.543
 30
0.0
 10
-18.6708
 20
31.6679
 30
0.0
 10
-18.4879
 20
31.7311
 30
0.0
 10
-18.269
 20
31.7311
 30
0.0
 10
-18.269
 20
31.7311
 30
0.0
 10
-18.1184
 20
31.7311
 30
0.0
 10
-17.9793
 20
31.6982
 30
0.0
 10
-17.8524
 20
31.6339
 30
0.0
 10
-17.8524
 20
31.6339
 30
0.0
 10
-17.7255
 20
31.5688
 30
0.0
 10
-17.6283
 20
31.4805
 30
0.0
 10
-17.5607
 20
31.3685
 30
0.0
 10
-17.5607
 20
31.3685
 30
0.0
 10
-17.4937
 20
31.2564
 30
0.0
 10
-17.4597
 20
31.138
 30
0.0
 10
-17.4597
 20
31.0118
 30
0.0
 10
-17.4597
 20
31.0118
 30
0.0
 10
-17.4597
 20
30.8927
 30
0.0
 10
-17.4918
 20
30.7839
 30
0.0
 10
-17.5562
 20
30.6853
 30
0.0
 10
-17.5562
 20
30.6853
 30
0.0
 10
-17.6206
 20
30.5874
 30
0.0
 10
-17.7152
 20
30.5095
 30
0.0
 10
-17.8408
 20
30.4516
 30
0.0
 10
-17.8408
 20
30.4516
 30
0.0
 10
-17.6773
 20
30.4142
 30
0.0
 10
-17.5504
 20
30.3357
 30
0.0
 10
-17.4597
 20
30.2166
 30
0.0
 10
-17.4597
 20
30.2166
 30
0.0
 10
-17.3694
 20
30.098
 30
0.0
 10
-17.3244
 20
29.9493
 30
0.0
 10
-17.3244
 20
29.771
 30
0.0
 10
-17.3244
 20
29.771
 30
0.0
 10
-17.3244
 20
29.5295
 30
0.0
 10
-17.412
 20
29.3247
 30
0.0
 10
-17.5883
 20
29.1567
 30
0.0
 10
-17.5883
 20
29.1567
 30
0.0
 10
-17.7643
 20
28.9886
 30
0.0
 10
-17.987
 20
28.9049
 30
0.0
 10
-18.2561
 20
28.9049
 30
0.0
 10
-18.2561
 20
28.9049
 30
0.0
 10
-18.4988
 20
28.9049
 30
0.0
 10
-18.7005
 20
28.977
 30
0.0
 10
-18.8608
 20
29.1219
 30
0.0
 10
-18.8608
 20
29.1219
 30
0.0
 10
-19.0211
 20
29.2661
 30
0.0
 10
-19.1126
 20
29.4535
 30
0.0
 10
-19.1351
 20
29.684
 30
0.0
  0
SPLINE
  5
AB
330
1F
100
AcDbEntity
  8
DEFAULT_2
 62
   250
100
AcDbSpline
210
0.0
220
0.0
230
1.0
 70
    11
 71
     3
 72
    92
 73
    88
 74
     0
 42
0.0000000001
 43
0.0000000001
 40
0.0
 40
0.0
 40
0.0
 40
0.0
 40
0.0434782608695652
 40
0.0434782608695652
 40
0.0434782608695652
 40
0.0434782608695652
 40
0.0869565217391304
 40
0.0869565217391304
 40
0.0869565217391304
 40
0.0869565217391304
 40
0.1304347826086956
 40
0.1304347826086956
 40
0.1304347826086956
 40
0.1304347826086956
 40
0.1739130434782609
 40
0.1739130434782609
 40
0.1739130434782609
 40
0.1739130434782609
 40
0.2173913043478261
 40
0.2173913043478261
 40
0.2173913043478261
 40
0.2173913043478261
 40
0.2608695652173913
 40
0.2608695652173913
 40
0.2608695652173913
 40
0.2608695652173913
 40
0.3043478260869565
 40
0.3043478260869565
 40
0.3043478260869565
 40
0.3043478260869565
 40
0.3478260869565217
 40
0.3478260869565217
 40
0.3478260869565217
 40
0.3478260869565217
 40
0.391304347826087
 40
0.391304347826087
 40
0.391304347826087
 40
0.391304347826087
 40
0.4347826086956522
 40
0.4347826086956522
 40
0.4347826086956522
 40
0.4347826086956522
 40
0.4782608695652174
 40
0.4782608695652174
 40
0.4782608695652174
 40
0.4782608695652174
 40
0.5217391304347826
 40
0.5217391304347826
 40
0.5217391304347826
 40
0.5217391304347826
 40
0.5652173913043478
 40
0.5652173913043478
 40
0.5652173913043478
 40
0.5652173913043478
 40
0.6086956521739131
 40
0.6086956521739131
 40
0.6086956521739131
 40
0.6086956521739131
 40
0.6521739130434783
 40
0.6521739130434783
 40
0.6521739130434783
 40
0.6521739130434783
 40
0.6956521739130435
 40
0.6956521739130435
 40
0.6956521739130435
 40
0.6956521739130435
 40
0.7391304347826086
 40
0.7391304347826086
 40
0.7391304347826086
 40
0.7391304347826086
 40
0.782608695652174
 40
0.782608695652174
 40
0.782608695652174
 40
0.782608695652174
 40
0.8260869565217391
 40
0.8260869565217391
 40
0.8260869565217391
 40
0.8260869565217391
 40
0.8695652173913043
 40
0.8695652173913043
 40
0.8695652173913043
 40
0.8695652173913043
 40
0.9130434782608695
 40
0.9130434782608695
 40
0.9130434782608695
 40
0.9130434782608695
 40
1.0
 40
1.0
 40
1.0
 40
1.0
 10
-15.2033
 20
29.2803
 30
0.0
 10
-15.2033
 20
29.2803
 30
0.0
 10
-15.2033
 20
28.9538
 30
0.0
 10
-15.2033
 20
28.9538
 30
0.0
 10
-15.2033
 20
28.9538
 30
0.0
 10
-15.2033
 20
28.9538
 30
0.0
 10
-17.0314
 20
28.9538
 30
0.0
 10
-17.0314
 20
28.9538
 30
0.0
 10
-17.0314
 20
28.9538
 30
0.0
 10
-17.034
 20
29.0355
 30
0.0
 10
-17.0212
 20
29.1141
 30
0.0
 10
-16.9922
 20
29.1896
 30
0.0
 10
-16.9922
 20
29.1896
 30
0.0
 10
-16.9457
 20
29.3144
 30
0.0
 10
-16.8711
 20
29.4368
 30
0.0
 10
-16.7687
 20
29.5578
 30
0.0
 10
-16.7687
 20
29.5578
 30
0.0
 10
-16.6657
 20
29.6783
 30
0.0
 10
-16.5175
 20
29.8179
 30
0.0
 10
-16.3244
 20
29.9763
 30
0.0
 10
-16.3244
 20
29.9763
 30
0.0
 10
-16.0237
 20
30.223
 30
0.0
 10
-15.8202
 20
30.4181
 30
0.0
 10
-15.7146
 20
30.5624
 30
0.0
 10
-15.7146
 20
30.5624
 30
0.0
 10
-15.6091
 20
30.706
 30
0.0
 10
-15.5562
 20
30.8425
 30
0.0
 10
-15.5562
 20
30.9706
 30
0.0
 10
-15.5562
 20
30.9706
 30
0.0
 10
-15.5562
 20
31.1052
 30
0.0
 10
-15.6046
 20
31.2185
 30
0.0
 10
-15.7004
 20
31.3112
 30
0.0
 10
-15.7004
 20
31.3112
 30
0.0
 10
-15.797
 20
31.4033
 30
0.0
 10
-15.9226
 20
31.4496
 30
0.0
 10
-16.0771
 20
31.4496
 30
0.0
 10
-16.0771
 20
31.4496
 30
0.0
 10
-16.2407
 20
31.4496
 30
0.0
 10
-16.3715
 20
31.4007
 30
0.0
 10
-16.4693
 20
31.3022
 30
0.0
 10
-16.4693
 20
31.3022
 30
0.0
 10
-16.5678
 20
31.2043
 30
0.0
 10
-16.6173
 20
31.0685
 30
0.0
 10
-16.6187
 20
30.8953
 30
0.0
 10
-16.6187
 20
30.8953
 30
0.0
 10
-16.6187
 20
30.8953
 30
0.0
 10
-16.9676
 20
30.9306
 30
0.0
 10
-16.9676
 20
30.9306
 30
0.0
 10
-16.9676
 20
30.9306
 30
0.0
 10
-16.9438
 20
31.1914
 30
0.0
 10
-16.8537
 20
31.3898
 30
0.0
 10
-16.6978
 20
31.5263
 30
0.0
 10
-16.6978
 20
31.5263
 30
0.0
 10
-16.542
 20
31.6627
 30
0.0
 10
-16.3322
 20
31.7311
 30
0.0
 10
-16.0695
 20
31.7311
 30
0.0
 10
-16.0695
 20
31.7311
 30
0.0
 10
-15.8042
 20
31.7311
 30
0.0
 10
-15.5942
 20
31.657
 30
0.0
 10
-15.4396
 20
31.5102
 30
0.0
 10
-15.4396
 20
31.5102
 30
0.0
 10
-15.2845
 20
31.3627
 30
0.0
 10
-15.2071
 20
31.1805
 30
0.0
 10
-15.2071
 20
30.9628
 30
0.0
 10
-15.2071
 20
30.9628
 30
0.0
 10
-15.2071
 20
30.852
 30
0.0
 10
-15.2297
 20
30.7432
 30
0.0
 10
-15.2755
 20
30.6364
 30
0.0
 10
-15.2755
 20
30.6364
 30
0.0
 10
-15.3205
 20
30.5295
 30
0.0
 10
-15.3959
 20
30.4168
 30
0.0
 10
-15.5008
 20
30.299
 30
0.0
 10
-15.5008
 20
30.299
 30
0.0
 10
-15.6058
 20
30.1804
 30
0.0
 10
-15.7803
 20
30.0182
 30
0.0
 10
-16.0243
 20
29.8122
 30
0.0
 10
-16.0243
 20
29.8122
 30
0.0
 10
-16.2279
 20
29.6409
 30
0.0
 10
-16.3586
 20
29.525
 30
0.0
 10
-16.4165
 20
29.4638
 30
0.0
 10
-16.4165
 20
29.4638
 30
0.0
 10
-16.4744
 20
29.4033
 30
0.0
 10
-16.522
 20
29.3421
 30
0.0
 10
-16.5601
 20
29.2803
 30
0.0
 10
-16.5601
 20
29.2803
 30
0.0
 10
-16.5601
 20
29.2803
 30
0.0
 10
-15.2033
 20
29.2803
 30
0.0
 10
-15.2033
 20
29.2803
 30
0.0
  0
SPLINE
  5
AC
330
1F
100
AcDbEntity
  8
DEFAULT_2
 62
   250
100
AcDbSpline
210
0.0
220
0.0
230
1.0
 70
    11
 71
     3
 72
    20
 73
    16
 74
     0
 42
0.0000000001
 43
0.0000000001
 40
0.0
 40
0.0
 40
0.0
 40
0.0
 40
0.2
 40
0.2
 40
0.2
 40
0.2
 40
0.4
 40
0.4
 40
0.4
 40
0.4
 40
0.6
 40
0.6
 40
0.6
 40
0.6
 40
1.0
 40
1.0
 40
1.0
 40
1.0
 10
-9.5087
 20
29.1311
 30
0.0
 10
-9.5087
 20
29.1311
 30
0.0
 10
-5.3332
 20
28.5418
 30
0.0
 10
-5.3332
 20
28.5418
 30
0.0
 10
-5.3332
 20
28.5418
 30
0.0
 10
-5.3332
 20
28.5418
 30
0.0
 10
-5.3332
 20
28.4109
 30
0.0
 10
-5.3332
 20
28.4109
 30
0.0
 10
-5.3332
 20
28.4109
 30
0.0
 10
-5.3332
 20
28.4109
 30
0.0
 10
-9.5087
 20
27.7825
 30
0.0
 10
-9.5087
 20
27.7825
 30
0.0
 10
-9.5087
 20
27.7825
 30
0.0
 10
-9.5087
 20
27.7825
 30
0.0
 10
-9.5087
 20
29.1311
 30
0.0
 10
-9.5087
 20
29.1311
 30
0.0
  0
SPLINE
  5
AD
330
1F
100
AcDbEntity
  8
DEFAULT_2
 62
   250
100
AcDbSpline
210
0.0
220
0.0
230
1.0
 70
    11
 71
     3
 72
    20
 73
    16
 74
     0
 42
0.0000000001
 43
0.0000000001
 40
0.0
 40
0.0
 40
0.0
 40
0.0
 40
0.2
 40
0.2
 40
0.2
 40
0.2
 40
0.4
 40
0.4
 40
0.4
 40
0.4
 40
0.6
 40
0.6
 40
0.6
 40
0.6
 40
1.0
 40
1.0
 40
1.0
 40
1.0
 10
-24.8249
 20
27.7825
 30
0.0
 10
-24.8249
 20
27.7825
 30
0.0
 10
-29.0002
 20
28.3717
 30
0.0
 10
-29.0002
 20
28.3717
 30
0.0
 10
-29.0002
 20
28.3717
 30
0.0
 10
-29.0002
 20
28.3717
 30
0.0
 10
-29.0002
 20
28.5027
 30
0.0
 10
-29.0002
 20
28.5027
 30
0.0
 10
-29.0002
 20
28.5027
 30
0.0
 10
-29.0002
 20
28.5027
 30
0.0
 10
-24.8249
 20
29.1311
 30
0.0
 10
-24.8249
 20
29.1311
 30
0.0
 10
-24.8249
 20
29.1311
 30
0.0
 10
-24.8249
 20
29.1311
 30
0.0
 10
-24.8249
 20
27.7825
 30
0.0
 10
-24.8249
 20
27.7825
 30
0.0
  0
SPLINE
  5
AE
330
1F
100
AcDbEntity
  8
DEFAULT_2
 62
   250
100
AcDbSpline
210
0.0
220
0.0
230
1.0
 70
    11
 71
     3
 72
    20
 73
    16
 74
     0
 42
0.0000000001
 43
0.0000000001
 40
0.0
 40
0.0
 40
0.0
 40
0.0
 40
0.2
 40
0.2
 40
0.2
 40
0.2
 40
0.4
 40
0.4
 40
0.4
 40
0.4
 40
0.6
 40
0.6
 40
0.6
 40
0.6
 40
1.0
 40
1.0
 40
1.0
 40
1.0
 10
19.056
 20
19.6655
 30
0.0
 10
19.056
 20
19.6655
 30
0.0
 10
19.6452
 20
23.841
 30
0.0
 10
19.6452
 20
23.841
 30
0.0
 10
19.6452
 20
23.841
 30
0.0
 10
19.6452
 20
23.841
 30
0.0
 10
19.7761
 20
23.841
 30
0.0
 10
19.7761
 20
23.841
 30
0.0
 10
19.7761
 20
23.841
 30
0.0
 10
19.7761
 20
23.841
 30
0.0
 10
20.4046
 20
19.6655
 30
0.0
 10
20.4046
 20
19.6655
 30
0.0
 10
20.4046
 20
19.6655
 30
0.0
 10
20.4046
 20
19.6655
 30
0.0
 10
19.056
 20
19.6655
 30
0.0
 10
19.056
 20
19.6655
 30
0.0
  0
SPLINE
  5
AF
330
1F
100
AcDbEntity
  8
DEFAULT_2
 62
   250
100
AcDbSpline
210
0.0
220
0.0
230
1.0
 70
    11
 71
     3
 72
    20
 73
    16
 74
     0
 42
0.0000000001
 43
0.0000000001
 40
0.0
 40
0.0
 40
0.0
 40
0.0
 40
0.2
 40
0.2
 40
0.2
 40
0.2
 40
0.4
 40
0.4
 40
0.4
 40
0.4
 40
0.6
 40
0.6
 40
0.6
 40
0.6
 40
1.0
 40
1.0
 40
1.0
 40
1.0
 10
20.3601
 20
2.2216
 30
0.0
 10
20.3601
 20
2.2216
 30
0.0
 10
19.7708
 20
-1.9537
 30
0.0
 10
19.7708
 20
-1.9537
 30
0.0
 10
19.7708
 20
-1.9537
 30
0.0
 10
19.7708
 20
-1.9537
 30
0.0
 10
19.6399
 20
-1.9537
 30
0.0
 10
19.6399
 20
-1.9537
 30
0.0
 10
19.6399
 20
-1.9537
 30
0.0
 10
19.6399
 20
-1.9537
 30
0.0
 10
19.0115
 20
2.2216
 30
0.0
 10
19.0115
 20
2.2216
 30
0.0
 10
19.0115
 20
2.2216
 30
0.0
 10
19.0115
 20
2.2216
 30
0.0
 10
20.3601
 20
2.2216
 30
0.0
 10
20.3601
 20
2.2216
 30
0.0
  0
SPLINE
  5
B0
330
1F
100
AcDbEntity
  8
DEFAULT_2
 62
   250
100
AcDbSpline
210
0.0
220
0.0
230
1.0
 70
    11
 71
     3
 72
   124
 73
   120
 74
     0
 42
0.0000000001
 43
0.0000000001
 40
0.0
 40
0.0
 40
0.0
 40
0.0
 40
0.032258064516129
 40
0.032258064516129
 40
0.032258064516129
 40
0.032258064516129
 40
0.0645161290322581
 40
0.0645161290322581
 40
0.0645161290322581
 40
0.0645161290322581
 40
0.0967741935483871
 40
0.0967741935483871
 40
0.0967741935483871
 40
0.0967741935483871
 40
0.1290322580645161
 40
0.1290322580645161
 40
0.1290322580645161
 40
0.1290322580645161
 40
0.1612903225806452
 40
0.1612903225806452
 40
0.1612903225806452
 40
0.1612903225806452
 40
0.1935483870967742
 40
0.1935483870967742
 40
0.1935483870967742
 40
0.1935483870967742
 40
0.2258064516129032
 40
0.2258064516129032
 40
0.2258064516129032
 40
0.2258064516129032
 40
0.2580645161290323
 40
0.2580645161290323
 40
0.2580645161290323
 40
0.2580645161290323
 40
0.2903225806451613
 40
0.2903225806451613
 40
0.2903225806451613
 40
0.2903225806451613
 40
0.3225806451612903
 40
0.3225806451612903
 40
0.3225806451612903
 40
0.3225806451612903
 40
0.3548387096774194
 40
0.3548387096774194
 40
0.3548387096774194
 40
0.3548387096774194
 40
0.3870967741935484
 40
0.3870967741935484
 40
0.3870967741935484
 40
0.3870967741935484
 40
0.4193548387096774
 40
0.4193548387096774
 40
0.4193548387096774
 40
0.4193548387096774
 40
0.4516129032258064
 40
0.4516129032258064
 40
0.4516129032258064
 40
0.4516129032258064
 40
0.4838709677419355
 40
0.4838709677419355
 40
0.4838709677419355
 40
0.4838709677419355
 40
0.5161290322580645
 40
0.5161290322580645
 40
0.5161290322580645
 40
0.5161290322580645
 40
0.5483870967741935
 40
0.5483870967741935
 40
0.5483870967741935
 40
0.5483870967741935
 40
0.5806451612903226
 40
0.5806451612903226
 40
0.5806451612903226
 40
0.5806451612903226
 40
0.6129032258064516
 40
0.6129032258064516
 40
0.6129032258064516
 40
0.6129032258064516
 40
0.6451612903225806
 40
0.6451612903225806
 40
0.6451612903225806
 40
0.6451612903225806
 40
0.6774193548387096
 40
0.6774193548387096
 40
0.6774193548387096
 40
0.6774193548387096
 40
0.7096774193548387
 40
0.7096774193548387
 40
0.7096774193548387
 40
0.7096774193548387
 40
0.7419354838709677
 40
0.7419354838709677
 40
0.7419354838709677
 40
0.7419354838709677
 40
0.7741935483870968
 40
0.7741935483870968
 40
0.7741935483870968
 40
0.7741935483870968
 40
0.8064516129032258
 40
0.8064516129032258
 40
0.8064516129032258
 40
0.8064516129032258
 40
0.8387096774193549
 40
0.8387096774193549
 40
0.8387096774193549
 40
0.8387096774193549
 40
0.8709677419354839
 40
0.8709677419354839
 40
0.8709677419354839
 40
0.8709677419354839
 40
0.9032258064516129
 40
0.9032258064516129
 40
0.9032258064516129
 40
0.9032258064516129
 40
0.9354838709677419
 40
0.9354838709677419
 40
0.9354838709677419
 40
0.9354838709677419
 40
1.0
 40
1.0
 40
1.0
 40
1.0
 10
18.2196
 20
9.4179
 30
0.0
 10
18.2196
 20
9.4179
 30
0.0
 10
18.1745
 20
9.7573
 30
0.0
 10
18.1745
 20
9.7573
 30
0.0
 10
18.1745
 20
9.7573
 30
0.0
 10
18.367
 20
9.7966
 30
0.0
 10
18.5054
 20
9.863
 30
0.0
 10
18.5904
 20
9.9563
 30
0.0
 10
18.5904
 20
9.9563
 30
0.0
 10
18.6754
 20
10.0502
 30
0.0
 10
18.718
 20
10.1643
 30
0.0
 10
18.718
 20
10.2988
 30
0.0
 10
18.718
 20
10.2988
 30
0.0
 10
18.718
 20
10.4585
 30
0.0
 10
18.6626
 20
10.5937
 30
0.0
 10
18.5518
 20
10.7039
 30
0.0
 10
18.5518
 20
10.7039
 30
0.0
 10
18.4411
 20
10.8133
 30
0.0
 10
18.3039
 20
10.8687
 30
0.0
 10
18.1403
 20
10.8687
 30
0.0
 10
18.1403
 20
10.8687
 30
0.0
 10
17.9845
 20
10.8687
 30
0.0
 10
17.8557
 20
10.8178
 30
0.0
 10
17.7547
 20
10.7161
 30
0.0
 10
17.7547
 20
10.7161
 30
0.0
 10
17.6536
 20
10.6137
 30
0.0
 10
17.6027
 20
10.4843
 30
0.0
 10
17.6027
 20
10.3272
 30
0.0
 10
17.6027
 20
10.3272
 30
0.0
 10
17.6027
 20
10.2628
 30
0.0
 10
17.6156
 20
10.1829
 30
0.0
 10
17.6406
 20
10.0876
 30
0.0
 10
17.6406
 20
10.0876
 30
0.0
 10
17.6406
 20
10.0876
 30
0.0
 10
17.3426
 20
10.1257
 30
0.0
 10
17.3426
 20
10.1257
 30
0.0
 10
17.3426
 20
10.1257
 30
0.0
 10
17.3451
 20
10.1481
 30
0.0
 10
17.3465
 20
10.1662
 30
0.0
 10
17.3465
 20
10.1803
 30
0.0
 10
17.3465
 20
10.1803
 30
0.0
 10
17.3465
 20
10.3246
 30
0.0
 10
17.3084
 20
10.4546
 30
0.0
 10
17.2331
 20
10.5706
 30
0.0
 10
17.2331
 20
10.5706
 30
0.0
 10
17.1578
 20
10.6865
 30
0.0
 10
17.0412
 20
10.7444
 30
0.0
 10
16.8841
 20
10.7444
 30
0.0
 10
16.8841
 20
10.7444
 30
0.0
 10
16.7598
 20
10.7444
 30
0.0
 10
16.6562
 20
10.7019
 30
0.0
 10
16.575
 20
10.6175
 30
0.0
 10
16.575
 20
10.6175
 30
0.0
 10
16.4933
 20
10.5332
 30
0.0
 10
16.452
 20
10.4244
 30
0.0
 10
16.452
 20
10.291
 30
0.0
 10
16.452
 20
10.291
 30
0.0
 10
16.452
 20
10.1591
 30
0.0
 10
16.4939
 20
10.049
 30
0.0
 10
16.5763
 20
9.9614
 30
0.0
 10
16.5763
 20
9.9614
 30
0.0
 10
16.6594
 20
9.8732
 30
0.0
 10
16.7844
 20
9.8166
 30
0.0
 10
16.9504
 20
9.7914
 30
0.0
 10
16.9504
 20
9.7914
 30
0.0
 10
16.9504
 20
9.7914
 30
0.0
 10
16.8899
 20
9.4521
 30
0.0
 10
16.8899
 20
9.4521
 30
0.0
 10
16.8899
 20
9.4521
 30
0.0
 10
16.662
 20
9.4933
 30
0.0
 10
16.4855
 20
9.5879
 30
0.0
 10
16.3607
 20
9.7348
 30
0.0
 10
16.3607
 20
9.7348
 30
0.0
 10
16.2357
 20
9.8823
 30
0.0
 10
16.1726
 20
10.0652
 30
0.0
 10
16.1726
 20
10.2841
 30
0.0
 10
16.1726
 20
10.2841
 30
0.0
 10
16.1726
 20
10.4346
 30
0.0
 10
16.2054
 20
10.5737
 30
0.0
 10
16.2698
 20
10.7006
 30
0.0
 10
16.2698
 20
10.7006
 30
0.0
 10
16.3348
 20
10.8275
 30
0.0
 10
16.4231
 20
10.9247
 30
0.0
 10
16.5351
 20
10.9924
 30
0.0
 10
16.5351
 20
10.9924
 30
0.0
 10
16.6472
 20
11.0593
 30
0.0
 10
16.7656
 20
11.0934
 30
0.0
 10
16.8918
 20
11.0934
 30
0.0
 10
16.8918
 20
11.0934
 30
0.0
 10
17.0109
 20
11.0934
 30
0.0
 10
17.1197
 20
11.0612
 30
0.0
 10
17.2183
 20
10.9969
 30
0.0
 10
17.2183
 20
10.9969
 30
0.0
 10
17.3162
 20
10.9324
 30
0.0
 10
17.3941
 20
10.8378
 30
0.0
 10
17.452
 20
10.7123
 30
0.0
 10
17.452
 20
10.7123
 30
0.0
 10
17.4894
 20
10.8757
 30
0.0
 10
17.568
 20
11.0026
 30
0.0
 10
17.6871
 20
11.0934
 30
0.0
 10
17.6871
 20
11.0934
 30
0.0
 10
17.8056
 20
11.1836
 30
0.0
 10
17.9543
 20
11.2286
 30
0.0
 10
18.1327
 20
11.2286
 30
0.0
 10
18.1327
 20
11.2286
 30
0.0
 10
18.3741
 20
11.2286
 30
0.0
 10
18.5789
 20
11.141
 30
0.0
 10
18.7469
 20
10.9647
 30
0.0
 10
18.7469
 20
10.9647
 30
0.0
 10
18.915
 20
10.7888
 30
0.0
 10
18.9987
 20
10.5661
 30
0.0
 10
18.9987
 20
10.2969
 30
0.0
 10
18.9987
 20
10.2969
 30
0.0
 10
18.9987
 20
10.0542
 30
0.0
 10
18.9267
 20
9.8526
 30
0.0
 10
18.7817
 20
9.6923
 30
0.0
 10
18.7817
 20
9.6923
 30
0.0
 10
18.6375
 20
9.5319
 30
0.0
 10
18.4501
 20
9.4405
 30
0.0
 10
18.2196
 20
9.4179
 30
0.0
  0
SPLINE
  5
B1
330
1F
100
AcDbEntity
  8
DEFAULT_2
 62
   250
100
AcDbSpline
210
0.0
220
0.0
230
1.0
 70
    11
 71
     3
 72
    92
 73
    88
 74
     0
 42
0.0000000001
 43
0.0000000001
 40
0.0
 40
0.0
 40
0.0
 40
0.0
 40
0.0434782608695652
 40
0.0434782608695652
 40
0.0434782608695652
 40
0.0434782608695652
 40
0.0869565217391304
 40
0.0869565217391304
 40
0.0869565217391304
 40
0.0869565217391304
 40
0.1304347826086956
 40
0.1304347826086956
 40
0.1304347826086956
 40
0.1304347826086956
 40
0.1739130434782609
 40
0.1739130434782609
 40
0.1739130434782609
 40
0.1739130434782609
 40
0.2173913043478261
 40
0.2173913043478261
 40
0.2173913043478261
 40
0.2173913043478261
 40
0.2608695652173913
 40
0.2608695652173913
 40
0.2608695652173913
 40
0.2608695652173913
 40
0.3043478260869565
 40
0.3043478260869565
 40
0.3043478260869565
 40
0.3043478260869565
 40
0.3478260869565217
 40
0.3478260869565217
 40
0.3478260869565217
 40
0.3478260869565217
 40
0.391304347826087
 40
0.391304347826087
 40
0.391304347826087
 40
0.391304347826087
 40
0.4347826086956522
 40
0.4347826086956522
 40
0.4347826086956522
 40
0.4347826086956522
 40
0.4782608695652174
 40
0.4782608695652174
 40
0.4782608695652174
 40
0.4782608695652174
 40
0.5217391304347826
 40
0.5217391304347826
 40
0.5217391304347826
 40
0.5217391304347826
 40
0.5652173913043478
 40
0.5652173913043478
 40
0.5652173913043478
 40
0.5652173913043478
 40
0.6086956521739131
 40
0.6086956521739131
 40
0.6086956521739131
 40
0.6086956521739131
 40
0.6521739130434783
 40
0.6521739130434783
 40
0.6521739130434783
 40
0.6521739130434783
 40
0.6956521739130435
 40
0.6956521739130435
 40
0.6956521739130435
 40
0.6956521739130435
 40
0.7391304347826086
 40
0.7391304347826086
 40
0.7391304347826086
 40
0.7391304347826086
 40
0.782608695652174
 40
0.782608695652174
 40
0.782608695652174
 40
0.782608695652174
 40
0.8260869565217391
 40
0.8260869565217391
 40
0.8260869565217391
 40
0.8260869565217391
 40
0.8695652173913043
 40
0.8695652173913043
 40
0.8695652173913043
 40
0.8695652173913043
 40
0.9130434782608695
 40
0.9130434782608695
 40
0.9130434782608695
 40
0.9130434782608695
 40
1.0
 40
1.0
 40
1.0
 40
1.0
 10
18.2253
 20
11.5647
 30
0.0
 10
18.2253
 20
11.5647
 30
0.0
 10
18.1951
 20
11.9215
 30
0.0
 10
18.1951
 20
11.9215
 30
0.0
 10
18.1951
 20
11.9215
 30
0.0
 10
18.3689
 20
11.9479
 30
0.0
 10
18.499
 20
12.0091
 30
0.0
 10
18.5866
 20
12.1051
 30
0.0
 10
18.5866
 20
12.1051
 30
0.0
 10
18.6742
 20
12.2016
 30
0.0
 10
18.718
 20
12.3175
 30
0.0
 10
18.718
 20
12.4533
 30
0.0
 10
18.718
 20
12.4533
 30
0.0
 10
18.718
 20
12.6169
 30
0.0
 10
18.6561
 20
12.7553
 30
0.0
 10
18.5332
 20
12.868
 30
0.0
 10
18.5332
 20
12.868
 30
0.0
 10
18.4096
 20
12.9813
 30
0.0
 10
18.246
 20
13.038
 30
0.0
 10
18.0426
 20
13.038
 30
0.0
 10
18.0426
 20
13.038
 30
0.0
 10
17.8487
 20
13.038
 30
0.0
 10
17.6961
 20
12.9839
 30
0.0
 10
17.5841
 20
12.8751
 30
0.0
 10
17.5841
 20
12.8751
 30
0.0
 10
17.472
 20
12.7663
 30
0.0
 10
17.416
 20
12.624
 30
0.0
 10
17.416
 20
12.4476
 30
0.0
 10
17.416
 20
12.4476
 30
0.0
 10
17.416
 20
12.3381
 30
0.0
 10
17.441
 20
12.2396
 30
0.0
 10
17.4906
 20
12.1513
 30
0.0
 10
17.4906
 20
12.1513
 30
0.0
 10
17.5403
 20
12.0632
 30
0.0
 10
17.6046
 20
11.9943
 30
0.0
 10
17.6839
 20
11.9441
 30
0.0
 10
17.6839
 20
11.9441
 30
0.0
 10
17.6839
 20
11.9441
 30
0.0
 10
17.6427
 20
11.6252
 30
0.0
 10
17.6427
 20
11.6252
 30
0.0
 10
17.6427
 20
11.6252
 30
0.0
 10
17.6427
 20
11.6252
 30
0.0
 10
16.2221
 20
11.8931
 30
0.0
 10
16.2221
 20
11.8931
 30
0.0
 10
16.2221
 20
11.8931
 30
0.0
 10
16.2221
 20
11.8931
 30
0.0
 10
16.2221
 20
13.2686
 30
0.0
 10
16.2221
 20
13.2686
 30
0.0
 10
16.2221
 20
13.2686
 30
0.0
 10
16.2221
 20
13.2686
 30
0.0
 10
16.5467
 20
13.2686
 30
0.0
 10
16.5467
 20
13.2686
 30
0.0
 10
16.5467
 20
13.2686
 30
0.0
 10
16.5467
 20
13.2686
 30
0.0
 10
16.5467
 20
12.1649
 30
0.0
 10
16.5467
 20
12.1649
 30
0.0
 10
16.5467
 20
12.1649
 30
0.0
 10
16.5467
 20
12.1649
 30
0.0
 10
17.2898
 20
12.0155
 30
0.0
 10
17.2898
 20
12.0155
 30
0.0
 10
17.2898
 20
12.0155
 30
0.0
 10
17.1738
 20
12.1816
 30
0.0
 10
17.1159
 20
12.3561
 30
0.0
 10
17.1159
 20
12.5383
 30
0.0
 10
17.1159
 20
12.5383
 30
0.0
 10
17.1159
 20
12.7798
 30
0.0
 10
17.1996
 20
12.9833
 30
0.0
 10
17.367
 20
13.1495
 30
0.0
 10
17.367
 20
13.1495
 30
0.0
 10
17.5344
 20
13.3155
 30
0.0
 10
17.7495
 20
13.3986
 30
0.0
 10
18.0122
 20
13.3986
 30
0.0
 10
18.0122
 20
13.3986
 30
0.0
 10
18.2627
 20
13.3986
 30
0.0
 10
18.4791
 20
13.3252
 30
0.0
 10
18.6613
 20
13.1797
 30
0.0
 10
18.6613
 20
13.1797
 30
0.0
 10
18.8848
 20
13.002
 30
0.0
 10
18.9967
 20
12.7598
 30
0.0
 10
18.9967
 20
12.4533
 30
0.0
 10
18.9967
 20
12.4533
 30
0.0
 10
18.9967
 20
12.2016
 30
0.0
 10
18.9267
 20
11.9962
 30
0.0
 10
18.7857
 20
11.8372
 30
0.0
 10
18.7857
 20
11.8372
 30
0.0
 10
18.6445
 20
11.6781
 30
0.0
 10
18.4578
 20
11.5873
 30
0.0
 10
18.2253
 20
11.5647
 30
0.0
  0
SPLINE
  5
B2
330
1F
100
AcDbEntity
  8
DEFAULT_2
 62
   250
100
AcDbSpline
210
0.0
220
0.0
230
1.0
 70
    11
 71
     3
 72
    20
 73
    16
 74
     0
 42
0.0000000001
 43
0.0000000001
 40
0.0
 40
0.0
 40
0.0
 40
0.0
 40
0.2
 40
0.2
 40
0.2
 40
0.2
 40
0.4
 40
0.4
 40
0.4
 40
0.4
 40
0.6
 40
0.6
 40
0.6
 40
0.6
 40
1.0
 40
1.0
 40
1.0
 40
1.0
 10
21.1063
 20
-7.3464
 30
0.0
 10
21.1063
 20
-7.3464
 30
0.0
 10
25.2818
 20
-7.9356
 30
0.0
 10
25.2818
 20
-7.9356
 30
0.0
 10
25.2818
 20
-7.9356
 30
0.0
 10
25.2818
 20
-7.9356
 30
0.0
 10
25.2818
 20
-8.0665
 30
0.0
 10
25.2818
 20
-8.0665
 30
0.0
 10
25.2818
 20
-8.0665
 30
0.0
 10
25.2818
 20
-8.0665
 30
0.0
 10
21.1063
 20
-8.695
 30
0.0
 10
21.1063
 20
-8.695
 30
0.0
 10
21.1063
 20
-8.695
 30
0.0
 10
21.1063
 20
-8.695
 30
0.0
 10
21.1063
 20
-7.3464
 30
0.0
 10
21.1063
 20
-7.3464
 30
0.0
  0
SPLINE
  5
B3
330
1F
100
AcDbEntity
  8
DEFAULT_2
 62
   250
100
AcDbSpline
210
0.0
220
0.0
230
1.0
 70
    11
 71
     3
 72
    20
 73
    16
 74
     0
 42
0.0000000001
 43
0.0000000001
 40
0.0
 40
0.0
 40
0.0
 40
0.0
 40
0.2
 40
0.2
 40
0.2
 40
0.2
 40
0.4
 40
0.4
 40
0.4
 40
0.4
 40
0.6
 40
0.6
 40
0.6
 40
0.6
 40
1.0
 40
1.0
 40
1.0
 40
1.0
 10
30.3662
 20
-8.6418
 30
0.0
 10
30.3662
 20
-8.6418
 30
0.0
 10
26.1908
 20
-8.0525
 30
0.0
 10
26.1908
 20
-8.0525
 30
0.0
 10
26.1908
 20
-8.0525
 30
0.0
 10
26.1908
 20
-8.0525
 30
0.0
 10
26.1908
 20
-7.9216
 30
0.0
 10
26.1908
 20
-7.9216
 30
0.0
 10
26.1908
 20
-7.9216
 30
0.0
 10
26.1908
 20
-7.9216
 30
0.0
 10
30.3662
 20
-7.2933
 30
0.0
 10
30.3662
 20
-7.2933
 30
0.0
 10
30.3662
 20
-7.2933
 30
0.0
 10
30.3662
 20
-7.2933
 30
0.0
 10
30.3662
 20
-8.6418
 30
0.0
 10
30.3662
 20
-8.6418
 30
0.0
  0
SPLINE
  5
B4
330
1F
100
AcDbEntity
  8
DEFAULT_2
 62
   250
100
AcDbSpline
210
0.0
220
0.0
230
1.0
 70
    11
 71
     3
 72
    40
 73
    36
 74
     0
 42
0.0000000001
 43
0.0000000001
 40
0.0
 40
0.0
 40
0.0
 40
0.0
 40
0.1
 40
0.1
 40
0.1
 40
0.1
 40
0.2
 40
0.2
 40
0.2
 40
0.2
 40
0.3
 40
0.3
 40
0.3
 40
0.3
 40
0.4
 40
0.4
 40
0.4
 40
0.4
 40
0.5
 40
0.5
 40
0.5
 40
0.5
 40
0.6
 40
0.6
 40
0.6
 40
0.6
 40
0.7
 40
0.7
 40
0.7
 40
0.7
 40
0.8
 40
0.8
 40
0.8
 40
0.8
 40
1.0
 40
1.0
 40
1.0
 40
1.0
 10
20.7523
 20
-7.0562
 30
0.0
 10
20.7523
 20
-7.0562
 30
0.0
 10
20.4129
 20
-7.0562
 30
0.0
 10
20.4129
 20
-7.0562
 30
0.0
 10
20.4129
 20
-7.0562
 30
0.0
 10
20.4129
 20
-7.0562
 30
0.0
 10
20.4129
 20
-4.8926
 30
0.0
 10
20.4129
 20
-4.8926
 30
0.0
 10
20.4129
 20
-4.8926
 30
0.0
 10
20.3311
 20
-4.9705
 30
0.0
 10
20.2243
 20
-5.0484
 30
0.0
 10
20.0916
 20
-5.1263
 30
0.0
 10
20.0916
 20
-5.1263
 30
0.0
 10
19.9583
 20
-5.2042
 30
0.0
 10
19.8392
 20
-5.2628
 30
0.0
 10
19.7335
 20
-5.3015
 30
0.0
 10
19.7335
 20
-5.3015
 30
0.0
 10
19.7335
 20
-5.3015
 30
0.0
 10
19.7335
 20
-4.9737
 30
0.0
 10
19.7335
 20
-4.9737
 30
0.0
 10
19.7335
 20
-4.9737
 30
0.0
 10
19.9235
 20
-4.8843
 30
0.0
 10
20.0897
 20
-4.776
 30
0.0
 10
20.232
 20
-4.6492
 30
0.0
 10
20.232
 20
-4.6492
 30
0.0
 10
20.3737
 20
-4.5216
 30
0.0
 10
20.4747
 20
-4.3987
 30
0.0
 10
20.534
 20
-4.2789
 30
0.0
 10
20.534
 20
-4.2789
 30
0.0
 10
20.534
 20
-4.2789
 30
0.0
 10
20.7523
 20
-4.2789
 30
0.0
 10
20.7523
 20
-4.2789
 30
0.0
 10
20.7523
 20
-4.2789
 30
0.0
 10
20.7523
 20
-4.2789
 30
0.0
 10
20.7523
 20
-7.0562
 30
0.0
 10
20.7523
 20
-7.0562
 30
0.0
  0
SPLINE
  5
B5
330
1F
100
AcDbEntity
  8
DEFAULT_2
 62
   250
100
AcDbSpline
210
0.0
220
0.0
230
1.0
 70
    24
 71
     3
 72
     8
 73
     4
 74
     0
 42
0.0000000001
 43
0.0000000001
 40
0.0
 40
0.0
 40
0.0
 40
0.0
 40
1.0
 40
1.0
 40
1.0
 40
1.0
 10
29.3178
 20
-18.3169
 30
0.0
 10
29.3178
 20
-18.3169
 30
0.0
 10
42.9391
 20
-18.3169
 30
0.0
 10
42.9391
 20
-18.3169
 30
0.0
  0
SPLINE
  5
B6
330
1F
100
AcDbEntity
  8
DEFAULT_2
 62
   250
100
AcDbSpline
210
0.0
220
0.0
230
1.0
 70
    11
 71
     3
 72
    20
 73
    16
 74
     0
 42
0.0000000001
 43
0.0000000001
 40
0.0
 40
0.0
 40
0.0
 40
0.0
 40
0.2
 40
0.2
 40
0.2
 40
0.2
 40
0.4
 40
0.4
 40
0.4
 40
0.4
 40
0.6
 40
0.6
 40
0.6
 40
0.6
 40
1.0
 40
1.0
 40
1.0
 40
1.0
 10
32.1383
 20
-17.6216
 30
0.0
 10
32.1383
 20
-17.6216
 30
0.0
 10
36.3137
 20
-18.2108
 30
0.0
 10
36.3137
 20
-18.2108
 30
0.0
 10
36.3137
 20
-18.2108
 30
0.0
 10
36.3137
 20
-18.2108
 30
0.0
 10
36.3137
 20
-18.3417
 30
0.0
 10
36.3137
 20
-18.3417
 30
0.0
 10
36.3137
 20
-18.3417
 30
0.0
 10
36.3137
 20
-18.3417
 30
0.0
 10
32.1383
 20
-18.9702
 30
0.0
 10
32.1383
 20
-18.9702
 30
0.0
 10
32.1383
 20
-18.9702
 30
0.0
 10
32.1383
 20
-18.9702
 30
0.0
 10
32.1383
 20
-17.6216
 30
0.0
 10
32.1383
 20
-17.6216
 30
0.0
  0
SPLINE
  5
B7
330
1F
100
AcDbEntity
  8
DEFAULT_2
 62
   250
100
AcDbSpline
210
0.0
220
0.0
230
1.0
 70
    11
 71
     3
 72
    20
 73
    16
 74
     0
 42
0.0000000001
 43
0.0000000001
 40
0.0
 40
0.0
 40
0.0
 40
0.0
 40
0.2
 40
0.2
 40
0.2
 40
0.2
 40
0.4
 40
0.4
 40
0.4
 40
0.4
 40
0.6
 40
0.6
 40
0.6
 40
0.6
 40
1.0
 40
1.0
 40
1.0
 40
1.0
 10
41.5945
 20
-18.985
 30
0.0
 10
41.5945
 20
-18.985
 30
0.0
 10
37.419
 20
-18.3956
 30
0.0
 10
37.419
 20
-18.3956
 30
0.0
 10
37.419
 20
-18.3956
 30
0.0
 10
37.419
 20
-18.3956
 30
0.0
 10
37.419
 20
-18.2648
 30
0.0
 10
37.419
 20
-18.2648
 30
0.0
 10
37.419
 20
-18.2648
 30
0.0
 10
37.419
 20
-18.2648
 30
0.0
 10
41.5945
 20
-17.6364
 30
0.0
 10
41.5945
 20
-17.6364
 30
0.0
 10
41.5945
 20
-17.6364
 30
0.0
 10
41.5945
 20
-17.6364
 30
0.0
 10
41.5945
 20
-18.985
 30
0.0
 10
41.5945
 20
-18.985
 30
0.0
  0
SPLINE
  5
B8
330
1F
100
AcDbEntity
  8
DEFAULT_2
 62
   250
100
AcDbSpline
210
0.0
220
0.0
230
1.0
 70
    11
 71
     3
 72
    40
 73
    36
 74
     0
 42
0.0000000001
 43
0.0000000001
 40
0.0
 40
0.0
 40
0.0
 40
0.0
 40
0.1
 40
0.1
 40
0.1
 40
0.1
 40
0.2
 40
0.2
 40
0.2
 40
0.2
 40
0.3
 40
0.3
 40
0.3
 40
0.3
 40
0.4
 40
0.4
 40
0.4
 40
0.4
 40
0.5
 40
0.5
 40
0.5
 40
0.5
 40
0.6
 40
0.6
 40
0.6
 40
0.6
 40
0.7
 40
0.7
 40
0.7
 40
0.7
 40
0.8
 40
0.8
 40
0.8
 40
0.8
 40
1.0
 40
1.0
 40
1.0
 40
1.0
 10
31.7126
 20
-17.3452
 30
0.0
 10
31.7126
 20
-17.3452
 30
0.0
 10
31.3732
 20
-17.3452
 30
0.0
 10
31.3732
 20
-17.3452
 30
0.0
 10
31.3732
 20
-17.3452
 30
0.0
 10
31.3732
 20
-17.3452
 30
0.0
 10
31.3732
 20
-15.1817
 30
0.0
 10
31.3732
 20
-15.1817
 30
0.0
 10
31.3732
 20
-15.1817
 30
0.0
 10
31.2913
 20
-15.2596
 30
0.0
 10
31.1846
 20
-15.3375
 30
0.0
 10
31.0519
 20
-15.4154
 30
0.0
 10
31.0519
 20
-15.4154
 30
0.0
 10
30.9186
 20
-15.4933
 30
0.0
 10
30.7995
 20
-15.5519
 30
0.0
 10
30.6938
 20
-15.5906
 30
0.0
 10
30.6938
 20
-15.5906
 30
0.0
 10
30.6938
 20
-15.5906
 30
0.0
 10
30.6938
 20
-15.2627
 30
0.0
 10
30.6938
 20
-15.2627
 30
0.0
 10
30.6938
 20
-15.2627
 30
0.0
 10
30.8838
 20
-15.1733
 30
0.0
 10
31.05
 20
-15.0651
 30
0.0
 10
31.1922
 20
-14.9383
 30
0.0
 10
31.1922
 20
-14.9383
 30
0.0
 10
31.3339
 20
-14.8107
 30
0.0
 10
31.4349
 20
-14.6878
 30
0.0
 10
31.4942
 20
-14.568
 30
0.0
 10
31.4942
 20
-14.568
 30
0.0
 10
31.4942
 20
-14.568
 30
0.0
 10
31.7126
 20
-14.568
 30
0.0
 10
31.7126
 20
-14.568
 30
0.0
 10
31.7126
 20
-14.568
 30
0.0
 10
31.7126
 20
-14.568
 30
0.0
 10
31.7126
 20
-17.3452
 30
0.0
 10
31.7126
 20
-17.3452
 30
0.0
  0
SPLINE
  5
B9
330
1F
100
AcDbEntity
  8
DEFAULT_2
 62
   250
100
AcDbSpline
210
0.0
220
0.0
230
1.0
 70
    11
 71
     3
 72
    20
 73
    16
 74
     0
 42
0.0000000001
 43
0.0000000001
 40
0.0
 40
0.0
 40
0.0
 40
0.0
 40
0.2
 40
0.2
 40
0.2
 40
0.2
 40
0.4
 40
0.4
 40
0.4
 40
0.4
 40
0.6
 40
0.6
 40
0.6
 40
0.6
 40
1.0
 40
1.0
 40
1.0
 40
1.0
 10
32.2306
 20
30.7985
 30
0.0
 10
32.2306
 20
30.7985
 30
0.0
 10
36.406
 20
30.2092
 30
0.0
 10
36.406
 20
30.2092
 30
0.0
 10
36.406
 20
30.2092
 30
0.0
 10
36.406
 20
30.2092
 30
0.0
 10
36.406
 20
30.0783
 30
0.0
 10
36.406
 20
30.0783
 30
0.0
 10
36.406
 20
30.0783
 30
0.0
 10
36.406
 20
30.0783
 30
0.0
 10
32.2306
 20
29.4499
 30
0.0
 10
32.2306
 20
29.4499
 30
0.0
 10
32.2306
 20
29.4499
 30
0.0
 10
32.2306
 20
29.4499
 30
0.0
 10
32.2306
 20
30.7985
 30
0.0
 10
32.2306
 20
30.7985
 30
0.0
  0
SPLINE
  5
BA
330
1F
100
AcDbEntity
  8
DEFAULT_2
 62
   250
100
AcDbSpline
210
0.0
220
0.0
230
1.0
 70
    11
 71
     3
 72
    20
 73
    16
 74
     0
 42
0.0000000001
 43
0.0000000001
 40
0.0
 40
0.0
 40
0.0
 40
0.0
 40
0.2
 40
0.2
 40
0.2
 40
0.2
 40
0.4
 40
0.4
 40
0.4
 40
0.4
 40
0.6
 40
0.6
 40
0.6
 40
0.6
 40
1.0
 40
1.0
 40
1.0
 40
1.0
 10
49.6939
 20
29.4657
 30
0.0
 10
49.6939
 20
29.4657
 30
0.0
 10
45.5184
 20
30.055
 30
0.0
 10
45.5184
 20
30.055
 30
0.0
 10
45.5184
 20
30.055
 30
0.0
 10
45.5184
 20
30.055
 30
0.0
 10
45.5184
 20
30.1859
 30
0.0
 10
45.5184
 20
30.1859
 30
0.0
 10
45.5184
 20
30.1859
 30
0.0
 10
45.5184
 20
30.1859
 30
0.0
 10
49.6939
 20
30.8143
 30
0.0
 10
49.6939
 20
30.8143
 30
0.0
 10
49.6939
 20
30.8143
 30
0.0
 10
49.6939
 20
30.8143
 30
0.0
 10
49.6939
 20
29.4657
 30
0.0
 10
49.6939
 20
29.4657
 30
0.0
  0
ENDSEC
  0
SECTION
  2
OBJECTS
  0
DICTIONARY
  5
C
330
0
100
AcDbDictionary
  3
ACAD_GROUP
350
D
  3
ACAD_LAYOUT
350
1A
  3
ACAD_MATERIAL
350
3B
  3
ACAD_MLEADERSTYLE
350
DD
  3
ACAD_MLINESTYLE
350
17
  3
ACAD_PLOTSETTINGS
350
19
  3
ACAD_VISUALSTYLE
350
2A
  3
ACDBHEADERROUNDTRIPXREC
350
BB
  3
ACDBVARIABLEDICTIONARY
350
DB
  0
DICTIONARY
  5
D
102
{ACAD_REACTORS
330
C
102
}
330
C
100
AcDbDictionary
  0
DICTIONARY
  5
1A
102
{ACAD_REACTORS
330
C
102
}
330
C
100
AcDbDictionary
  0
DICTIONARY
  5
3B
102
{ACAD_REACTORS
330
C
102
}
330
C
100
AcDbDictionary
  3
BYBLOCK
350
3D
  3
BYLAYER
350
3C
  3
GLOBAL
350
3E
  0
DICTIONARY
  5
DD
102
{ACAD_REACTORS
330
C
102
}
330
C
100
AcDbDictionary
  0
DICTIONARY
  5
17
102
{ACAD_REACTORS
330
C
102
}
330
C
100
AcDbDictionary
  3
STANDARD
350
18
  0
DICTIONARY
  5
19
102
{ACAD_REACTORS
330
C
102
}
330
C
100
AcDbDictionary
  0
DICTIONARY
  5
2A
102
{ACAD_REACTORS
330
C
102
}
330
C
100
AcDbDictionary
  3
2DWIREFRAME
350
2F
  3
3D_HIDDEN
350
31
  3
3DWIREFRAME
350
30
  3
BASIC
350
32
  3
BRIGHTEN
350
36
  3
COLORCHANGE
350
3A
  3
CONCEPTUAL
350
34
  3
DIM
350
35
  3
FACEPATTERN
350
39
  3
FLAT
350
2B
  3
FLATWITHEDGES
350
2C
  3
GOURAUD
350
2D
  3
GOURAUDWITHEDGES
350
2E
  3
LINEPATTERN
350
38
  3
REALISTIC
350
33
  3
THICKEN
350
37
  0
DICTIONARY
  5
BB
102
{ACAD_REACTORS
330
C
102
}
330
C
100
AcDbDictionary
  3
CEPSNTYPE
350
C4
  3
DIMSTYLEDATA
350
DA
  3
FINGERPRINTGUID
350
C5
  3
HYPERLINKBASE
350
BE
  3
INSUNITS
350
C3
  3
LAYOUTDICT
350
C0
  3
LWETCUNION
350
C2
  3
PLOTSETDICT
350
C1
  3
PSVPSCALE
350
C7
  3
PUCSBASE
350
CA
  3
PUCSORGBACK
350
D0
  3
PUCSORGBOTTOM
350
CC
  3
PUCSORGFRONT
350
CF
  3
PUCSORGLEFT
350
CD
  3
PUCSORGRIGHT
350
CE
  3
PUCSORGTOP
350
CB
  3
PUCSORTHOREF
350
C8
  3
PUCSORTHOVIEW
350
C9
  3
STYLESHEET
350
BF
  3
TSTACKALIGN
350
BC
  3
TSTACKSIZE
350
BD
  3
UCSBASE
350
D3
  3
UCSORGBACK
350
D9
  3
UCSORGBOTTOM
350
D5
  3
UCSORGFRONT
350
D8
  3
UCSORGLEFT
350
D6
  3
UCSORGRIGHT
350
D7
  3
UCSORGTOP
350
D4
  3
UCSORTHOREF
350
D1
  3
UCSORTHOVIEW
350
D2
  3
VERSIONGUID
350
C6
  0
DICTIONARY
  5
DB
102
{ACAD_REACTORS
330
C
102
}
330
C
100
AcDbDictionary
  3
DIMASSOC
350
DE
  3
HIDETEXT
350
DF
  0
MATERIAL
  5
3D
102
{ACAD_REACTORS
330
3B
102
}
102
{ACAD_XDICTIONARY
360
E2
102
}
330
3B
100
AcDbMaterial
  1
ByBlock
  0
MATERIAL
  5
3C
102
{ACAD_REACTORS
330
3B
102
}
102
{ACAD_XDICTIONARY
360
E0
102
}
330
3B
100
AcDbMaterial
  1
ByLayer
  0
MATERIAL
  5
3E
102
{ACAD_REACTORS
330
3B
102
}
102
{ACAD_XDICTIONARY
360
E4
102
}
330
3B
100
AcDbMaterial
  1
Global
  0
MLINESTYLE
  5
18
102
{ACAD_REACTORS
330
17
102
}
330
17
100
AcDbMlineStyle
  2
Standard
 70
     0
  3

 62
   256
 51
90.0
 52
90.0
 71
     2
 49
0.5
 62
   256
  6
BYLAYER
 49
-0.5
 62
   256
  6
BYLAYER
  0
ACAD_PROXY_OBJECT
  5
2F
102
{ACAD_REACTORS
330
2A
102
}
330
2A
100
AcDbProxyObject
 90
      499
 91
      501
 93
      436
310
42CC9915DA5C99599C985B595049028333333333333E3BF0000000000000FB0107901411070040501600405405064090741402480A0340
1001
ACAD
1000
AcDbSavedByObjectVersion
1070
     0
  0
ACAD_PROXY_OBJECT
  5
31
102
{ACAD_REACTORS
330
2A
102
}
330
2A
100
AcDbProxyObject
 90
      499
 91
      501
 93
      500
310
424CD108121A5919195B90640502408333333333333E3BF0000000000000FB01079024090700405020000000000001110200405405064090740C02480A0340
1001
ACAD
1000
AcDbSavedByObjectVersion
1070
     0
  0
ACAD_PROXY_OBJECT
  5
30
102
{ACAD_REACTORS
330
2A
102
}
330
2A
100
AcDbProxyObject
 90
      499
 91
      501
 93
      436
310
42CCD915DA5C99599C985B595059028333333333333E3BF0000000000000FB0107901411070040501600405405064090741402480A0340
1001
ACAD
1000
AcDbSavedByObjectVersion
1070
     0
  0
ACAD_PROXY_OBJECT
  5
32
102
{ACAD_REACTORS
330
2A
102
}
330
2A
100
AcDbProxyObject
 90
      499
 91
      501
 93
      388
310
4150985CDA58D07406404333333333333E3BF0000000000000FB0107A41107004050150841D405064090741402480A0350
1001
ACAD
1000
AcDbSavedByObjectVersion
1070
     0
  0
ACAD_PROXY_OBJECT
  5
36
102
{ACAD_REACTORS
330
2A
102
}
330
2A
100
AcDbProxyObject
 90
      499
 91
      501
 93
      428
310
42109C9A59DA1D195B90C409028333333333333E3BF0000000000000FB010790141107004050150841D405064090741402480A029950
1001
ACAD
1000
AcDbSavedByObjectVersion
1070
     0
  0
ACAD_PROXY_OBJECT
  5
3A
102
{ACAD_REACTORS
330
2A
102
}
330
2A
100
AcDbProxyObject
 90
      499
 91
      501
 93
      452
310
42D0DBDB1BDC90DA185B99D95104090240C333333333333E3BF0000000000000FB0108901411070040501508421405064090741402480A0350
1001
ACAD
1000
AcDbSavedByObjectVersion
1070
     0
  0
ACAD_PROXY_OBJECT
  5
34
102
{ACAD_REACTORS
330
2A
102
}
330
2A
100
AcDbProxyObject
 90
      499
 91
      501
 93
      500
310
4290DBDB98D95C1D1D585B10940D028333333333333E3BF0000000000000FB0107902409070040501000000000000111010841D405064090740C02480A0340
1001
ACAD
1000
AcDbSavedByObjectVersion
1070
     0
  0
ACAD_PROXY_OBJECT
  5
35
102
{ACAD_REACTORS
330
2A
102
}
330
2A
100
AcDbProxyObject
 90
      499
 91
      501
 93
      412
310
40D11A5B50B409028333333333333E3BF0000000000000FB010790141107004050150841D405064090741402480A02677FFFFFD0
1001
ACAD
1000
AcDbSavedByObjectVersion
1070
     0
  0
ACAD_PROXY_OBJECT
  5
39
102
{ACAD_REACTORS
330
2A
102
}
330
2A
100
AcDbProxyObject
 90
      499
 91
      501
 93
      444
310
42D19858D95C185D1D195C9B90F409028333333333333E3BF0000000000000FB010790141107004050150841D405064090741402480A0350
1001
ACAD
1000
AcDbSavedByObjectVersion
1070
     0
  0
ACAD_PROXY_OBJECT
  5
2B
102
{ACAD_REACTORS
330
2A
102
}
330
2A
100
AcDbProxyObject
 90
      499
 91
      501
 93
      388
310
41119B185D240901404333333333333E3BF0000000000000F9010740A41107004050150841D405064090741402480A1B50
1001
ACAD
1000
AcDbSavedByObjectVersion
1070
     0
  0
ACAD_PROXY_OBJECT
  5
2C
102
{ACAD_REACTORS
330
2A
102
}
330
2A
100
AcDbProxyObject
 90
      499
 91
      501
 93
      476
310
43519B185D15DA5D1A115919D95CD0140901404333333333333E3BF0000000000000F9010740901411070040501600405405064090741402480A1B50
1001
ACAD
1000
AcDbSavedByObjectVersion
1070
     0
  0
ACAD_PROXY_OBJECT
  5
2D
102
{ACAD_REACTORS
330
2A
102
}
330
2A
100
AcDbProxyObject
 90
      499
 91
      501
 93
      412
310
41D1DBDD5C985D5910240902404333333333333E3BF0000000000000F9010740A411070040501641D405064090741402480A1B50
1001
ACAD
1000
AcDbSavedByObjectVersion
1070
     0
  0
ACAD_PROXY_OBJECT
  5
2E
102
{ACAD_REACTORS
330
2A
102
}
330
2A
100
AcDbProxyObject
 90
      499
 91
      501
 93
      500
310
4411DBDD5C985D5915DA5D1A115919D95CD0340902404333333333333E3BF0000000000000F9010740901411070040501600405405064090741402480A1B50
1001
ACAD
1000
AcDbSavedByObjectVersion
1070
     0
  0
ACAD_PROXY_OBJECT
  5
38
102
{ACAD_REACTORS
330
2A
102
}
330
2A
100
AcDbProxyObject
 90
      499
 91
      501
 93
      444
310
42D31A5B995C185D1D195C9B90E409028333333333333E3BF0000000000000FB010790141107004050750841D405064090741402483A0350
1001
ACAD
1000
AcDbSavedByObjectVersion
1070
     0
  0
ACAD_PROXY_OBJECT
  5
33
102
{ACAD_REACTORS
330
2A
102
}
330
2A
100
AcDbProxyObject
 90
      499
 91
      501
 93
      420
310
425499585B1A5CDD1A58D08409028333333333333E3BF0000000000000FB01079019070040501508421405064090741402480A1B40
1001
ACAD
1000
AcDbSavedByObjectVersion
1070
     0
  0
ACAD_PROXY_OBJECT
  5
37
102
{ACAD_REACTORS
330
2A
102
}
330
2A
100
AcDbProxyObject
 90
      499
 91
      501
 93
      412
310
41D51A1A58DAD95B90D409028333333333333E3BF0000000000000FB010790141107004050150C41D405064090741402480A0350
1001
ACAD
1000
AcDbSavedByObjectVersion
1070
     0
  0
XRECORD
  5
C4
102
{ACAD_REACTORS
330
BB
102
}
330
BB
100
AcDbXrecord
 90
        0
  0
XRECORD
  5
DA
102
{ACAD_REACTORS
330
BB
102
}
330
BB
100
AcDbXrecord
1000
DSTYLE
1002
{
1070
   340
340
11
1002
}
  0
XRECORD
  5
C5
102
{ACAD_REACTORS
330
BB
102
}
330
BB
100
AcDbXrecord
  1
{C105E269-E281-4413-AD94-0EAA139E7D5F}
  0
XRECORD
  5
BE
102
{ACAD_REACTORS
330
BB
102
}
330
BB
100
AcDbXrecord
  1

  0
XRECORD
  5
C3
102
{ACAD_REACTORS
330
BB
102
}
330
BB
100
AcDbXrecord
 90
        4
  0
XRECORD
  5
C0
102
{ACAD_REACTORS
330
BB
102
}
330
BB
100
AcDbXrecord
340
1A
  0
XRECORD
  5
C2
102
{ACAD_REACTORS
330
BB
102
}
330
BB
100
AcDbXrecord
 90
    10781
  0
XRECORD
  5
C1
102
{ACAD_REACTORS
330
BB
102
}
330
BB
100
AcDbXrecord
340
19
  0
XRECORD
  5
C7
102
{ACAD_REACTORS
330
BB
102
}
330
BB
100
AcDbXrecord
 40
0.0
  0
XRECORD
  5
CA
102
{ACAD_REACTORS
330
BB
102
}
330
BB
100
AcDbXrecord
340
0
  0
XRECORD
  5
D0
102
{ACAD_REACTORS
330
BB
102
}
330
BB
100
AcDbXrecord
 10
0.0
 20
0.0
 30
0.0
  0
XRECORD
  5
CC
102
{ACAD_REACTORS
330
BB
102
}
330
BB
100
AcDbXrecord
 10
0.0
 20
0.0
 30
0.0
  0
XRECORD
  5
CF
102
{ACAD_REACTORS
330
BB
102
}
330
BB
100
AcDbXrecord
 10
0.0
 20
0.0
 30
0.0
  0
XRECORD
  5
CD
102
{ACAD_REACTORS
330
BB
102
}
330
BB
100
AcDbXrecord
 10
0.0
 20
0.0
 30
0.0
  0
XRECORD
  5
CE
102
{ACAD_REACTORS
330
BB
102
}
330
BB
100
AcDbXrecord
 10
0.0
 20
0.0
 30
0.0
  0
XRECORD
  5
CB
102
{ACAD_REACTORS
330
BB
102
}
330
BB
100
AcDbXrecord
 10
0.0
 20
0.0
 30
0.0
  0
XRECORD
  5
C8
102
{ACAD_REACTORS
330
BB
102
}
330
BB
100
AcDbXrecord
340
0
  0
XRECORD
  5
C9
102
{ACAD_REACTORS
330
BB
102
}
330
BB
100
AcDbXrecord
 70
     0
  0
XRECORD
  5
BF
102
{ACAD_REACTORS
330
BB
102
}
330
BB
100
AcDbXrecord
  1

  0
XRECORD
  5
BC
102
{ACAD_REACTORS
330
BB
102
}
330
BB
100
AcDbXrecord
 90
        1
  0
XRECORD
  5
BD
102
{ACAD_REACTORS
330
BB
102
}
330
BB
100
AcDbXrecord
 90
       70
  0
XRECORD
  5
D3
102
{ACAD_REACTORS
330
BB
102
}
330
BB
100
AcDbXrecord
340
0
  0
XRECORD
  5
D9
102
{ACAD_REACTORS
330
BB
102
}
330
BB
100
AcDbXrecord
 10
0.0
 20
0.0
 30
0.0
  0
XRECORD
  5
D5
102
{ACAD_REACTORS
330
BB
102
}
330
BB
100
AcDbXrecord
 10
0.0
 20
0.0
 30
0.0
  0
XRECORD
  5
D8
102
{ACAD_REACTORS
330
BB
102
}
330
BB
100
AcDbXrecord
 10
0.0
 20
0.0
 30
0.0
  0
XRECORD
  5
D6
102
{ACAD_REACTORS
330
BB
102
}
330
BB
100
AcDbXrecord
 10
0.0
 20
0.0
 30
0.0
  0
XRECORD
  5
D7
102
{ACAD_REACTORS
330
BB
102
}
330
BB
100
AcDbXrecord
 10
0.0
 20
0.0
 30
0.0
  0
XRECORD
  5
D4
102
{ACAD_REACTORS
330
BB
102
}
330
BB
100
AcDbXrecord
 10
0.0
 20
0.0
 30
0.0
  0
XRECORD
  5
D1
102
{ACAD_REACTORS
330
BB
102
}
330
BB
100
AcDbXrecord
340
0
  0
XRECORD
  5
D2
102
{ACAD_REACTORS
330
BB
102
}
330
BB
100
AcDbXrecord
 70
     0
  0
XRECORD
  5
C6
102
{ACAD_REACTORS
330
BB
102
}
330
BB
100
AcDbXrecord
  1
{FAEB1C32-E019-11D5-929B-00C0DF256EC4}
  0
DICTIONARYVAR
  5
DE
102
{ACAD_REACTORS
330
DB
102
}
330
DB
100
DictionaryVariables
280
     0
  1
2
  0
DICTIONARYVAR
  5
DF
102
{ACAD_REACTORS
330
DB
102
}
330
DB
100
DictionaryVariables
280
     0
  1
1
  0
DICTIONARY
  5
E2
330
3D
100
AcDbDictionary
280
     1
  3
ACAD_XREC_ROUNDTRIP
360
E3
  0
DICTIONARY
  5
E0
330
3C
100
AcDbDictionary
280
     1
  3
ACAD_XREC_ROUNDTRIP
360
E1
  0
DICTIONARY
  5
E4
330
3E
100
AcDbDictionary
280
     1
  3
ACAD_XREC_ROUNDTRIP
360
E5
  0
XRECORD
  5
E3
102
{ACAD_REACTORS
330
E2
102
}
330
E2
100
AcDbXrecord
102
MATERIAL
148
0.0
149
0.0
149
0.0
 93
        0
 94
      127
282
     0
 72
     1
 77
     1
171
     1
175
     1
179
     1
273
     0
  0
XRECORD
  5
E1
102
{ACAD_REACTORS
330
E0
102
}
330
E0
100
AcDbXrecord
102
MATERIAL
148
0.0
149
0.0
149
0.0
 93
        0
 94
      127
282
     0
 72
     1
 77
     1
171
     1
175
     1
179
     1
273
     0
  0
XRECORD
  5
E5
102
{ACAD_REACTORS
330
E4
102
}
330
E4
100
AcDbXrecord
102
MATERIAL
148
0.0
149
0.0
149
0.0
 93
        0
 94
      127
282
     0
 72
     1
 77
     1
171
     1
175
     1
179
     1
273
     0
  0
ENDSEC
  0
EOF
