  0
SECTION
  2
HEADER
  9
$ACADVER
  1
AC1014
  9
$ACADMAINTVER
 70
     9
  9
$DWGCODEPAGE
  3
ANSI_1250
  9
$INSBASE
 10
0.0
 20
0.0
 30
0.0
  9
$EXTMIN
 10
-22.1682
 20
-12.5695
 30
0.0
  9
$EXTMAX
 10
22.1711
 20
12.567
 30
0.0
  9
$LIMMIN
 10
0.0
 20
0.0
  9
$LIMMAX
 10
12.0
 20
9.0
  9
$ORTHOMODE
 70
     0
  9
$REGENMODE
 70
     1
  9
$FILLMODE
 70
     1
  9
$QTEXTMODE
 70
     0
  9
$MIRRTEXT
 70
     1
  9
$DRAGMODE
 70
     2
  9
$LTSCALE
 40
1.0
  9
$OSMODE
 70
    37
  9
$ATTMODE
 70
     1
  9
$TEXTSIZE
 40
0.2
  9
$TRACEWID
 40
0.05
  9
$TEXTSTYLE
  7
STANDARD
  9
$CLAYER
  8
0
  9
$CELTYPE
  6
BYLAYER
  9
$CECOLOR
 62
   256
  9
$CELTSCALE
 40
1.0
  9
$DELOBJ
 70
     1
  9
$DISPSILH
 70
     0
  9
$DIMSCALE
 40
1.0
  9
$DIMASZ
 40
0.18
  9
$DIMEXO
 40
0.0625
  9
$DIMDLI
 40
0.38
  9
$DIMRND
 40
0.0
  9
$DIMDLE
 40
0.0
  9
$DIMEXE
 40
0.18
  9
$DIMTP
 40
0.0
  9
$DIMTM
 40
0.0
  9
$DIMTXT
 40
0.18
  9
$DIMCEN
 40
0.09
  9
$DIMTSZ
 40
0.0
  9
$DIMTOL
 70
     0
  9
$DIMLIM
 70
     0
  9
$DIMTIH
 70
     1
  9
$DIMTOH
 70
     1
  9
$DIMSE1
 70
     0
  9
$DIMSE2
 70
     0
  9
$DIMTAD
 70
     0
  9
$DIMZIN
 70
     0
  9
$DIMBLK
  1

  9
$DIMASO
 70
     1
  9
$DIMSHO
 70
     1
  9
$DIMPOST
  1

  9
$DIMAPOST
  1

  9
$DIMALT
 70
     0
  9
$DIMALTD
 70
     2
  9
$DIMALTF
 40
25.4
  9
$DIMLFAC
 40
1.0
  9
$DIMTOFL
 70
     0
  9
$DIMTVP
 40
0.0
  9
$DIMTIX
 70
     0
  9
$DIMSOXD
 70
     0
  9
$DIMSAH
 70
     0
  9
$DIMBLK1
  1

  9
$DIMBLK2
  1

  9
$DIMSTYLE
  2
STANDARD
  9
$DIMCLRD
 70
     0
  9
$DIMCLRE
 70
     0
  9
$DIMCLRT
 70
     0
  9
$DIMTFAC
 40
1.0
  9
$DIMGAP
 40
0.09
  9
$DIMJUST
 70
     0
  9
$DIMSD1
 70
     0
  9
$DIMSD2
 70
     0
  9
$DIMTOLJ
 70
     1
  9
$DIMTZIN
 70
     0
  9
$DIMALTZ
 70
     0
  9
$DIMALTTZ
 70
     0
  9
$DIMFIT
 70
     3
  9
$DIMUPT
 70
     0
  9
$DIMUNIT
 70
     2
  9
$DIMDEC
 70
     4
  9
$DIMTDEC
 70
     4
  9
$DIMALTU
 70
     2
  9
$DIMALTTD
 70
     2
  9
$DIMTXSTY
  7
STANDARD
  9
$DIMAUNIT
 70
     0
  9
$LUNITS
 70
     2
  9
$LUPREC
 70
     4
  9
$SKETCHINC
 40
0.1
  9
$FILLETRAD
 40
0.5
  9
$AUNITS
 70
     0
  9
$AUPREC
 70
     0
  9
$MENU
  1
.
  9
$ELEVATION
 40
0.0
  9
$PELEVATION
 40
0.0
  9
$THICKNESS
 40
0.0
  9
$LIMCHECK
 70
     0
  9
$CHAMFERA
 40
0.5
  9
$CHAMFERB
 40
0.5
  9
$CHAMFERC
 40
1.0
  9
$CHAMFERD
 40
0.0
  9
$SKPOLY
 70
     0
  9
$TDCREATE
 40
2456268.579533195
  9
$TDUPDATE
 40
2456268.579533206
  9
$TDINDWG
 40
0.0000000116
  9
$TDUSRTIMER
 40
0.0000000116
  9
$USRTIMER
 70
     1
  9
$ANGBASE
 50
0.0
  9
$ANGDIR
 70
     0
  9
$PDMODE
 70
     0
  9
$PDSIZE
 40
0.0
  9
$PLINEWID
 40
0.0
  9
$COORDS
 70
     1
  9
$SPLFRAME
 70
     0
  9
$SPLINETYPE
 70
     6
  9
$SPLINESEGS
 70
     8
  9
$ATTDIA
 70
     0
  9
$ATTREQ
 70
     1
  9
$HANDLING
 70
     1
  9
$HANDSEED
  5
98
  9
$SURFTAB1
 70
     6
  9
$SURFTAB2
 70
     6
  9
$SURFTYPE
 70
     6
  9
$SURFU
 70
     6
  9
$SURFV
 70
     6
  9
$UCSNAME
  2

  9
$UCSORG
 10
0.0
 20
0.0
 30
0.0
  9
$UCSXDIR
 10
1.0
 20
0.0
 30
0.0
  9
$UCSYDIR
 10
0.0
 20
1.0
 30
0.0
  9
$PUCSNAME
  2

  9
$PUCSORG
 10
0.0
 20
0.0
 30
0.0
  9
$PUCSXDIR
 10
1.0
 20
0.0
 30
0.0
  9
$PUCSYDIR
 10
0.0
 20
1.0
 30
0.0
  9
$USERI1
 70
     0
  9
$USERI2
 70
     0
  9
$USERI3
 70
     0
  9
$USERI4
 70
     0
  9
$USERI5
 70
     0
  9
$USERR1
 40
0.0
  9
$USERR2
 40
0.0
  9
$USERR3
 40
0.0
  9
$USERR4
 40
0.0
  9
$USERR5
 40
0.0
  9
$WORLDVIEW
 70
     1
  9
$SHADEDGE
 70
     3
  9
$SHADEDIF
 70
    70
  9
$TILEMODE
 70
     1
  9
$MAXACTVP
 70
    64
  9
$PINSBASE
 10
0.0
 20
0.0
 30
0.0
  9
$PLIMCHECK
 70
     0
  9
$PEXTMIN
 10
1.000000000000000E+20
 20
1.000000000000000E+20
 30
1.000000000000000E+20
  9
$PEXTMAX
 10
-1.000000000000000E+20
 20
-1.000000000000000E+20
 30
-1.000000000000000E+20
  9
$PLIMMIN
 10
0.0
 20
0.0
  9
$PLIMMAX
 10
12.0
 20
9.0
  9
$UNITMODE
 70
     0
  9
$VISRETAIN
 70
     1
  9
$PLINEGEN
 70
     0
  9
$PSLTSCALE
 70
     1
  9
$TREEDEPTH
 70
  3020
  9
$PICKSTYLE
 70
     1
  9
$CMLSTYLE
  2
STANDARD
  9
$CMLJUST
 70
     0
  9
$CMLSCALE
 40
1.0
  9
$PROXYGRAPHICS
 70
     1
  9
$MEASUREMENT
 70
     0
  0
ENDSEC
  0
SECTION
  2
CLASSES
  0
CLASS
  1
ACDBDICTIONARYWDFLT
  2
AcDbDictionaryWithDefault
  3
ObjectDBX Classes
 90
        0
280
     0
281
     0
  0
CLASS
  1
VISUALSTYLE
  2
AcDbVisualStyle
  3
ObjectDBX Classes
 90
     4095
280
     0
281
     0
  0
CLASS
  1
MATERIAL
  2
AcDbMaterial
  3
ObjectDBX Classes
 90
     1153
280
     0
281
     0
  0
CLASS
  1
DICTIONARYVAR
  2
AcDbDictionaryVar
  3
ObjectDBX Classes
 90
        0
280
     0
281
     0
  0
CLASS
  1
XRECORD
  2
AcDbXrecord
  3
AutoCAD 2000
 90
        0
280
     0
281
     0
  0
CLASS
  1
LWPOLYLINE
  2
AcDbPolyline
  3
AutoCAD 2000
 90
        0
280
     0
281
     1
  0
CLASS
  1
HATCH
  2
AcDbHatch
  3
AutoCAD 2000
 90
        0
280
     0
281
     1
  0
CLASS
  1
ACDBPLACEHOLDER
  2
AcDbPlaceHolder
  3
ObjectDBX Classes
 90
        0
280
     0
281
     0
  0
CLASS
  1
LAYOUT
  2
AcDbLayout
  3
ObjectDBX Classes
 90
        0
280
     0
281
     0
  0
ENDSEC
  0
SECTION
  2
TABLES
  0
TABLE
  2
VPORT
  5
8
330
0
100
AcDbSymbolTable
 70
     1
  0
VPORT
  5
29
330
8
100
AcDbSymbolTableRecord
100
AcDbViewportTableRecord
  2
*ACTIVE
 70
     0
 10
0.0
 20
0.0
 11
1.0
 21
1.0
 12
10.42990654205607
 22
4.5
 13
0.0
 23
0.0
 14
0.5
 24
0.5
 15
0.5
 25
0.5
 16
0.0
 26
0.0
 36
1.0
 17
0.0
 27
0.0
 37
0.0
 40
9.0
 41
1.972972972850329
 42
50.0
 43
0.0
 44
0.0
 50
0.0
 51
0.0
 71
     0
 72
   100
 73
     1
 74
     3
 75
     0
 76
     0
 77
     0
 78
     0
  0
ENDTAB
  0
TABLE
  2
LTYPE
  5
5
330
0
100
AcDbSymbolTable
 70
     3
  0
LTYPE
  5
14
330
5
100
AcDbSymbolTableRecord
100
AcDbLinetypeTableRecord
  2
BYBLOCK
 70
     0
  3

 72
    65
 73
     0
 40
0.0
  0
LTYPE
  5
15
330
5
100
AcDbSymbolTableRecord
100
AcDbLinetypeTableRecord
  2
BYLAYER
 70
     0
  3

 72
    65
 73
     0
 40
0.0
  0
LTYPE
  5
16
330
5
100
AcDbSymbolTableRecord
100
AcDbLinetypeTableRecord
  2
CONTINUOUS
 70
     0
  3
Solid line
 72
    65
 73
     0
 40
0.0
  0
LTYPE
  5
53
330
5
100
AcDbSymbolTableRecord
100
AcDbLinetypeTableRecord
  2
NEW_LINE1
 70
     0
  3

 72
    65
 73
     4
 40
1.2
 49
0.5
 74
     4
 75
     0
340
0
 46
1.0
 50
0.0
 44
0.0
 45
0.0
 49
-0.3
 74
     4
 75
     0
340
0
 46
1.0
 50
0.0
 44
0.0
 45
0.0
 49
0.1
 74
     4
 75
     0
340
0
 46
1.0
 50
0.0
 44
0.0
 45
0.0
 49
-0.3
 74
     4
 75
     0
340
0
 46
1.0
 50
0.0
 44
0.0
 45
0.0
  0
LTYPE
  5
55
330
5
100
AcDbSymbolTableRecord
100
AcDbLinetypeTableRecord
  2
NEW_LINE2
 70
     0
  3

 72
    65
 73
     4
 40
1.2
 49
0.5
 74
     4
 75
     0
340
0
 46
1.0
 50
0.0
 44
0.0
 45
0.0
 49
-0.3
 74
     4
 75
     0
340
0
 46
1.0
 50
0.0
 44
0.0
 45
0.0
 49
0.1
 74
     4
 75
     0
340
0
 46
1.0
 50
0.0
 44
0.0
 45
0.0
 49
-0.3
 74
     4
 75
     0
340
0
 46
1.0
 50
0.0
 44
0.0
 45
0.0
  0
ENDTAB
  0
TABLE
  2
LAYER
  5
2
330
0
100
AcDbSymbolTable
 70
     2
  0
LAYER
  5
10
330
2
100
AcDbSymbolTableRecord
100
AcDbLayerTableRecord
  2
0
 70
     0
 62
     7
  6
CONTINUOUS
  0
LAYER
  5
40
330
2
100
AcDbSymbolTableRecord
100
AcDbLayerTableRecord
  2
DEFAULT_1
 70
     0
 62
     7
  6
CONTINUOUS
  0
ENDTAB
  0
TABLE
  2
STYLE
  5
3
330
0
100
AcDbSymbolTable
 70
     1
  0
STYLE
  5
11
330
3
100
AcDbSymbolTableRecord
100
AcDbTextStyleTableRecord
  2
STANDARD
 70
     0
 40
0.0
 41
1.0
 50
0.0
 71
     0
 42
0.2
  3
txt
  4

  0
ENDTAB
  0
TABLE
  2
VIEW
  5
6
330
0
100
AcDbSymbolTable
 70
     0
  0
ENDTAB
  0
TABLE
  2
UCS
  5
7
330
0
100
AcDbSymbolTable
 70
     0
  0
ENDTAB
  0
TABLE
  2
APPID
  5
9
330
0
100
AcDbSymbolTable
 70
     2
  0
APPID
  5
12
330
9
100
AcDbSymbolTableRecord
100
AcDbRegAppTableRecord
  2
ACAD
 70
     0
  0
APPID
  5
3F
330
9
100
AcDbSymbolTableRecord
100
AcDbRegAppTableRecord
  2
ODA
 70
     0
  0
ENDTAB
  0
TABLE
  2
DIMSTYLE
  5
A
330
0
100
AcDbSymbolTable
 70
     1
  0
DIMSTYLE
105
27
330
A
100
AcDbSymbolTableRecord
100
AcDbDimStyleTableRecord
  2
STANDARD
 70
     0
  3

  4

  5

  6

  7

 40
1.0
 41
0.18
 42
0.0625
 43
0.38
 44
0.18
 45
0.0
 46
0.0
 47
0.0
 48
0.0
140
0.18
141
0.09
142
0.0
143
25.4
144
1.0
145
0.0
146
1.0
147
0.09
 71
     0
 72
     0
 73
     1
 74
     1
 75
     0
 76
     0
 77
     0
 78
     0
170
     0
171
     2
172
     0
173
     0
174
     0
175
     0
176
     0
177
     0
178
     0
270
     2
271
     4
272
     4
273
     2
274
     2
340
11
275
     0
280
     0
281
     0
282
     0
283
     1
284
     0
285
     0
286
     0
287
     3
288
     0
  0
ENDTAB
  0
TABLE
  2
BLOCK_RECORD
  5
1
330
0
100
AcDbSymbolTable
 70
     1
  0
BLOCK_RECORD
  5
1F
330
1
100
AcDbSymbolTableRecord
100
AcDbBlockTableRecord
  2
*MODEL_SPACE
  0
BLOCK_RECORD
  5
1B
330
1
100
AcDbSymbolTableRecord
100
AcDbBlockTableRecord
  2
*PAPER_SPACE
  0
ENDTAB
  0
ENDSEC
  0
SECTION
  2
BLOCKS
  0
BLOCK
  5
20
330
1F
100
AcDbEntity
  8
0
100
AcDbBlockBegin
  2
*MODEL_SPACE
 70
     0
 10
0.0
 20
0.0
 30
0.0
  3
*MODEL_SPACE
  1

  0
ENDBLK
  5
21
330
1F
100
AcDbEntity
  8
0
100
AcDbBlockEnd
  0
BLOCK
  5
1C
330
1B
100
AcDbEntity
 67
     1
  8
0
100
AcDbBlockBegin
  2
*PAPER_SPACE
 70
     0
 10
0.0
 20
0.0
 30
0.0
  3
*PAPER_SPACE
  1

  0
ENDBLK
  5
1D
330
1B
100
AcDbEntity
 67
     1
  8
0
100
AcDbBlockEnd
  0
ENDSEC
  0
SECTION
  2
ENTITIES
  0
SPLINE
  5
41
330
1F
100
AcDbEntity
  8
DEFAULT_1
 62
   250
100
AcDbSpline
210
0.0
220
0.0
230
1.0
 70
    24
 71
     3
 72
     8
 73
     4
 74
     0
 42
0.0000000001
 43
0.0000000001
 40
0.0
 40
0.0
 40
0.0
 40
0.0
 40
1.0
 40
1.0
 40
1.0
 40
1.0
 10
17.2997
 20
-8.7626
 30
0.0
 10
17.2997
 20
-8.7626
 30
0.0
 10
21.7279
 20
-8.9682
 30
0.0
 10
21.7279
 20
-8.9682
 30
0.0
  0
SPLINE
  5
42
330
1F
100
AcDbEntity
  8
DEFAULT_1
 62
   250
100
AcDbSpline
210
0.0
220
0.0
230
1.0
 70
    24
 71
     3
 72
     8
 73
     4
 74
     0
 42
0.0000000001
 43
0.0000000001
 40
0.0
 40
0.0
 40
0.0
 40
0.0
 40
1.0
 40
1.0
 40
1.0
 40
1.0
 10
21.5119
 20
3.1882
 30
0.0
 10
21.5119
 20
3.1882
 30
0.0
 10
20.9618
 20
-12.567
 30
0.0
 10
20.9618
 20
-12.567
 30
0.0
  0
SPLINE
  5
43
330
1F
100
AcDbEntity
  8
DEFAULT_1
 62
   250
100
AcDbSpline
210
0.0
220
0.0
230
1.0
 70
    24
 71
     3
 72
     8
 73
     4
 74
     0
 42
0.0000000001
 43
0.0000000001
 40
0.0
 40
0.0
 40
0.0
 40
0.0
 40
1.0
 40
1.0
 40
1.0
 40
1.0
 10
-10.7078
 20
-8.2802
 30
0.0
 10
-10.7078
 20
-8.2802
 30
0.0
 10
-20.3419
 20
-8.2802
 30
0.0
 10
-20.3419
 20
-8.2802
 30
0.0
  0
SPLINE
  5
44
330
1F
100
AcDbEntity
  8
DEFAULT_1
 62
   250
100
AcDbSpline
210
0.0
220
0.0
230
1.0
 70
    24
 71
     3
 72
     8
 73
     4
 74
     0
 42
0.0000000001
 43
0.0000000001
 40
0.0
 40
0.0
 40
0.0
 40
0.0
 40
1.0
 40
1.0
 40
1.0
 40
1.0
 10
-19.6613
 20
5.1911
 30
0.0
 10
-19.6613
 20
5.1911
 30
0.0
 10
-19.6613
 20
-7.7557
 30
0.0
 10
-19.6613
 20
-7.7557
 30
0.0
  0
SPLINE
  5
45
330
1F
100
AcDbEntity
  8
DEFAULT_1
 62
   250
100
AcDbSpline
210
0.0
220
0.0
230
1.0
 70
    24
 71
     3
 72
     8
 73
     4
 74
     0
 42
0.0000000001
 43
0.0000000001
 40
0.0
 40
0.0
 40
0.0
 40
0.0
 40
1.0
 40
1.0
 40
1.0
 40
1.0
 10
-17.199
 20
3.2024
 30
0.0
 10
-17.199
 20
3.2024
 30
0.0
 10
-17.199
 20
10.9807
 30
0.0
 10
-17.199
 20
10.9807
 30
0.0
  0
SPLINE
  5
46
330
1F
100
AcDbEntity
  8
DEFAULT_1
 62
   250
100
AcDbSpline
210
0.0
220
0.0
230
1.0
 70
    24
 71
     3
 72
     8
 73
     4
 74
     0
 42
0.0000000001
 43
0.0000000001
 40
0.0
 40
0.0
 40
0.0
 40
0.0
 40
1.0
 40
1.0
 40
1.0
 40
1.0
 10
10.0846
 20
3.2356
 30
0.0
 10
10.0846
 20
3.2356
 30
0.0
 10
10.0846
 20
10.9145
 30
0.0
 10
10.0846
 20
10.9145
 30
0.0
  0
SPLINE
  5
47
330
1F
100
AcDbEntity
  8
DEFAULT_1
 62
   250
100
AcDbSpline
210
0.0
220
0.0
230
1.0
 70
    24
 71
     3
 72
     8
 73
     4
 74
     0
 42
0.0000000001
 43
0.0000000001
 40
0.0
 40
0.0
 40
0.0
 40
0.0
 40
1.0
 40
1.0
 40
1.0
 40
1.0
 10
10.0846
 20
9.8534
 30
0.0
 10
10.0846
 20
9.8534
 30
0.0
 10
-16.6954
 20
9.8534
 30
0.0
 10
-16.6954
 20
9.8534
 30
0.0
  0
SPLINE
  5
48
330
1F
100
AcDbEntity
  8
DEFAULT_1
 62
   250
100
AcDbSpline
210
0.0
220
0.0
230
1.0
 70
    24
 71
     3
 72
     8
 73
     4
 74
     0
 42
0.0000000001
 43
0.0000000001
 40
0.0
 40
0.0
 40
0.0
 40
0.0
 40
1.0
 40
1.0
 40
1.0
 40
1.0
 10
2.1459
 20
-8.2803
 30
0.0
 10
2.1459
 20
-8.2803
 30
0.0
 10
2.2
 20
-8.2797
 30
0.0
 10
2.2
 20
-8.2797
 30
0.0
  0
SPLINE
  5
49
330
1F
100
AcDbEntity
  8
DEFAULT_1
 62
   250
100
AcDbSpline
210
0.0
220
0.0
230
1.0
 70
    24
 71
     3
 72
     8
 73
     4
 74
     0
 42
0.0000000001
 43
0.0000000001
 40
0.0
 40
0.0
 40
0.0
 40
0.0
 40
1.0
 40
1.0
 40
1.0
 40
1.0
 10
-12.936
 20
5.1911
 30
0.0
 10
-12.936
 20
5.1911
 30
0.0
 10
-20.3738
 20
5.1911
 30
0.0
 10
-20.3738
 20
5.1911
 30
0.0
  0
SPLINE
  5
4A
330
1F
100
AcDbEntity
  8
DEFAULT_1
 62
   250
100
AcDbSpline
210
0.0
220
0.0
230
1.0
 70
    24
 71
     3
 72
     8
 73
     4
 74
     0
 42
0.0000000001
 43
0.0000000001
 40
0.0
 40
0.0
 40
0.0
 40
0.0
 40
1.0
 40
1.0
 40
1.0
 40
1.0
 10
17.702
 20
-0.2416
 30
0.0
 10
17.702
 20
-0.2416
 30
0.0
 10
22.1683
 20
-0.4198
 30
0.0
 10
22.1683
 20
-0.4198
 30
0.0
  0
SPLINE
  5
4B
330
1F
100
AcDbEntity
  8
DEFAULT_1
 62
   250
100
AcDbSpline
210
0.0
220
0.0
230
1.0
 70
    11
 71
     3
 72
    40
 73
    36
 74
     0
 42
0.0000000001
 43
0.0000000001
 40
0.0
 40
0.0
 40
0.0
 40
0.0
 40
0.1
 40
0.1
 40
0.1
 40
0.1
 40
0.2
 40
0.2
 40
0.2
 40
0.2
 40
0.3
 40
0.3
 40
0.3
 40
0.3
 40
0.4
 40
0.4
 40
0.4
 40
0.4
 40
0.5
 40
0.5
 40
0.5
 40
0.5
 40
0.6
 40
0.6
 40
0.6
 40
0.6
 40
0.7
 40
0.7
 40
0.7
 40
0.7
 40
0.8
 40
0.8
 40
0.8
 40
0.8
 40
1.0
 40
1.0
 40
1.0
 40
1.0
 10
16.0286
 20
-8.7625
 30
0.0
 10
16.0286
 20
-8.7625
 30
0.0
 10
16.0294
 20
-8.7407
 30
0.0
 10
16.0294
 20
-8.7407
 30
0.0
 10
16.0294
 20
-8.7407
 30
0.0
 10
16.0294
 20
-8.7407
 30
0.0
 10
16.3249
 20
-0.2768
 30
0.0
 10
16.3249
 20
-0.2768
 30
0.0
 10
16.3249
 20
-0.2768
 30
0.0
 10
16.3249
 20
-0.2768
 30
0.0
 10
16.3261
 20
-0.2417
 30
0.0
 10
16.3261
 20
-0.2417
 30
0.0
 10
16.3261
 20
-0.2417
 30
0.0
 10
16.3261
 20
-0.2417
 30
0.0
 10
4.807
 20
0.1604
 30
0.0
 10
4.807
 20
0.1604
 30
0.0
 10
4.807
 20
0.1604
 30
0.0
 10
4.807
 20
0.1604
 30
0.0
 10
4.816
 20
0.1601
 30
0.0
 10
4.816
 20
0.1601
 30
0.0
 10
4.816
 20
0.1601
 30
0.0
 10
4.816
 20
0.1601
 30
0.0
 10
16.3261
 20
-0.2417
 30
0.0
 10
16.3261
 20
-0.2417
 30
0.0
 10
16.3261
 20
-0.2417
 30
0.0
 10
16.3261
 20
-0.2417
 30
0.0
 10
16.3249
 20
-0.2768
 30
0.0
 10
16.3249
 20
-0.2768
 30
0.0
 10
16.3249
 20
-0.2768
 30
0.0
 10
16.3249
 20
-0.2768
 30
0.0
 10
16.0294
 20
-8.7407
 30
0.0
 10
16.0294
 20
-8.7407
 30
0.0
 10
16.0294
 20
-8.7407
 30
0.0
 10
16.0294
 20
-8.7407
 30
0.0
 10
16.0286
 20
-8.7625
 30
0.0
 10
16.0286
 20
-8.7625
 30
0.0
  0
SPLINE
  5
4C
330
1F
100
AcDbEntity
  8
DEFAULT_1
 62
   250
100
AcDbSpline
210
0.0
220
0.0
230
1.0
 70
    11
 71
     3
 72
    36
 73
    32
 74
     0
 42
0.0000000001
 43
0.0000000001
 40
0.0
 40
0.0
 40
0.0
 40
0.0
 40
0.1111111111111111
 40
0.1111111111111111
 40
0.1111111111111111
 40
0.1111111111111111
 40
0.2222222222222222
 40
0.2222222222222222
 40
0.2222222222222222
 40
0.2222222222222222
 40
0.3333333333333333
 40
0.3333333333333333
 40
0.3333333333333333
 40
0.3333333333333333
 40
0.4444444444444444
 40
0.4444444444444444
 40
0.4444444444444444
 40
0.4444444444444444
 40
0.5555555555555556
 40
0.5555555555555556
 40
0.5555555555555556
 40
0.5555555555555556
 40
0.6666666666666666
 40
0.6666666666666666
 40
0.6666666666666666
 40
0.6666666666666666
 40
0.7777777777777778
 40
0.7777777777777778
 40
0.7777777777777778
 40
0.7777777777777778
 40
1.0
 40
1.0
 40
1.0
 40
1.0
 10
10.054
 20
2.2751
 30
0.0
 10
10.054
 20
2.2751
 30
0.0
 10
10.054
 20
2.5523
 30
0.0
 10
10.054
 20
2.5523
 30
0.0
 10
10.054
 20
2.5523
 30
0.0
 10
10.054
 20
2.5523
 30
0.0
 10
5.8216
 20
2.6094
 30
0.0
 10
5.8216
 20
2.6094
 30
0.0
 10
5.8216
 20
2.6094
 30
0.0
 10
5.8216
 20
2.6094
 30
0.0
 10
-12.936
 20
2.6094
 30
0.0
 10
-12.936
 20
2.6094
 30
0.0
 10
-12.936
 20
2.6094
 30
0.0
 10
-12.936
 20
2.6094
 30
0.0
 10
-17.2502
 20
2.483
 30
0.0
 10
-17.2502
 20
2.483
 30
0.0
 10
-17.2502
 20
2.483
 30
0.0
 10
-17.2502
 20
2.483
 30
0.0
 10
-17.2502
 20
2.2289
 30
0.0
 10
-17.2502
 20
2.2289
 30
0.0
 10
-17.2502
 20
2.2289
 30
0.0
 10
-17.2502
 20
2.2289
 30
0.0
 10
-12.4223
 20
2.0672
 30
0.0
 10
-12.4223
 20
2.0672
 30
0.0
 10
-12.4223
 20
2.0672
 30
0.0
 10
-12.4223
 20
2.0672
 30
0.0
 10
5.0413
 20
2.1134
 30
0.0
 10
5.0413
 20
2.1134
 30
0.0
 10
5.0413
 20
2.1134
 30
0.0
 10
5.0413
 20
2.1134
 30
0.0
 10
10.054
 20
2.2751
 30
0.0
 10
10.054
 20
2.2751
 30
0.0
  0
SPLINE
  5
4D
330
1F
100
AcDbEntity
  8
DEFAULT_1
 62
   250
100
AcDbSpline
210
0.0
220
0.0
230
1.0
 70
     8
 71
     3
 72
    16
 73
    12
 74
     0
 42
0.0000000001
 43
0.0000000001
 40
0.0
 40
0.0
 40
0.0
 40
0.0
 40
0.25
 40
0.25
 40
0.25
 40
0.25
 40
0.5
 40
0.5
 40
0.5
 40
0.5
 40
1.0
 40
1.0
 40
1.0
 40
1.0
 10
-12.3662
 20
2.1163
 30
0.0
 10
-12.3662
 20
2.1163
 30
0.0
 10
-12.3697
 20
1.4396
 30
0.0
 10
-12.3697
 20
1.4396
 30
0.0
 10
-12.3697
 20
1.4396
 30
0.0
 10
-12.3697
 20
1.4396
 30
0.0
 10
5.2553
 20
1.4396
 30
0.0
 10
5.2553
 20
1.4396
 30
0.0
 10
5.2553
 20
1.4396
 30
0.0
 10
5.2553
 20
1.4396
 30
0.0
 10
5.2805
 20
2.1891
 30
0.0
 10
5.2805
 20
2.1891
 30
0.0
  0
SPLINE
  5
4E
330
1F
100
AcDbEntity
  8
DEFAULT_1
 62
   250
100
AcDbSpline
210
0.0
220
0.0
230
1.0
 70
     8
 71
     3
 72
    12
 73
     8
 74
     0
 42
0.0000000001
 43
0.0000000001
 40
0.0
 40
0.0
 40
0.0
 40
0.0
 40
0.3333333333333333
 40
0.3333333333333333
 40
0.3333333333333333
 40
0.3333333333333333
 40
1.0
 40
1.0
 40
1.0
 40
1.0
 10
-9.2603
 20
-8.2803
 30
0.0
 10
-10.6556
 20
-8.2803
 30
0.0
 10
-11.7934
 20
-7.1621
 30
0.0
 10
-11.8177
 20
-5.7671
 30
0.0
 10
-11.8177
 20
-5.7671
 30
0.0
 10
-11.8177
 20
-5.7671
 30
0.0
 10
-11.9483
 20
1.4321
 30
0.0
 10
-11.9483
 20
1.4321
 30
0.0
  0
SPLINE
  5
4F
330
1F
100
AcDbEntity
  8
DEFAULT_1
 62
   250
100
AcDbSpline
210
0.0
220
0.0
230
1.0
 70
     8
 71
     3
 72
    28
 73
    24
 74
     0
 42
0.0000000001
 43
0.0000000001
 40
0.0
 40
0.0
 40
0.0
 40
0.0
 40
0.1428571428571428
 40
0.1428571428571428
 40
0.1428571428571428
 40
0.1428571428571428
 40
0.2857142857142857
 40
0.2857142857142857
 40
0.2857142857142857
 40
0.2857142857142857
 40
0.4285714285714285
 40
0.4285714285714285
 40
0.4285714285714285
 40
0.4285714285714285
 40
0.5714285714285714
 40
0.5714285714285714
 40
0.5714285714285714
 40
0.5714285714285714
 40
0.7142857142857143
 40
0.7142857142857143
 40
0.7142857142857143
 40
0.7142857142857143
 40
1.0
 40
1.0
 40
1.0
 40
1.0
 10
-9.2603
 20
-8.2803
 30
0.0
 10
-9.2603
 20
-8.2803
 30
0.0
 10
2.1459
 20
-8.2803
 30
0.0
 10
2.1459
 20
-8.2803
 30
0.0
 10
2.1459
 20
-8.2803
 30
0.0
 10
2.1459
 20
-8.2803
 30
0.0
 10
15.9443
 20
-8.76
 30
0.0
 10
15.9443
 20
-8.76
 30
0.0
 10
15.9443
 20
-8.76
 30
0.0
 10
15.9443
 20
-8.76
 30
0.0
 10
16.0294
 20
-8.7407
 30
0.0
 10
16.0294
 20
-8.7407
 30
0.0
 10
16.0294
 20
-8.7407
 30
0.0
 10
16.0294
 20
-8.7407
 30
0.0
 10
16.6747
 20
-8.594
 30
0.0
 10
16.6747
 20
-8.594
 30
0.0
 10
16.6747
 20
-8.594
 30
0.0
 10
16.6747
 20
-8.594
 30
0.0
 10
17.0399
 20
-0.46
 30
0.0
 10
17.0399
 20
-0.46
 30
0.0
 10
17.0399
 20
-0.46
 30
0.0
 10
17.0399
 20
-0.46
 30
0.0
 10
16.3759
 20
-0.2608
 30
0.0
 10
16.3759
 20
-0.2608
 30
0.0
  0
SPLINE
  5
50
330
1F
100
AcDbEntity
  8
DEFAULT_1
 62
   250
100
AcDbSpline
210
0.0
220
0.0
230
1.0
 70
     8
 71
     3
 72
   112
 73
   108
 74
     0
 42
0.0000000001
 43
0.0000000001
 40
0.0
 40
0.0
 40
0.0
 40
0.0
 40
0.0357142857142857
 40
0.0357142857142857
 40
0.0357142857142857
 40
0.0357142857142857
 40
0.0714285714285714
 40
0.0714285714285714
 40
0.0714285714285714
 40
0.0714285714285714
 40
0.1071428571428571
 40
0.1071428571428571
 40
0.1071428571428571
 40
0.1071428571428571
 40
0.1428571428571428
 40
0.1428571428571428
 40
0.1428571428571428
 40
0.1428571428571428
 40
0.1785714285714286
 40
0.1785714285714286
 40
0.1785714285714286
 40
0.1785714285714286
 40
0.2142857142857143
 40
0.2142857142857143
 40
0.2142857142857143
 40
0.2142857142857143
 40
0.25
 40
0.25
 40
0.25
 40
0.25
 40
0.2857142857142857
 40
0.2857142857142857
 40
0.2857142857142857
 40
0.2857142857142857
 40
0.3214285714285715
 40
0.3214285714285715
 40
0.3214285714285715
 40
0.3214285714285715
 40
0.3571428571428572
 40
0.3571428571428572
 40
0.3571428571428572
 40
0.3571428571428572
 40
0.3928571428571428
 40
0.3928571428571428
 40
0.3928571428571428
 40
0.3928571428571428
 40
0.4285714285714285
 40
0.4285714285714285
 40
0.4285714285714285
 40
0.4285714285714285
 40
0.4642857142857143
 40
0.4642857142857143
 40
0.4642857142857143
 40
0.4642857142857143
 40
0.5
 40
0.5
 40
0.5
 40
0.5
 40
0.5357142857142857
 40
0.5357142857142857
 40
0.5357142857142857
 40
0.5357142857142857
 40
0.5714285714285714
 40
0.5714285714285714
 40
0.5714285714285714
 40
0.5714285714285714
 40
0.6071428571428571
 40
0.6071428571428571
 40
0.6071428571428571
 40
0.6071428571428571
 40
0.6428571428571429
 40
0.6428571428571429
 40
0.6428571428571429
 40
0.6428571428571429
 40
0.6785714285714286
 40
0.6785714285714286
 40
0.6785714285714286
 40
0.6785714285714286
 40
0.7142857142857143
 40
0.7142857142857143
 40
0.7142857142857143
 40
0.7142857142857143
 40
0.75
 40
0.75
 40
0.75
 40
0.75
 40
0.7857142857142857
 40
0.7857142857142857
 40
0.7857142857142857
 40
0.7857142857142857
 40
0.8214285714285714
 40
0.8214285714285714
 40
0.8214285714285714
 40
0.8214285714285714
 40
0.8571428571428571
 40
0.8571428571428571
 40
0.8571428571428571
 40
0.8571428571428571
 40
0.8928571428571429
 40
0.8928571428571429
 40
0.8928571428571429
 40
0.8928571428571429
 40
0.9285714285714286
 40
0.9285714285714286
 40
0.9285714285714286
 40
0.9285714285714286
 40
1.0
 40
1.0
 40
1.0
 40
1.0
 10
2.2
 20
-8.2797
 30
0.0
 10
2.2
 20
-8.2797
 30
0.0
 10
2.2225
 20
-8.2791
 30
0.0
 10
2.2225
 20
-8.2791
 30
0.0
 10
2.2225
 20
-8.2791
 30
0.0
 10
2.2225
 20
-8.2791
 30
0.0
 10
2.2773
 20
-8.2766
 30
0.0
 10
2.2773
 20
-8.2766
 30
0.0
 10
2.2773
 20
-8.2766
 30
0.0
 10
2.2773
 20
-8.2766
 30
0.0
 10
2.3466
 20
-8.2716
 30
0.0
 10
2.3466
 20
-8.2716
 30
0.0
 10
2.3466
 20
-8.2716
 30
0.0
 10
2.3466
 20
-8.2716
 30
0.0
 10
2.4255
 20
-8.2629
 30
0.0
 10
2.4255
 20
-8.2629
 30
0.0
 10
2.4255
 20
-8.2629
 30
0.0
 10
2.4255
 20
-8.2629
 30
0.0
 10
2.5116
 20
-8.2497
 30
0.0
 10
2.5116
 20
-8.2497
 30
0.0
 10
2.5116
 20
-8.2497
 30
0.0
 10
2.5116
 20
-8.2497
 30
0.0
 10
2.6044
 20
-8.2306
 30
0.0
 10
2.6044
 20
-8.2306
 30
0.0
 10
2.6044
 20
-8.2306
 30
0.0
 10
2.6044
 20
-8.2306
 30
0.0
 10
2.7035
 20
-8.2039
 30
0.0
 10
2.7035
 20
-8.2039
 30
0.0
 10
2.7035
 20
-8.2039
 30
0.0
 10
2.7035
 20
-8.2039
 30
0.0
 10
2.8088
 20
-8.1678
 30
0.0
 10
2.8088
 20
-8.1678
 30
0.0
 10
2.8088
 20
-8.1678
 30
0.0
 10
2.8088
 20
-8.1678
 30
0.0
 10
2.9197
 20
-8.1198
 30
0.0
 10
2.9197
 20
-8.1198
 30
0.0
 10
2.9197
 20
-8.1198
 30
0.0
 10
2.9197
 20
-8.1198
 30
0.0
 10
3.035
 20
-8.0569
 30
0.0
 10
3.035
 20
-8.0569
 30
0.0
 10
3.035
 20
-8.0569
 30
0.0
 10
3.035
 20
-8.0569
 30
0.0
 10
3.1533
 20
-7.9761
 30
0.0
 10
3.1533
 20
-7.9761
 30
0.0
 10
3.1533
 20
-7.9761
 30
0.0
 10
3.1533
 20
-7.9761
 30
0.0
 10
3.273
 20
-7.8729
 30
0.0
 10
3.273
 20
-7.8729
 30
0.0
 10
3.273
 20
-7.8729
 30
0.0
 10
3.273
 20
-7.8729
 30
0.0
 10
3.3939
 20
-7.7397
 30
0.0
 10
3.3939
 20
-7.7397
 30
0.0
 10
3.3939
 20
-7.7397
 30
0.0
 10
3.3939
 20
-7.7397
 30
0.0
 10
3.5133
 20
-7.5667
 30
0.0
 10
3.5133
 20
-7.5667
 30
0.0
 10
3.5133
 20
-7.5667
 30
0.0
 10
3.5133
 20
-7.5667
 30
0.0
 10
3.6253
 20
-7.3417
 30
0.0
 10
3.6253
 20
-7.3417
 30
0.0
 10
3.6253
 20
-7.3417
 30
0.0
 10
3.6253
 20
-7.3417
 30
0.0
 10
3.7196
 20
-7.0513
 30
0.0
 10
3.7196
 20
-7.0513
 30
0.0
 10
3.7196
 20
-7.0513
 30
0.0
 10
3.7196
 20
-7.0513
 30
0.0
 10
3.7801
 20
-6.6826
 30
0.0
 10
3.7801
 20
-6.6826
 30
0.0
 10
3.7801
 20
-6.6826
 30
0.0
 10
3.7801
 20
-6.6826
 30
0.0
 10
3.7849
 20
-6.2431
 30
0.0
 10
3.7849
 20
-6.2431
 30
0.0
 10
3.7849
 20
-6.2431
 30
0.0
 10
3.7849
 20
-6.2431
 30
0.0
 10
3.7194
 20
-5.7671
 30
0.0
 10
3.7194
 20
-5.7671
 30
0.0
 10
3.7194
 20
-5.7671
 30
0.0
 10
3.7194
 20
-5.7671
 30
0.0
 10
3.6159
 20
-4.7981
 30
0.0
 10
3.6159
 20
-4.7981
 30
0.0
 10
3.6159
 20
-4.7981
 30
0.0
 10
3.6159
 20
-4.7981
 30
0.0
 10
3.5219
 20
-3.7308
 30
0.0
 10
3.5219
 20
-3.7308
 30
0.0
 10
3.5219
 20
-3.7308
 30
0.0
 10
3.5219
 20
-3.7308
 30
0.0
 10
3.7099
 20
-2.6636
 30
0.0
 10
3.7099
 20
-2.6636
 30
0.0
 10
3.7099
 20
-2.6636
 30
0.0
 10
3.7099
 20
-2.6636
 30
0.0
 10
4.0858
 20
-1.408
 30
0.0
 10
4.0858
 20
-1.408
 30
0.0
 10
4.0858
 20
-1.408
 30
0.0
 10
4.0858
 20
-1.408
 30
0.0
 10
4.5557
 20
-0.3093
 30
0.0
 10
4.5557
 20
-0.3093
 30
0.0
 10
4.5557
 20
-0.3093
 30
0.0
 10
4.5557
 20
-0.3093
 30
0.0
 10
4.816
 20
0.1601
 30
0.0
 10
4.816
 20
0.1601
 30
0.0
 10
4.816
 20
0.1601
 30
0.0
 10
4.816
 20
0.1601
 30
0.0
 10
4.869
 20
0.2557
 30
0.0
 10
4.869
 20
0.2557
 30
0.0
 10
4.869
 20
0.2557
 30
0.0
 10
4.869
 20
0.2557
 30
0.0
 10
4.869
 20
1.3544
 30
0.0
 10
4.869
 20
1.3544
 30
0.0
  0
SPLINE
  5
51
330
1F
100
AcDbEntity
  8
DEFAULT_1
 62
   250
100
AcDbSpline
210
0.0
220
0.0
230
1.0
 70
     8
 71
     3
 72
    16
 73
    12
 74
     0
 42
0.0000000001
 43
0.0000000001
 40
0.0
 40
0.0
 40
0.0
 40
0.0
 40
0.25
 40
0.25
 40
0.25
 40
0.25
 40
0.5
 40
0.5
 40
0.5
 40
0.5
 40
1.0
 40
1.0
 40
1.0
 40
1.0
 10
-12.9294
 20
2.6271
 30
0.0
 10
-12.9294
 20
2.6271
 30
0.0
 10
-12.936
 20
5.1911
 30
0.0
 10
-12.936
 20
5.1911
 30
0.0
 10
-12.936
 20
5.1911
 30
0.0
 10
-12.936
 20
5.1911
 30
0.0
 10
5.8216
 20
5.1911
 30
0.0
 10
5.8216
 20
5.1911
 30
0.0
 10
5.8216
 20
5.1911
 30
0.0
 10
5.8216
 20
5.1911
 30
0.0
 10
5.8179
 20
2.6018
 30
0.0
 10
5.8179
 20
2.6018
 30
0.0
  0
SPLINE
  5
52
330
1F
100
AcDbEntity
  8
DEFAULT_1
  6
NEW_LINE1
 62
   250
100
AcDbSpline
210
0.0
220
0.0
230
1.0
 70
    24
 71
     3
 72
     8
 73
     4
 74
     0
 42
0.0000000001
 43
0.0000000001
 40
0.0
 40
0.0
 40
0.0
 40
0.0
 40
1.0
 40
1.0
 40
1.0
 40
1.0
 10
17.4899
 20
-4.548
 30
0.0
 10
17.4899
 20
-4.548
 30
0.0
 10
-3.8907
 20
-3.8013
 30
0.0
 10
-3.8907
 20
-3.8013
 30
0.0
  0
SPLINE
  5
54
330
1F
100
AcDbEntity
  8
DEFAULT_1
  6
NEW_LINE2
 62
   250
100
AcDbSpline
210
0.0
220
0.0
230
1.0
 70
    24
 71
     3
 72
     8
 73
     4
 74
     0
 42
0.0000000001
 43
0.0000000001
 40
0.0
 40
0.0
 40
0.0
 40
0.0
 40
1.0
 40
1.0
 40
1.0
 40
1.0
 10
-3.5572
 20
-8.6672
 30
0.0
 10
-3.5572
 20
-8.6672
 30
0.0
 10
-3.5572
 20
6.2843
 30
0.0
 10
-3.5572
 20
6.2843
 30
0.0
  0
SPLINE
  5
56
330
1F
100
AcDbEntity
  8
DEFAULT_1
 62
   250
100
AcDbSpline
210
0.0
220
0.0
230
1.0
 70
    11
 71
     3
 72
    48
 73
    44
 74
     0
 42
0.0000000001
 43
0.0000000001
 40
0.0
 40
0.0
 40
0.0
 40
0.0
 40
0.0833333333333333
 40
0.0833333333333333
 40
0.0833333333333333
 40
0.0833333333333333
 40
0.1666666666666667
 40
0.1666666666666667
 40
0.1666666666666667
 40
0.1666666666666667
 40
0.25
 40
0.25
 40
0.25
 40
0.25
 40
0.3333333333333333
 40
0.3333333333333333
 40
0.3333333333333333
 40
0.3333333333333333
 40
0.4166666666666667
 40
0.4166666666666667
 40
0.4166666666666667
 40
0.4166666666666667
 40
0.5
 40
0.5
 40
0.5
 40
0.5
 40
0.5833333333333334
 40
0.5833333333333334
 40
0.5833333333333334
 40
0.5833333333333334
 40
0.6666666666666666
 40
0.6666666666666666
 40
0.6666666666666666
 40
0.6666666666666666
 40
0.75
 40
0.75
 40
0.75
 40
0.75
 40
0.8333333333333334
 40
0.8333333333333334
 40
0.8333333333333334
 40
0.8333333333333334
 40
1.0
 40
1.0
 40
1.0
 40
1.0
 10
-21.8949
 20
-2.1865
 30
0.0
 10
-21.8949
 20
-2.1865
 30
0.0
 10
-22.1334
 20
-2.1865
 30
0.0
 10
-22.1334
 20
-2.1865
 30
0.0
 10
-22.1334
 20
-2.1865
 30
0.0
 10
-22.1334
 20
-2.1865
 30
0.0
 10
-22.1334
 20
-0.8789
 30
0.0
 10
-22.1334
 20
-0.8789
 30
0.0
 10
-22.1334
 20
-0.8789
 30
0.0
 10
-22.1334
 20
-0.8789
 30
0.0
 10
-21.9405
 20
-0.8789
 30
0.0
 10
-21.9405
 20
-0.8789
 30
0.0
 10
-21.9405
 20
-0.8789
 30
0.0
 10
-21.8037
 20
-1.0073
 30
0.0
 10
-21.6216
 20
-1.1348
 30
0.0
 10
-21.3949
 20
-1.2613
 30
0.0
 10
-21.3949
 20
-1.2613
 30
0.0
 10
-21.1682
 20
-1.3874
 30
0.0
 10
-20.9344
 20
-1.4852
 30
0.0
 10
-20.695
 20
-1.5539
 30
0.0
 10
-20.695
 20
-1.5539
 30
0.0
 10
-20.5257
 20
-1.6037
 30
0.0
 10
-20.3408
 20
-1.6352
 30
0.0
 10
-20.1395
 20
-1.6489
 30
0.0
 10
-20.1395
 20
-1.6489
 30
0.0
 10
-20.1395
 20
-1.6489
 30
0.0
 10
-20.1395
 20
-1.9038
 30
0.0
 10
-20.1395
 20
-1.9038
 30
0.0
 10
-20.1395
 20
-1.9038
 30
0.0
 10
-20.2985
 20
-1.901
 30
0.0
 10
-20.4904
 20
-1.87
 30
0.0
 10
-20.7157
 20
-1.8102
 30
0.0
 10
-20.7157
 20
-1.8102
 30
0.0
 10
-20.9405
 20
-1.7505
 30
0.0
 10
-21.1578
 20
-1.6649
 30
0.0
 10
-21.3667
 20
-1.5534
 30
0.0
 10
-21.3667
 20
-1.5534
 30
0.0
 10
-21.5755
 20
-1.4415
 30
0.0
 10
-21.7519
 20
-1.3229
 30
0.0
 10
-21.8949
 20
-1.1969
 30
0.0
 10
-21.8949
 20
-1.1969
 30
0.0
 10
-21.8949
 20
-1.1969
 30
0.0
 10
-21.8949
 20
-2.1865
 30
0.0
 10
-21.8949
 20
-2.1865
 30
0.0
  0
SPLINE
  5
57
330
1F
100
AcDbEntity
  8
DEFAULT_1
 62
   250
100
AcDbSpline
210
0.0
220
0.0
230
1.0
 70
    11
 71
     3
 72
    92
 73
    88
 74
     0
 42
0.0000000001
 43
0.0000000001
 40
0.0
 40
0.0
 40
0.0
 40
0.0
 40
0.0434782608695652
 40
0.0434782608695652
 40
0.0434782608695652
 40
0.0434782608695652
 40
0.0869565217391304
 40
0.0869565217391304
 40
0.0869565217391304
 40
0.0869565217391304
 40
0.1304347826086956
 40
0.1304347826086956
 40
0.1304347826086956
 40
0.1304347826086956
 40
0.1739130434782609
 40
0.1739130434782609
 40
0.1739130434782609
 40
0.1739130434782609
 40
0.2173913043478261
 40
0.2173913043478261
 40
0.2173913043478261
 40
0.2173913043478261
 40
0.2608695652173913
 40
0.2608695652173913
 40
0.2608695652173913
 40
0.2608695652173913
 40
0.3043478260869565
 40
0.3043478260869565
 40
0.3043478260869565
 40
0.3043478260869565
 40
0.3478260869565217
 40
0.3478260869565217
 40
0.3478260869565217
 40
0.3478260869565217
 40
0.391304347826087
 40
0.391304347826087
 40
0.391304347826087
 40
0.391304347826087
 40
0.4347826086956522
 40
0.4347826086956522
 40
0.4347826086956522
 40
0.4347826086956522
 40
0.4782608695652174
 40
0.4782608695652174
 40
0.4782608695652174
 40
0.4782608695652174
 40
0.5217391304347826
 40
0.5217391304347826
 40
0.5217391304347826
 40
0.5217391304347826
 40
0.5652173913043478
 40
0.5652173913043478
 40
0.5652173913043478
 40
0.5652173913043478
 40
0.6086956521739131
 40
0.6086956521739131
 40
0.6086956521739131
 40
0.6086956521739131
 40
0.6521739130434783
 40
0.6521739130434783
 40
0.6521739130434783
 40
0.6521739130434783
 40
0.6956521739130435
 40
0.6956521739130435
 40
0.6956521739130435
 40
0.6956521739130435
 40
0.7391304347826086
 40
0.7391304347826086
 40
0.7391304347826086
 40
0.7391304347826086
 40
0.782608695652174
 40
0.782608695652174
 40
0.782608695652174
 40
0.782608695652174
 40
0.8260869565217391
 40
0.8260869565217391
 40
0.8260869565217391
 40
0.8260869565217391
 40
0.8695652173913043
 40
0.8695652173913043
 40
0.8695652173913043
 40
0.8695652173913043
 40
0.9130434782608695
 40
0.9130434782608695
 40
0.9130434782608695
 40
0.9130434782608695
 40
1.0
 40
1.0
 40
1.0
 40
1.0
 10
-20.6066
 20
-0.5962
 30
0.0
 10
-20.6066
 20
-0.5962
 30
0.0
 10
-20.6287
 20
-0.3577
 30
0.0
 10
-20.6287
 20
-0.3577
 30
0.0
 10
-20.6287
 20
-0.3577
 30
0.0
 10
-20.5167
 20
-0.3375
 30
0.0
 10
-20.4354
 20
-0.2989
 30
0.0
 10
-20.3846
 20
-0.242
 30
0.0
 10
-20.3846
 20
-0.242
 30
0.0
 10
-20.3342
 20
-0.1851
 30
0.0
 10
-20.3088
 20
-0.1122
 30
0.0
 10
-20.3088
 20
-0.0228
 30
0.0
 10
-20.3088
 20
-0.0228
 30
0.0
 10
-20.3088
 20
0.0534
 30
0.0
 10
-20.3262
 20
0.1201
 30
0.0
 10
-20.3615
 20
0.1775
 30
0.0
 10
-20.3615
 20
0.1775
 30
0.0
 10
-20.3963
 20
0.2349
 30
0.0
 10
-20.4429
 20
0.282
 30
0.0
 10
-20.5012
 20
0.3186
 30
0.0
 10
-20.5012
 20
0.3186
 30
0.0
 10
-20.5595
 20
0.3558
 30
0.0
 10
-20.6386
 20
0.3864
 30
0.0
 10
-20.7373
 20
0.4113
 30
0.0
 10
-20.7373
 20
0.4113
 30
0.0
 10
-20.8366
 20
0.4358
 30
0.0
 10
-20.9377
 20
0.4485
 30
0.0
 10
-21.0407
 20
0.4485
 30
0.0
 10
-21.0407
 20
0.4485
 30
0.0
 10
-21.0515
 20
0.4485
 30
0.0
 10
-21.0685
 20
0.448
 30
0.0
 10
-21.0901
 20
0.4471
 30
0.0
 10
-21.0901
 20
0.4471
 30
0.0
 10
-21.0116
 20
0.3972
 30
0.0
 10
-20.9471
 20
0.3295
 30
0.0
 10
-20.8982
 20
0.2439
 30
0.0
 10
-20.8982
 20
0.2439
 30
0.0
 10
-20.8488
 20
0.1578
 30
0.0
 10
-20.8244
 20
0.0646
 30
0.0
 10
-20.8244
 20
-0.0351
 30
0.0
 10
-20.8244
 20
-0.0351
 30
0.0
 10
-20.8244
 20
-0.2025
 30
0.0
 10
-20.885
 20
-0.3441
 30
0.0
 10
-21.0064
 20
-0.4598
 30
0.0
 10
-21.0064
 20
-0.4598
 30
0.0
 10
-21.1277
 20
-0.5755
 30
0.0
 10
-21.2872
 20
-0.6334
 30
0.0
 10
-21.4857
 20
-0.6334
 30
0.0
 10
-21.4857
 20
-0.6334
 30
0.0
 10
-21.6908
 20
-0.6334
 30
0.0
 10
-21.8554
 20
-0.5732
 30
0.0
 10
-21.9805
 20
-0.4523
 30
0.0
 10
-21.9805
 20
-0.4523
 30
0.0
 10
-22.1056
 20
-0.3314
 30
0.0
 10
-22.1682
 20
-0.1799
 30
0.0
 10
-22.1682
 20
0.0021
 30
0.0
 10
-22.1682
 20
0.0021
 30
0.0
 10
-22.1682
 20
0.1333
 30
0.0
 10
-22.1324
 20
0.2533
 30
0.0
 10
-22.0619
 20
0.3624
 30
0.0
 10
-22.0619
 20
0.3624
 30
0.0
 10
-21.9913
 20
0.471
 30
0.0
 10
-21.8902
 20
0.5538
 30
0.0
 10
-21.7594
 20
0.6103
 30
0.0
 10
-21.7594
 20
0.6103
 30
0.0
 10
-21.6287
 20
0.6667
 30
0.0
 10
-21.4391
 20
0.6949
 30
0.0
 10
-21.1908
 20
0.6949
 30
0.0
 10
-21.1908
 20
0.6949
 30
0.0
 10
-20.933
 20
0.6949
 30
0.0
 10
-20.7275
 20
0.6672
 30
0.0
 10
-20.5741
 20
0.6112
 30
0.0
 10
-20.5741
 20
0.6112
 30
0.0
 10
-20.4212
 20
0.5548
 30
0.0
 10
-20.3051
 20
0.4715
 30
0.0
 10
-20.2251
 20
0.361
 30
0.0
 10
-20.2251
 20
0.361
 30
0.0
 10
-20.1451
 20
0.25
 30
0.0
 10
-20.1052
 20
0.1206
 30
0.0
 10
-20.1052
 20
-0.0285
 30
0.0
 10
-20.1052
 20
-0.0285
 30
0.0
 10
-20.1052
 20
-0.1865
 30
0.0
 10
-20.1489
 20
-0.3154
 30
0.0
 10
-20.2369
 20
-0.4156
 30
0.0
 10
-20.2369
 20
-0.4156
 30
0.0
 10
-20.3244
 20
-0.5158
 30
0.0
 10
-20.4476
 20
-0.576
 30
0.0
 10
-20.6066
 20
-0.5962
 30
0.0
  0
SPLINE
  5
58
330
1F
100
AcDbEntity
  8
DEFAULT_1
 62
   250
100
AcDbSpline
210
0.0
220
0.0
230
1.0
 70
    11
 71
     3
 72
    36
 73
    32
 74
     0
 42
0.0000000001
 43
0.0000000001
 40
0.0
 40
0.0
 40
0.0
 40
0.0
 40
0.1111111111111111
 40
0.1111111111111111
 40
0.1111111111111111
 40
0.1111111111111111
 40
0.2222222222222222
 40
0.2222222222222222
 40
0.2222222222222222
 40
0.2222222222222222
 40
0.3333333333333333
 40
0.3333333333333333
 40
0.3333333333333333
 40
0.3333333333333333
 40
0.4444444444444444
 40
0.4444444444444444
 40
0.4444444444444444
 40
0.4444444444444444
 40
0.5555555555555556
 40
0.5555555555555556
 40
0.5555555555555556
 40
0.5555555555555556
 40
0.6666666666666666
 40
0.6666666666666666
 40
0.6666666666666666
 40
0.6666666666666666
 40
0.7777777777777778
 40
0.7777777777777778
 40
0.7777777777777778
 40
0.7777777777777778
 40
1.0
 40
1.0
 40
1.0
 40
1.0
 10
-21.4984
 20
0.4193
 30
0.0
 10
-21.6404
 20
0.4193
 30
0.0
 10
-21.7538
 20
0.3817
 30
0.0
 10
-21.8371
 20
0.3059
 30
0.0
 10
-21.8371
 20
0.3059
 30
0.0
 10
-21.9208
 20
0.2297
 30
0.0
 10
-21.9626
 20
0.139
 30
0.0
 10
-21.9626
 20
0.0322
 30
0.0
 10
-21.9626
 20
0.0322
 30
0.0
 10
-21.9626
 20
-0.0779
 30
0.0
 10
-21.9175
 20
-0.1738
 30
0.0
 10
-21.8276
 20
-0.2557
 30
0.0
 10
-21.8276
 20
-0.2557
 30
0.0
 10
-21.7373
 20
-0.3375
 30
0.0
 10
-21.6207
 20
-0.3784
 30
0.0
 10
-21.4777
 20
-0.3784
 30
0.0
 10
-21.4777
 20
-0.3784
 30
0.0
 10
-21.3488
 20
-0.3784
 30
0.0
 10
-21.2444
 20
-0.3394
 30
0.0
 10
-21.164
 20
-0.2618
 30
0.0
 10
-21.164
 20
-0.2618
 30
0.0
 10
-21.0835
 20
-0.1842
 30
0.0
 10
-21.0435
 20
-0.0887
 30
0.0
 10
-21.0435
 20
0.0251
 30
0.0
 10
-21.0435
 20
0.0251
 30
0.0
 10
-21.0435
 20
0.1404
 30
0.0
 10
-21.0835
 20
0.2344
 30
0.0
 10
-21.164
 20
0.3083
 30
0.0
 10
-21.164
 20
0.3083
 30
0.0
 10
-21.2444
 20
0.3826
 30
0.0
 10
-21.3559
 20
0.4193
 30
0.0
 10
-21.4984
 20
0.4193
 30
0.0
  0
SPLINE
  5
59
330
1F
100
AcDbEntity
  8
DEFAULT_1
 62
   250
100
AcDbSpline
210
0.0
220
0.0
230
1.0
 70
    11
 71
     3
 72
    20
 73
    16
 74
     0
 42
0.0000000001
 43
0.0000000001
 40
0.0
 40
0.0
 40
0.0
 40
0.0
 40
0.2
 40
0.2
 40
0.2
 40
0.2
 40
0.4
 40
0.4
 40
0.4
 40
0.4
 40
0.6
 40
0.6
 40
0.6
 40
0.6
 40
1.0
 40
1.0
 40
1.0
 40
1.0
 10
-20.035
 20
2.615
 30
0.0
 10
-20.035
 20
2.615
 30
0.0
 10
-19.6821
 20
5.115
 30
0.0
 10
-19.6821
 20
5.115
 30
0.0
 10
-19.6821
 20
5.115
 30
0.0
 10
-19.6821
 20
5.115
 30
0.0
 10
-19.6038
 20
5.115
 30
0.0
 10
-19.6038
 20
5.115
 30
0.0
 10
-19.6038
 20
5.115
 30
0.0
 10
-19.6038
 20
5.115
 30
0.0
 10
-19.2275
 20
2.615
 30
0.0
 10
-19.2275
 20
2.615
 30
0.0
 10
-19.2275
 20
2.615
 30
0.0
 10
-19.2275
 20
2.615
 30
0.0
 10
-20.035
 20
2.615
 30
0.0
 10
-20.035
 20
2.615
 30
0.0
  0
SPLINE
  5
5A
330
1F
100
AcDbEntity
  8
DEFAULT_1
 62
   250
100
AcDbSpline
210
0.0
220
0.0
230
1.0
 70
    11
 71
     3
 72
    20
 73
    16
 74
     0
 42
0.0000000001
 43
0.0000000001
 40
0.0
 40
0.0
 40
0.0
 40
0.0
 40
0.2
 40
0.2
 40
0.2
 40
0.2
 40
0.4
 40
0.4
 40
0.4
 40
0.4
 40
0.6
 40
0.6
 40
0.6
 40
0.6
 40
1.0
 40
1.0
 40
1.0
 40
1.0
 10
-19.255
 20
-5.6392
 30
0.0
 10
-19.255
 20
-5.6392
 30
0.0
 10
-19.6079
 20
-8.1392
 30
0.0
 10
-19.6079
 20
-8.1392
 30
0.0
 10
-19.6079
 20
-8.1392
 30
0.0
 10
-19.6079
 20
-8.1392
 30
0.0
 10
-19.6862
 20
-8.1392
 30
0.0
 10
-19.6862
 20
-8.1392
 30
0.0
 10
-19.6862
 20
-8.1392
 30
0.0
 10
-19.6862
 20
-8.1392
 30
0.0
 10
-20.0625
 20
-5.6392
 30
0.0
 10
-20.0625
 20
-5.6392
 30
0.0
 10
-20.0625
 20
-5.6392
 30
0.0
 10
-20.0625
 20
-5.6392
 30
0.0
 10
-19.255
 20
-5.6392
 30
0.0
 10
-19.255
 20
-5.6392
 30
0.0
  0
SPLINE
  5
5B
330
1F
100
AcDbEntity
  8
DEFAULT_1
 62
   250
100
AcDbSpline
210
0.0
220
0.0
230
1.0
 70
    11
 71
     3
 72
    84
 73
    80
 74
     0
 42
0.0000000001
 43
0.0000000001
 40
0.0
 40
0.0
 40
0.0
 40
0.0
 40
0.0476190476190476
 40
0.0476190476190476
 40
0.0476190476190476
 40
0.0476190476190476
 40
0.0952380952380952
 40
0.0952380952380952
 40
0.0952380952380952
 40
0.0952380952380952
 40
0.1428571428571428
 40
0.1428571428571428
 40
0.1428571428571428
 40
0.1428571428571428
 40
0.1904761904761905
 40
0.1904761904761905
 40
0.1904761904761905
 40
0.1904761904761905
 40
0.2380952380952381
 40
0.2380952380952381
 40
0.2380952380952381
 40
0.2380952380952381
 40
0.2857142857142857
 40
0.2857142857142857
 40
0.2857142857142857
 40
0.2857142857142857
 40
0.3333333333333333
 40
0.3333333333333333
 40
0.3333333333333333
 40
0.3333333333333333
 40
0.3809523809523809
 40
0.3809523809523809
 40
0.3809523809523809
 40
0.3809523809523809
 40
0.4285714285714285
 40
0.4285714285714285
 40
0.4285714285714285
 40
0.4285714285714285
 40
0.4761904761904762
 40
0.4761904761904762
 40
0.4761904761904762
 40
0.4761904761904762
 40
0.5238095238095238
 40
0.5238095238095238
 40
0.5238095238095238
 40
0.5238095238095238
 40
0.5714285714285714
 40
0.5714285714285714
 40
0.5714285714285714
 40
0.5714285714285714
 40
0.6190476190476191
 40
0.6190476190476191
 40
0.6190476190476191
 40
0.6190476190476191
 40
0.6666666666666666
 40
0.6666666666666666
 40
0.6666666666666666
 40
0.6666666666666666
 40
0.7142857142857143
 40
0.7142857142857143
 40
0.7142857142857143
 40
0.7142857142857143
 40
0.7619047619047619
 40
0.7619047619047619
 40
0.7619047619047619
 40
0.7619047619047619
 40
0.8095238095238095
 40
0.8095238095238095
 40
0.8095238095238095
 40
0.8095238095238095
 40
0.8571428571428571
 40
0.8571428571428571
 40
0.8571428571428571
 40
0.8571428571428571
 40
0.9047619047619048
 40
0.9047619047619048
 40
0.9047619047619048
 40
0.9047619047619048
 40
1.0
 40
1.0
 40
1.0
 40
1.0
 10
-5.3523
 20
12.3079
 30
0.0
 10
-5.3523
 20
12.3079
 30
0.0
 10
-5.1209
 20
12.567
 30
0.0
 10
-5.1209
 20
12.567
 30
0.0
 10
-5.1209
 20
12.567
 30
0.0
 10
-5.1209
 20
12.567
 30
0.0
 10
-4.9845
 20
12.4513
 30
0.0
 10
-4.9845
 20
12.4513
 30
0.0
 10
-4.9845
 20
12.4513
 30
0.0
 10
-4.9845
 20
12.4513
 30
0.0
 10
-5.2267
 20
12.1785
 30
0.0
 10
-5.2267
 20
12.1785
 30
0.0
 10
-5.2267
 20
12.1785
 30
0.0
 10
-5.1477
 20
12.0609
 30
0.0
 10
-5.0946
 20
11.9579
 30
0.0
 10
-5.0668
 20
11.87
 30
0.0
 10
-5.0668
 20
11.87
 30
0.0
 10
-5.0301
 20
11.7542
 30
0.0
 10
-5.0118
 20
11.6244
 30
0.0
 10
-5.0118
 20
11.4814
 30
0.0
 10
-5.0118
 20
11.4814
 30
0.0
 10
-5.0118
 20
11.2745
 30
0.0
 10
-5.0536
 20
11.0901
 30
0.0
 10
-5.1374
 20
10.9288
 30
0.0
 10
-5.1374
 20
10.9288
 30
0.0
 10
-5.2211
 20
10.7669
 30
0.0
 10
-5.3382
 20
10.6447
 30
0.0
 10
-5.4892
 20
10.5619
 30
0.0
 10
-5.4892
 20
10.5619
 30
0.0
 10
-5.6407
 20
10.4796
 30
0.0
 10
-5.801
 20
10.4382
 30
0.0
 10
-5.9708
 20
10.4382
 30
0.0
 10
-5.9708
 20
10.4382
 30
0.0
 10
-6.0978
 20
10.4382
 30
0.0
 10
-6.2126
 20
10.456
 30
0.0
 10
-6.3156
 20
10.4918
 30
0.0
 10
-6.3156
 20
10.4918
 30
0.0
 10
-6.3946
 20
10.5195
 30
0.0
 10
-6.4868
 20
10.5722
 30
0.0
 10
-6.5927
 20
10.6503
 30
0.0
 10
-6.5927
 20
10.6503
 30
0.0
 10
-6.5927
 20
10.6503
 30
0.0
 10
-6.8241
 20
10.3911
 30
0.0
 10
-6.8241
 20
10.3911
 30
0.0
 10
-6.8241
 20
10.3911
 30
0.0
 10
-6.8241
 20
10.3911
 30
0.0
 10
-6.9605
 20
10.5068
 30
0.0
 10
-6.9605
 20
10.5068
 30
0.0
 10
-6.9605
 20
10.5068
 30
0.0
 10
-6.9605
 20
10.5068
 30
0.0
 10
-6.7178
 20
10.7782
 30
0.0
 10
-6.7178
 20
10.7782
 30
0.0
 10
-6.7178
 20
10.7782
 30
0.0
 10
-6.8081
 20
10.9151
 30
0.0
 10
-6.8683
 20
11.0322
 30
0.0
 10
-6.8984
 20
11.1291
 30
0.0
 10
-6.8984
 20
11.1291
 30
0.0
 10
-6.9285
 20
11.226
 30
0.0
 10
-6.944
 20
11.3427
 30
0.0
 10
-6.944
 20
11.4786
 30
0.0
 10
-6.944
 20
11.4786
 30
0.0
 10
-6.944
 20
11.686
 30
0.0
 10
-6.9026
 20
11.8709
 30
0.0
 10
-6.8199
 20
12.0332
 30
0.0
 10
-6.8199
 20
12.0332
 30
0.0
 10
-6.7371
 20
12.1955
 30
0.0
 10
-6.6214
 20
12.3182
 30
0.0
 10
-6.4718
 20
12.4019
 30
0.0
 10
-6.4718
 20
12.4019
 30
0.0
 10
-6.3227
 20
12.4852
 30
0.0
 10
-6.1566
 20
12.5271
 30
0.0
 10
-5.9737
 20
12.5271
 30
0.0
 10
-5.9737
 20
12.5271
 30
0.0
 10
-5.8504
 20
12.5271
 30
0.0
 10
-5.7427
 20
12.5111
 30
0.0
 10
-5.6505
 20
12.4781
 30
0.0
 10
-5.6505
 20
12.4781
 30
0.0
 10
-5.5583
 20
12.4457
 30
0.0
 10
-5.4586
 20
12.3888
 30
0.0
 10
-5.3523
 20
12.3079
 30
0.0
  0
SPLINE
  5
5C
330
1F
100
AcDbEntity
  8
DEFAULT_1
 62
   250
100
AcDbSpline
210
0.0
220
0.0
230
1.0
 70
    11
 71
     3
 72
    32
 73
    28
 74
     0
 42
0.0000000001
 43
0.0000000001
 40
0.0
 40
0.0
 40
0.0
 40
0.0
 40
0.125
 40
0.125
 40
0.125
 40
0.125
 40
0.25
 40
0.25
 40
0.25
 40
0.25
 40
0.375
 40
0.375
 40
0.375
 40
0.375
 40
0.5
 40
0.5
 40
0.5
 40
0.5
 40
0.625
 40
0.625
 40
0.625
 40
0.625
 40
0.75
 40
0.75
 40
0.75
 40
0.75
 40
1.0
 40
1.0
 40
1.0
 40
1.0
 10
-5.5174
 20
12.1221
 30
0.0
 10
-5.604
 20
12.1898
 30
0.0
 10
-5.6797
 20
12.2364
 30
0.0
 10
-5.7441
 20
12.2613
 30
0.0
 10
-5.7441
 20
12.2613
 30
0.0
 10
-5.809
 20
12.2858
 30
0.0
 10
-5.8852
 20
12.2985
 30
0.0
 10
-5.9723
 20
12.2985
 30
0.0
 10
-5.9723
 20
12.2985
 30
0.0
 10
-6.1736
 20
12.2985
 30
0.0
 10
-6.3396
 20
12.2303
 30
0.0
 10
-6.4713
 20
12.0939
 30
0.0
 10
-6.4713
 20
12.0939
 30
0.0
 10
-6.6026
 20
11.9574
 30
0.0
 10
-6.6684
 20
11.7538
 30
0.0
 10
-6.6684
 20
11.4824
 30
0.0
 10
-6.6684
 20
11.4824
 30
0.0
 10
-6.6684
 20
11.3761
 30
0.0
 10
-6.6581
 20
11.2815
 30
0.0
 10
-6.6378
 20
11.1987
 30
0.0
 10
-6.6378
 20
11.1987
 30
0.0
 10
-6.6232
 20
11.1371
 30
0.0
 10
-6.5927
 20
11.0614
 30
0.0
 10
-6.5456
 20
10.9716
 30
0.0
 10
-6.5456
 20
10.9716
 30
0.0
 10
-6.5456
 20
10.9716
 30
0.0
 10
-5.5174
 20
12.1221
 30
0.0
 10
-5.5174
 20
12.1221
 30
0.0
  0
SPLINE
  5
5D
330
1F
100
AcDbEntity
  8
DEFAULT_1
 62
   250
100
AcDbSpline
210
0.0
220
0.0
230
1.0
 70
    11
 71
     3
 72
    28
 73
    24
 74
     0
 42
0.0000000001
 43
0.0000000001
 40
0.0
 40
0.0
 40
0.0
 40
0.0
 40
0.1428571428571428
 40
0.1428571428571428
 40
0.1428571428571428
 40
0.1428571428571428
 40
0.2857142857142857
 40
0.2857142857142857
 40
0.2857142857142857
 40
0.2857142857142857
 40
0.4285714285714285
 40
0.4285714285714285
 40
0.4285714285714285
 40
0.4285714285714285
 40
0.5714285714285714
 40
0.5714285714285714
 40
0.5714285714285714
 40
0.5714285714285714
 40
0.7142857142857143
 40
0.7142857142857143
 40
0.7142857142857143
 40
0.7142857142857143
 40
1.0
 40
1.0
 40
1.0
 40
1.0
 10
-5.4045
 20
11.98
 30
0.0
 10
-5.4045
 20
11.98
 30
0.0
 10
-6.4285
 20
10.8337
 30
0.0
 10
-6.4285
 20
10.8337
 30
0.0
 10
-6.4285
 20
10.8337
 30
0.0
 10
-6.358
 20
10.7759
 30
0.0
 10
-6.2926
 20
10.7354
 30
0.0
 10
-6.2328
 20
10.7124
 30
0.0
 10
-6.2328
 20
10.7124
 30
0.0
 10
-6.1548
 20
10.6818
 30
0.0
 10
-6.0701
 20
10.6668
 30
0.0
 10
-5.9793
 20
10.6668
 30
0.0
 10
-5.9793
 20
10.6668
 30
0.0
 10
-5.7789
 20
10.6668
 30
0.0
 10
-5.6138
 20
10.7373
 30
0.0
 10
-5.4831
 20
10.8789
 30
0.0
 10
-5.4831
 20
10.8789
 30
0.0
 10
-5.3528
 20
11.0205
 30
0.0
 10
-5.2874
 20
11.219
 30
0.0
 10
-5.2874
 20
11.4744
 30
0.0
 10
-5.2874
 20
11.4744
 30
0.0
 10
-5.2874
 20
11.6653
 30
0.0
 10
-5.3264
 20
11.8342
 30
0.0
 10
-5.4045
 20
11.98
 30
0.0
  0
SPLINE
  5
5E
330
1F
100
AcDbEntity
  8
DEFAULT_1
 62
   250
100
AcDbSpline
210
0.0
220
0.0
230
1.0
 70
    11
 71
     3
 72
    40
 73
    36
 74
     0
 42
0.0000000001
 43
0.0000000001
 40
0.0
 40
0.0
 40
0.0
 40
0.0
 40
0.1
 40
0.1
 40
0.1
 40
0.1
 40
0.2
 40
0.2
 40
0.2
 40
0.2
 40
0.3
 40
0.3
 40
0.3
 40
0.3
 40
0.4
 40
0.4
 40
0.4
 40
0.4
 40
0.5
 40
0.5
 40
0.5
 40
0.5
 40
0.6
 40
0.6
 40
0.6
 40
0.6
 40
0.7
 40
0.7
 40
0.7
 40
0.7
 40
0.8
 40
0.8
 40
0.8
 40
0.8
 40
1.0
 40
1.0
 40
1.0
 40
1.0
 10
-3.8283
 20
10.4725
 30
0.0
 10
-3.8283
 20
10.4725
 30
0.0
 10
-4.0762
 20
10.4725
 30
0.0
 10
-4.0762
 20
10.4725
 30
0.0
 10
-4.0762
 20
10.4725
 30
0.0
 10
-4.0762
 20
10.4725
 30
0.0
 10
-4.0762
 20
12.0529
 30
0.0
 10
-4.0762
 20
12.0529
 30
0.0
 10
-4.0762
 20
12.0529
 30
0.0
 10
-4.136
 20
11.996
 30
0.0
 10
-4.214
 20
11.9391
 30
0.0
 10
-4.3109
 20
11.8822
 30
0.0
 10
-4.3109
 20
11.8822
 30
0.0
 10
-4.4083
 20
11.8253
 30
0.0
 10
-4.4953
 20
11.7825
 30
0.0
 10
-4.5725
 20
11.7542
 30
0.0
 10
-4.5725
 20
11.7542
 30
0.0
 10
-4.5725
 20
11.7542
 30
0.0
 10
-4.5725
 20
11.9937
 30
0.0
 10
-4.5725
 20
11.9937
 30
0.0
 10
-4.5725
 20
11.9937
 30
0.0
 10
-4.4337
 20
12.059
 30
0.0
 10
-4.3123
 20
12.1381
 30
0.0
 10
-4.2084
 20
12.2307
 30
0.0
 10
-4.2084
 20
12.2307
 30
0.0
 10
-4.1049
 20
12.3239
 30
0.0
 10
-4.0311
 20
12.4137
 30
0.0
 10
-3.9878
 20
12.5012
 30
0.0
 10
-3.9878
 20
12.5012
 30
0.0
 10
-3.9878
 20
12.5012
 30
0.0
 10
-3.8283
 20
12.5012
 30
0.0
 10
-3.8283
 20
12.5012
 30
0.0
 10
-3.8283
 20
12.5012
 30
0.0
 10
-3.8283
 20
12.5012
 30
0.0
 10
-3.8283
 20
10.4725
 30
0.0
 10
-3.8283
 20
10.4725
 30
0.0
  0
SPLINE
  5
5F
330
1F
100
AcDbEntity
  8
DEFAULT_1
 62
   250
100
AcDbSpline
210
0.0
220
0.0
230
1.0
 70
    11
 71
     3
 72
    80
 73
    76
 74
     0
 42
0.0000000001
 43
0.0000000001
 40
0.0
 40
0.0
 40
0.0
 40
0.0
 40
0.05
 40
0.05
 40
0.05
 40
0.05
 40
0.1
 40
0.1
 40
0.1
 40
0.1
 40
0.15
 40
0.15
 40
0.15
 40
0.15
 40
0.2
 40
0.2
 40
0.2
 40
0.2
 40
0.25
 40
0.25
 40
0.25
 40
0.25
 40
0.3
 40
0.3
 40
0.3
 40
0.3
 40
0.35
 40
0.35
 40
0.35
 40
0.35
 40
0.4
 40
0.4
 40
0.4
 40
0.4
 40
0.45
 40
0.45
 40
0.45
 40
0.45
 40
0.5
 40
0.5
 40
0.5
 40
0.5
 40
0.55
 40
0.55
 40
0.55
 40
0.55
 40
0.6
 40
0.6
 40
0.6
 40
0.6
 40
0.65
 40
0.65
 40
0.65
 40
0.65
 40
0.7
 40
0.7
 40
0.7
 40
0.7
 40
0.75
 40
0.75
 40
0.75
 40
0.75
 40
0.8
 40
0.8
 40
0.8
 40
0.8
 40
0.85
 40
0.85
 40
0.85
 40
0.85
 40
0.9
 40
0.9
 40
0.9
 40
0.9
 40
1.0
 40
1.0
 40
1.0
 40
1.0
 10
-1.906
 20
11.9979
 30
0.0
 10
-1.906
 20
11.9979
 30
0.0
 10
-2.1524
 20
11.9786
 30
0.0
 10
-2.1524
 20
11.9786
 30
0.0
 10
-2.1524
 20
11.9786
 30
0.0
 10
-2.1745
 20
12.076
 30
0.0
 10
-2.2056
 20
12.147
 30
0.0
 10
-2.246
 20
12.1907
 30
0.0
 10
-2.246
 20
12.1907
 30
0.0
 10
-2.3133
 20
12.2618
 30
0.0
 10
-2.3961
 20
12.2971
 30
0.0
 10
-2.4944
 20
12.2971
 30
0.0
 10
-2.4944
 20
12.2971
 30
0.0
 10
-2.5734
 20
12.2971
 30
0.0
 10
-2.6425
 20
12.2749
 30
0.0
 10
-2.7023
 20
12.2307
 30
0.0
 10
-2.7023
 20
12.2307
 30
0.0
 10
-2.7804
 20
12.1738
 30
0.0
 10
-2.842
 20
12.0906
 30
0.0
 10
-2.8871
 20
11.9814
 30
0.0
 10
-2.8871
 20
11.9814
 30
0.0
 10
-2.9318
 20
11.8723
 30
0.0
 10
-2.9553
 20
11.7166
 30
0.0
 10
-2.9572
 20
11.5144
 30
0.0
 10
-2.9572
 20
11.5144
 30
0.0
 10
-2.8975
 20
11.6051
 30
0.0
 10
-2.8246
 20
11.6729
 30
0.0
 10
-2.738
 20
11.7171
 30
0.0
 10
-2.738
 20
11.7171
 30
0.0
 10
-2.652
 20
11.7608
 30
0.0
 10
-2.5612
 20
11.7829
 30
0.0
 10
-2.4666
 20
11.7829
 30
0.0
 10
-2.4666
 20
11.7829
 30
0.0
 10
-2.3011
 20
11.7829
 30
0.0
 10
-2.1604
 20
11.7223
 30
0.0
 10
-2.0442
 20
11.6004
 30
0.0
 10
-2.0442
 20
11.6004
 30
0.0
 10
-1.9281
 20
11.4786
 30
0.0
 10
-1.8697
 20
11.3215
 30
0.0
 10
-1.8697
 20
11.1287
 30
0.0
 10
-1.8697
 20
11.1287
 30
0.0
 10
-1.8697
 20
11.0017
 30
0.0
 10
-1.8975
 20
10.8841
 30
0.0
 10
-1.9521
 20
10.7749
 30
0.0
 10
-1.9521
 20
10.7749
 30
0.0
 10
-2.0066
 20
10.6663
 30
0.0
 10
-2.0819
 20
10.5826
 30
0.0
 10
-2.1774
 20
10.5247
 30
0.0
 10
-2.1774
 20
10.5247
 30
0.0
 10
-2.2728
 20
10.4669
 30
0.0
 10
-2.381
 20
10.4382
 30
0.0
 10
-2.5024
 20
10.4382
 30
0.0
 10
-2.5024
 20
10.4382
 30
0.0
 10
-2.7093
 20
10.4382
 30
0.0
 10
-2.8777
 20
10.5139
 30
0.0
 10
-3.008
 20
10.6663
 30
0.0
 10
-3.008
 20
10.6663
 30
0.0
 10
-3.1388
 20
10.8182
 30
0.0
 10
-3.2037
 20
11.0689
 30
0.0
 10
-3.2037
 20
11.4179
 30
0.0
 10
-3.2037
 20
11.4179
 30
0.0
 10
-3.2037
 20
11.8083
 30
0.0
 10
-3.1317
 20
12.092
 30
0.0
 10
-2.9873
 20
12.2693
 30
0.0
 10
-2.9873
 20
12.2693
 30
0.0
 10
-2.8617
 20
12.4236
 30
0.0
 10
-2.6924
 20
12.5012
 30
0.0
 10
-2.4789
 20
12.5012
 30
0.0
 10
-2.4789
 20
12.5012
 30
0.0
 10
-2.3203
 20
12.5012
 30
0.0
 10
-2.1901
 20
12.4565
 30
0.0
 10
-2.0885
 20
12.3671
 30
0.0
 10
-2.0885
 20
12.3671
 30
0.0
 10
-1.9869
 20
12.2782
 30
0.0
 10
-1.9262
 20
12.155
 30
0.0
 10
-1.906
 20
11.9979
 30
0.0
  0
SPLINE
  5
60
330
1F
100
AcDbEntity
  8
DEFAULT_1
 62
   250
100
AcDbSpline
210
0.0
220
0.0
230
1.0
 70
    11
 71
     3
 72
    40
 73
    36
 74
     0
 42
0.0000000001
 43
0.0000000001
 40
0.0
 40
0.0
 40
0.0
 40
0.0
 40
0.1
 40
0.1
 40
0.1
 40
0.1
 40
0.2
 40
0.2
 40
0.2
 40
0.2
 40
0.3
 40
0.3
 40
0.3
 40
0.3
 40
0.4
 40
0.4
 40
0.4
 40
0.4
 40
0.5
 40
0.5
 40
0.5
 40
0.5
 40
0.6
 40
0.6
 40
0.6
 40
0.6
 40
0.7
 40
0.7
 40
0.7
 40
0.7
 40
0.8
 40
0.8
 40
0.8
 40
0.8
 40
1.0
 40
1.0
 40
1.0
 40
1.0
 10
-2.9187
 20
11.1273
 30
0.0
 10
-2.9187
 20
11.0416
 30
0.0
 10
-2.9003
 20
10.9598
 30
0.0
 10
-2.8641
 20
10.8817
 30
0.0
 10
-2.8641
 20
10.8817
 30
0.0
 10
-2.8279
 20
10.8036
 30
0.0
 10
-2.7771
 20
10.7444
 30
0.0
 10
-2.7122
 20
10.7035
 30
0.0
 10
-2.7122
 20
10.7035
 30
0.0
 10
-2.6468
 20
10.6625
 30
0.0
 10
-2.5781
 20
10.6418
 30
0.0
 10
-2.5066
 20
10.6418
 30
0.0
 10
-2.5066
 20
10.6418
 30
0.0
 10
-2.4017
 20
10.6418
 30
0.0
 10
-2.3119
 20
10.6842
 30
0.0
 10
-2.2366
 20
10.7688
 30
0.0
 10
-2.2366
 20
10.7688
 30
0.0
 10
-2.1614
 20
10.8535
 30
0.0
 10
-2.1237
 20
10.9683
 30
0.0
 10
-2.1237
 20
11.1131
 30
0.0
 10
-2.1237
 20
11.1131
 30
0.0
 10
-2.1237
 20
11.2528
 30
0.0
 10
-2.1609
 20
11.3629
 30
0.0
 10
-2.2352
 20
11.4433
 30
0.0
 10
-2.2352
 20
11.4433
 30
0.0
 10
-2.3095
 20
11.5238
 30
0.0
 10
-2.4031
 20
11.5638
 30
0.0
 10
-2.516
 20
11.5638
 30
0.0
 10
-2.516
 20
11.5638
 30
0.0
 10
-2.6284
 20
11.5638
 30
0.0
 10
-2.7235
 20
11.5238
 30
0.0
 10
-2.8015
 20
11.4433
 30
0.0
 10
-2.8015
 20
11.4433
 30
0.0
 10
-2.8796
 20
11.3629
 30
0.0
 10
-2.9187
 20
11.2575
 30
0.0
 10
-2.9187
 20
11.1273
 30
0.0
  0
SPLINE
  5
61
330
1F
100
AcDbEntity
  8
DEFAULT_1
 62
   250
100
AcDbSpline
210
0.0
220
0.0
230
1.0
 70
    11
 71
     3
 72
    52
 73
    48
 74
     0
 42
0.0000000001
 43
0.0000000001
 40
0.0
 40
0.0
 40
0.0
 40
0.0
 40
0.0769230769230769
 40
0.0769230769230769
 40
0.0769230769230769
 40
0.0769230769230769
 40
0.1538461538461539
 40
0.1538461538461539
 40
0.1538461538461539
 40
0.1538461538461539
 40
0.2307692307692308
 40
0.2307692307692308
 40
0.2307692307692308
 40
0.2307692307692308
 40
0.3076923076923077
 40
0.3076923076923077
 40
0.3076923076923077
 40
0.3076923076923077
 40
0.3846153846153846
 40
0.3846153846153846
 40
0.3846153846153846
 40
0.3846153846153846
 40
0.4615384615384616
 40
0.4615384615384616
 40
0.4615384615384616
 40
0.4615384615384616
 40
0.5384615384615384
 40
0.5384615384615384
 40
0.5384615384615384
 40
0.5384615384615384
 40
0.6153846153846154
 40
0.6153846153846154
 40
0.6153846153846154
 40
0.6153846153846154
 40
0.6923076923076923
 40
0.6923076923076923
 40
0.6923076923076923
 40
0.6923076923076923
 40
0.7692307692307693
 40
0.7692307692307693
 40
0.7692307692307693
 40
0.7692307692307693
 40
0.8461538461538461
 40
0.8461538461538461
 40
0.8461538461538461
 40
0.8461538461538461
 40
1.0
 40
1.0
 40
1.0
 40
1.0
 10
-1.6233
 20
11.4687
 30
0.0
 10
-1.6233
 20
11.7077
 30
0.0
 10
-1.5988
 20
11.9001
 30
0.0
 10
-1.5494
 20
12.0454
 30
0.0
 10
-1.5494
 20
12.0454
 30
0.0
 10
-1.5005
 20
12.1912
 30
0.0
 10
-1.4271
 20
12.3036
 30
0.0
 10
-1.3302
 20
12.3827
 30
0.0
 10
-1.3302
 20
12.3827
 30
0.0
 10
-1.2333
 20
12.4617
 30
0.0
 10
-1.1115
 20
12.5012
 30
0.0
 10
-0.9648
 20
12.5012
 30
0.0
 10
-0.9648
 20
12.5012
 30
0.0
 10
-0.8561
 20
12.5012
 30
0.0
 10
-0.7611
 20
12.4791
 30
0.0
 10
-0.6793
 20
12.4353
 30
0.0
 10
-0.6793
 20
12.4353
 30
0.0
 10
-0.5974
 20
12.3921
 30
0.0
 10
-0.5301
 20
12.329
 30
0.0
 10
-0.4765
 20
12.2467
 30
0.0
 10
-0.4765
 20
12.2467
 30
0.0
 10
-0.4234
 20
12.1644
 30
0.0
 10
-0.3815
 20
12.0642
 30
0.0
 10
-0.3514
 20
11.9462
 30
0.0
 10
-0.3514
 20
11.9462
 30
0.0
 10
-0.3208
 20
11.8281
 30
0.0
 10
-0.3058
 20
11.6691
 30
0.0
 10
-0.3058
 20
11.4687
 30
0.0
 10
-0.3058
 20
11.4687
 30
0.0
 10
-0.3058
 20
11.2317
 30
0.0
 10
-0.3302
 20
11.0407
 30
0.0
 10
-0.3787
 20
10.8949
 30
0.0
 10
-0.3787
 20
10.8949
 30
0.0
 10
-0.4276
 20
10.7491
 30
0.0
 10
-0.5005
 20
10.6367
 30
0.0
 10
-0.5974
 20
10.5572
 30
0.0
 10
-0.5974
 20
10.5572
 30
0.0
 10
-0.6943
 20
10.4777
 30
0.0
 10
-0.8166
 20
10.4382
 30
0.0
 10
-0.9648
 20
10.4382
 30
0.0
 10
-0.9648
 20
10.4382
 30
0.0
 10
-1.1595
 20
10.4382
 30
0.0
 10
-1.3124
 20
10.5078
 30
0.0
 10
-1.4234
 20
10.6475
 30
0.0
 10
-1.4234
 20
10.6475
 30
0.0
 10
-1.5565
 20
10.8154
 30
0.0
 10
-1.6233
 20
11.0896
 30
0.0
 10
-1.6233
 20
11.4687
 30
0.0
  0
SPLINE
  5
62
330
1F
100
AcDbEntity
  8
DEFAULT_1
 62
   250
100
AcDbSpline
210
0.0
220
0.0
230
1.0
 70
    11
 71
     3
 72
    36
 73
    32
 74
     0
 42
0.0000000001
 43
0.0000000001
 40
0.0
 40
0.0
 40
0.0
 40
0.0
 40
0.1111111111111111
 40
0.1111111111111111
 40
0.1111111111111111
 40
0.1111111111111111
 40
0.2222222222222222
 40
0.2222222222222222
 40
0.2222222222222222
 40
0.2222222222222222
 40
0.3333333333333333
 40
0.3333333333333333
 40
0.3333333333333333
 40
0.3333333333333333
 40
0.4444444444444444
 40
0.4444444444444444
 40
0.4444444444444444
 40
0.4444444444444444
 40
0.5555555555555556
 40
0.5555555555555556
 40
0.5555555555555556
 40
0.5555555555555556
 40
0.6666666666666666
 40
0.6666666666666666
 40
0.6666666666666666
 40
0.6666666666666666
 40
0.7777777777777778
 40
0.7777777777777778
 40
0.7777777777777778
 40
0.7777777777777778
 40
1.0
 40
1.0
 40
1.0
 40
1.0
 10
-1.3683
 20
11.4687
 30
0.0
 10
-1.3683
 20
11.1371
 30
0.0
 10
-1.3293
 20
10.9165
 30
0.0
 10
-1.2517
 20
10.8065
 30
0.0
 10
-1.2517
 20
10.8065
 30
0.0
 10
-1.1741
 20
10.6969
 30
0.0
 10
-1.0786
 20
10.6418
 30
0.0
 10
-0.9648
 20
10.6418
 30
0.0
 10
-0.9648
 20
10.6418
 30
0.0
 10
-0.8505
 20
10.6418
 30
0.0
 10
-0.755
 20
10.6973
 30
0.0
 10
-0.6774
 20
10.8074
 30
0.0
 10
-0.6774
 20
10.8074
 30
0.0
 10
-0.5998
 20
10.9175
 30
0.0
 10
-0.5607
 20
11.1381
 30
0.0
 10
-0.5607
 20
11.4687
 30
0.0
 10
-0.5607
 20
11.4687
 30
0.0
 10
-0.5607
 20
11.8013
 30
0.0
 10
-0.5998
 20
12.0224
 30
0.0
 10
-0.6774
 20
12.1315
 30
0.0
 10
-0.6774
 20
12.1315
 30
0.0
 10
-0.755
 20
12.2411
 30
0.0
 10
-0.8514
 20
12.2956
 30
0.0
 10
-0.9671
 20
12.2956
 30
0.0
 10
-0.9671
 20
12.2956
 30
0.0
 10
-1.0814
 20
12.2956
 30
0.0
 10
-1.1722
 20
12.2472
 30
0.0
 10
-1.2404
 20
12.1508
 30
0.0
 10
-1.2404
 20
12.1508
 30
0.0
 10
-1.3255
 20
12.028
 30
0.0
 10
-1.3683
 20
11.8003
 30
0.0
 10
-1.3683
 20
11.4687
 30
0.0
  0
SPLINE
  5
63
330
1F
100
AcDbEntity
  8
DEFAULT_1
 62
   250
100
AcDbSpline
210
0.0
220
0.0
230
1.0
 70
    11
 71
     3
 72
    20
 73
    16
 74
     0
 42
0.0000000001
 43
0.0000000001
 40
0.0
 40
0.0
 40
0.0
 40
0.0
 40
0.2
 40
0.2
 40
0.2
 40
0.2
 40
0.4
 40
0.4
 40
0.4
 40
0.4
 40
0.6
 40
0.6
 40
0.6
 40
0.6
 40
1.0
 40
1.0
 40
1.0
 40
1.0
 10
7.411
 20
10.2494
 30
0.0
 10
7.411
 20
10.2494
 30
0.0
 10
9.911
 20
9.8965
 30
0.0
 10
9.911
 20
9.8965
 30
0.0
 10
9.911
 20
9.8965
 30
0.0
 10
9.911
 20
9.8965
 30
0.0
 10
9.911
 20
9.8182
 30
0.0
 10
9.911
 20
9.8182
 30
0.0
 10
9.911
 20
9.8182
 30
0.0
 10
9.911
 20
9.8182
 30
0.0
 10
7.411
 20
9.4419
 30
0.0
 10
7.411
 20
9.4419
 30
0.0
 10
7.411
 20
9.4419
 30
0.0
 10
7.411
 20
9.4419
 30
0.0
 10
7.411
 20
10.2494
 30
0.0
 10
7.411
 20
10.2494
 30
0.0
  0
SPLINE
  5
64
330
1F
100
AcDbEntity
  8
DEFAULT_1
 62
   250
100
AcDbSpline
210
0.0
220
0.0
230
1.0
 70
    11
 71
     3
 72
    20
 73
    16
 74
     0
 42
0.0000000001
 43
0.0000000001
 40
0.0
 40
0.0
 40
0.0
 40
0.0
 40
0.2
 40
0.2
 40
0.2
 40
0.2
 40
0.4
 40
0.4
 40
0.4
 40
0.4
 40
0.6
 40
0.6
 40
0.6
 40
0.6
 40
1.0
 40
1.0
 40
1.0
 40
1.0
 10
-14.6147
 20
9.4845
 30
0.0
 10
-14.6147
 20
9.4845
 30
0.0
 10
-17.1147
 20
9.8374
 30
0.0
 10
-17.1147
 20
9.8374
 30
0.0
 10
-17.1147
 20
9.8374
 30
0.0
 10
-17.1147
 20
9.8374
 30
0.0
 10
-17.1147
 20
9.9157
 30
0.0
 10
-17.1147
 20
9.9157
 30
0.0
 10
-17.1147
 20
9.9157
 30
0.0
 10
-17.1147
 20
9.9157
 30
0.0
 10
-14.6147
 20
10.292
 30
0.0
 10
-14.6147
 20
10.292
 30
0.0
 10
-14.6147
 20
10.292
 30
0.0
 10
-14.6147
 20
10.292
 30
0.0
 10
-14.6147
 20
9.4845
 30
0.0
 10
-14.6147
 20
9.4845
 30
0.0
  0
SPLINE
  5
65
330
1F
100
AcDbEntity
  8
DEFAULT_1
 62
   250
100
AcDbSpline
210
0.0
220
0.0
230
1.0
 70
    11
 71
     3
 72
    84
 73
    80
 74
     0
 42
0.0000000001
 43
0.0000000001
 40
0.0
 40
0.0
 40
0.0
 40
0.0
 40
0.0476190476190476
 40
0.0476190476190476
 40
0.0476190476190476
 40
0.0476190476190476
 40
0.0952380952380952
 40
0.0952380952380952
 40
0.0952380952380952
 40
0.0952380952380952
 40
0.1428571428571428
 40
0.1428571428571428
 40
0.1428571428571428
 40
0.1428571428571428
 40
0.1904761904761905
 40
0.1904761904761905
 40
0.1904761904761905
 40
0.1904761904761905
 40
0.2380952380952381
 40
0.2380952380952381
 40
0.2380952380952381
 40
0.2380952380952381
 40
0.2857142857142857
 40
0.2857142857142857
 40
0.2857142857142857
 40
0.2857142857142857
 40
0.3333333333333333
 40
0.3333333333333333
 40
0.3333333333333333
 40
0.3333333333333333
 40
0.3809523809523809
 40
0.3809523809523809
 40
0.3809523809523809
 40
0.3809523809523809
 40
0.4285714285714285
 40
0.4285714285714285
 40
0.4285714285714285
 40
0.4285714285714285
 40
0.4761904761904762
 40
0.4761904761904762
 40
0.4761904761904762
 40
0.4761904761904762
 40
0.5238095238095238
 40
0.5238095238095238
 40
0.5238095238095238
 40
0.5238095238095238
 40
0.5714285714285714
 40
0.5714285714285714
 40
0.5714285714285714
 40
0.5714285714285714
 40
0.6190476190476191
 40
0.6190476190476191
 40
0.6190476190476191
 40
0.6190476190476191
 40
0.6666666666666666
 40
0.6666666666666666
 40
0.6666666666666666
 40
0.6666666666666666
 40
0.7142857142857143
 40
0.7142857142857143
 40
0.7142857142857143
 40
0.7142857142857143
 40
0.7619047619047619
 40
0.7619047619047619
 40
0.7619047619047619
 40
0.7619047619047619
 40
0.8095238095238095
 40
0.8095238095238095
 40
0.8095238095238095
 40
0.8095238095238095
 40
0.8571428571428571
 40
0.8571428571428571
 40
0.8571428571428571
 40
0.8571428571428571
 40
0.9047619047619048
 40
0.9047619047619048
 40
0.9047619047619048
 40
0.9047619047619048
 40
1.0
 40
1.0
 40
1.0
 40
1.0
 10
18.7694
 20
-5.2212
 30
0.0
 10
18.7694
 20
-5.2212
 30
0.0
 10
18.5185
 20
-4.9809
 30
0.0
 10
18.5185
 20
-4.9809
 30
0.0
 10
18.5185
 20
-4.9809
 30
0.0
 10
18.5185
 20
-4.9809
 30
0.0
 10
18.6389
 20
-4.8487
 30
0.0
 10
18.6389
 20
-4.8487
 30
0.0
 10
18.6389
 20
-4.8487
 30
0.0
 10
18.6389
 20
-4.8487
 30
0.0
 10
18.9031
 20
-5.1002
 30
0.0
 10
18.9031
 20
-5.1002
 30
0.0
 10
18.9031
 20
-5.1002
 30
0.0
 10
19.0234
 20
-5.0254
 30
0.0
 10
19.1282
 20
-4.9759
 30
0.0
 10
19.217
 20
-4.9512
 30
0.0
 10
19.217
 20
-4.9512
 30
0.0
 10
19.334
 20
-4.9186
 30
0.0
 10
19.4644
 20
-4.9048
 30
0.0
 10
19.6073
 20
-4.9098
 30
0.0
 10
19.6073
 20
-4.9098
 30
0.0
 10
19.8141
 20
-4.917
 30
0.0
 10
19.9969
 20
-4.9652
 30
0.0
 10
20.1552
 20
-5.0546
 30
0.0
 10
20.1552
 20
-5.0546
 30
0.0
 10
20.314
 20
-5.1439
 30
0.0
 10
20.4321
 20
-5.2652
 30
0.0
 10
20.5096
 20
-5.419
 30
0.0
 10
20.5096
 20
-5.419
 30
0.0
 10
20.5865
 20
-5.5733
 30
0.0
 10
20.6223
 20
-5.7349
 30
0.0
 10
20.6164
 20
-5.9046
 30
0.0
 10
20.6164
 20
-5.9046
 30
0.0
 10
20.6119
 20
-6.0315
 30
0.0
 10
20.5902
 20
-6.1456
 30
0.0
 10
20.5508
 20
-6.2473
 30
0.0
 10
20.5508
 20
-6.2473
 30
0.0
 10
20.5203
 20
-6.3253
 30
0.0
 10
20.4645
 20
-6.4156
 30
0.0
 10
20.3827
 20
-6.5187
 30
0.0
 10
20.3827
 20
-6.5187
 30
0.0
 10
20.3827
 20
-6.5187
 30
0.0
 10
20.6337
 20
-6.759
 30
0.0
 10
20.6337
 20
-6.759
 30
0.0
 10
20.6337
 20
-6.759
 30
0.0
 10
20.6337
 20
-6.759
 30
0.0
 10
20.5133
 20
-6.8913
 30
0.0
 10
20.5133
 20
-6.8913
 30
0.0
 10
20.5133
 20
-6.8913
 30
0.0
 10
20.5133
 20
-6.8913
 30
0.0
 10
20.2505
 20
-6.6393
 30
0.0
 10
20.2505
 20
-6.6393
 30
0.0
 10
20.2505
 20
-6.6393
 30
0.0
 10
20.1105
 20
-6.7248
 30
0.0
 10
19.9914
 20
-6.7808
 30
0.0
 10
19.8935
 20
-6.8075
 30
0.0
 10
19.8935
 20
-6.8075
 30
0.0
 10
19.7956
 20
-6.8342
 30
0.0
 10
19.6785
 20
-6.8457
 30
0.0
 10
19.5426
 20
-6.8409
 30
0.0
 10
19.5426
 20
-6.8409
 30
0.0
 10
19.3354
 20
-6.8337
 30
0.0
 10
19.152
 20
-6.7859
 30
0.0
 10
18.9927
 20
-6.6975
 30
0.0
 10
18.9927
 20
-6.6975
 30
0.0
 10
18.8334
 20
-6.6091
 30
0.0
 10
18.7148
 20
-6.4892
 30
0.0
 10
18.6364
 20
-6.3368
 30
0.0
 10
18.6364
 20
-6.3368
 30
0.0
 10
18.5583
 20
-6.1849
 30
0.0
 10
18.5223
 20
-6.0174
 30
0.0
 10
18.5287
 20
-5.8346
 30
0.0
 10
18.5287
 20
-5.8346
 30
0.0
 10
18.533
 20
-5.7114
 30
0.0
 10
18.5527
 20
-5.6043
 30
0.0
 10
18.5889
 20
-5.5133
 30
0.0
 10
18.5889
 20
-5.5133
 30
0.0
 10
18.6245
 20
-5.4223
 30
0.0
 10
18.6848
 20
-5.3247
 30
0.0
 10
18.7694
 20
-5.2212
 30
0.0
  0
SPLINE
  5
66
330
1F
100
AcDbEntity
  8
DEFAULT_1
 62
   250
100
AcDbSpline
210
0.0
220
0.0
230
1.0
 70
    11
 71
     3
 72
    32
 73
    28
 74
     0
 42
0.0000000001
 43
0.0000000001
 40
0.0
 40
0.0
 40
0.0
 40
0.0
 40
0.125
 40
0.125
 40
0.125
 40
0.125
 40
0.25
 40
0.25
 40
0.25
 40
0.25
 40
0.375
 40
0.375
 40
0.375
 40
0.375
 40
0.5
 40
0.5
 40
0.5
 40
0.5
 40
0.625
 40
0.625
 40
0.625
 40
0.625
 40
0.75
 40
0.75
 40
0.75
 40
0.75
 40
1.0
 40
1.0
 40
1.0
 40
1.0
 10
18.9493
 20
-5.3927
 30
0.0
 10
18.8786
 20
-5.4769
 30
0.0
 10
18.8294
 20
-5.5509
 30
0.0
 10
18.8023
 20
-5.6144
 30
0.0
 10
18.8023
 20
-5.6144
 30
0.0
 10
18.7756
 20
-5.6784
 30
0.0
 10
18.7602
 20
-5.7541
 30
0.0
 10
18.7572
 20
-5.8412
 30
0.0
 10
18.7572
 20
-5.8412
 30
0.0
 10
18.7501
 20
-6.0424
 30
0.0
 10
18.8125
 20
-6.2107
 30
0.0
 10
18.9442
 20
-6.347
 30
0.0
 10
18.9442
 20
-6.347
 30
0.0
 10
19.0761
 20
-6.483
 30
0.0
 10
19.2772
 20
-6.5559
 30
0.0
 10
19.5485
 20
-6.5654
 30
0.0
 10
19.5485
 20
-6.5654
 30
0.0
 10
19.6547
 20
-6.5691
 30
0.0
 10
19.7496
 20
-6.5621
 30
0.0
 10
19.8331
 20
-6.5447
 30
0.0
 10
19.8331
 20
-6.5447
 30
0.0
 10
19.8951
 20
-6.5322
 30
0.0
 10
19.9719
 20
-6.5044
 30
0.0
 10
20.0632
 20
-6.4605
 30
0.0
 10
20.0632
 20
-6.4605
 30
0.0
 10
20.0632
 20
-6.4605
 30
0.0
 10
18.9493
 20
-5.3927
 30
0.0
 10
18.9493
 20
-5.3927
 30
0.0
  0
SPLINE
  5
67
330
1F
100
AcDbEntity
  8
DEFAULT_1
 62
   250
100
AcDbSpline
210
0.0
220
0.0
230
1.0
 70
    11
 71
     3
 72
    28
 73
    24
 74
     0
 42
0.0000000001
 43
0.0000000001
 40
0.0
 40
0.0
 40
0.0
 40
0.0
 40
0.1428571428571428
 40
0.1428571428571428
 40
0.1428571428571428
 40
0.1428571428571428
 40
0.2857142857142857
 40
0.2857142857142857
 40
0.2857142857142857
 40
0.2857142857142857
 40
0.4285714285714285
 40
0.4285714285714285
 40
0.4285714285714285
 40
0.4285714285714285
 40
0.5714285714285714
 40
0.5714285714285714
 40
0.5714285714285714
 40
0.5714285714285714
 40
0.7142857142857143
 40
0.7142857142857143
 40
0.7142857142857143
 40
0.7142857142857143
 40
1.0
 40
1.0
 40
1.0
 40
1.0
 10
19.0953
 20
-5.2849
 30
0.0
 10
19.0953
 20
-5.2849
 30
0.0
 10
20.2051
 20
-6.3482
 30
0.0
 10
20.2051
 20
-6.3482
 30
0.0
 10
20.2051
 20
-6.3482
 30
0.0
 10
20.2654
 20
-6.2798
 30
0.0
 10
20.3081
 20
-6.2159
 30
0.0
 10
20.3332
 20
-6.1569
 30
0.0
 10
20.3332
 20
-6.1569
 30
0.0
 10
20.3665
 20
-6.08
 30
0.0
 10
20.3845
 20
-5.9959
 30
0.0
 10
20.3876
 20
-5.9051
 30
0.0
 10
20.3876
 20
-5.9051
 30
0.0
 10
20.3946
 20
-5.7049
 30
0.0
 10
20.3299
 20
-5.5374
 30
0.0
 10
20.193
 20
-5.4018
 30
0.0
 10
20.193
 20
-5.4018
 30
0.0
 10
20.056
 20
-5.2667
 30
0.0
 10
19.8599
 20
-5.1944
 30
0.0
 10
19.6047
 20
-5.1855
 30
0.0
 10
19.6047
 20
-5.1855
 30
0.0
 10
19.4139
 20
-5.1788
 30
0.0
 10
19.2437
 20
-5.2119
 30
0.0
 10
19.0953
 20
-5.2849
 30
0.0
  0
SPLINE
  5
68
330
1F
100
AcDbEntity
  8
DEFAULT_1
 62
   250
100
AcDbSpline
210
0.0
220
0.0
230
1.0
 70
    11
 71
     3
 72
    92
 73
    88
 74
     0
 42
0.0000000001
 43
0.0000000001
 40
0.0
 40
0.0
 40
0.0
 40
0.0
 40
0.0434782608695652
 40
0.0434782608695652
 40
0.0434782608695652
 40
0.0434782608695652
 40
0.0869565217391304
 40
0.0869565217391304
 40
0.0869565217391304
 40
0.0869565217391304
 40
0.1304347826086956
 40
0.1304347826086956
 40
0.1304347826086956
 40
0.1304347826086956
 40
0.1739130434782609
 40
0.1739130434782609
 40
0.1739130434782609
 40
0.1739130434782609
 40
0.2173913043478261
 40
0.2173913043478261
 40
0.2173913043478261
 40
0.2173913043478261
 40
0.2608695652173913
 40
0.2608695652173913
 40
0.2608695652173913
 40
0.2608695652173913
 40
0.3043478260869565
 40
0.3043478260869565
 40
0.3043478260869565
 40
0.3043478260869565
 40
0.3478260869565217
 40
0.3478260869565217
 40
0.3478260869565217
 40
0.3478260869565217
 40
0.391304347826087
 40
0.391304347826087
 40
0.391304347826087
 40
0.391304347826087
 40
0.4347826086956522
 40
0.4347826086956522
 40
0.4347826086956522
 40
0.4347826086956522
 40
0.4782608695652174
 40
0.4782608695652174
 40
0.4782608695652174
 40
0.4782608695652174
 40
0.5217391304347826
 40
0.5217391304347826
 40
0.5217391304347826
 40
0.5217391304347826
 40
0.5652173913043478
 40
0.5652173913043478
 40
0.5652173913043478
 40
0.5652173913043478
 40
0.6086956521739131
 40
0.6086956521739131
 40
0.6086956521739131
 40
0.6086956521739131
 40
0.6521739130434783
 40
0.6521739130434783
 40
0.6521739130434783
 40
0.6521739130434783
 40
0.6956521739130435
 40
0.6956521739130435
 40
0.6956521739130435
 40
0.6956521739130435
 40
0.7391304347826086
 40
0.7391304347826086
 40
0.7391304347826086
 40
0.7391304347826086
 40
0.782608695652174
 40
0.782608695652174
 40
0.782608695652174
 40
0.782608695652174
 40
0.8260869565217391
 40
0.8260869565217391
 40
0.8260869565217391
 40
0.8260869565217391
 40
0.8695652173913043
 40
0.8695652173913043
 40
0.8695652173913043
 40
0.8695652173913043
 40
0.9130434782608695
 40
0.9130434782608695
 40
0.9130434782608695
 40
0.9130434782608695
 40
1.0
 40
1.0
 40
1.0
 40
1.0
 10
20.0954
 20
-4.6774
 30
0.0
 10
20.0954
 20
-4.6774
 30
0.0
 10
20.0824
 20
-4.4162
 30
0.0
 10
20.0824
 20
-4.4162
 30
0.0
 10
20.0824
 20
-4.4162
 30
0.0
 10
20.21
 20
-4.4013
 30
0.0
 10
20.3065
 20
-4.36
 30
0.0
 10
20.3729
 20
-4.2921
 30
0.0
 10
20.3729
 20
-4.2921
 30
0.0
 10
20.4393
 20
-4.2239
 30
0.0
 10
20.4743
 20
-4.1404
 30
0.0
 10
20.4777
 20
-4.0412
 30
0.0
 10
20.4777
 20
-4.0412
 30
0.0
 10
20.4819
 20
-3.9218
 30
0.0
 10
20.4403
 20
-3.8192
 30
0.0
 10
20.3534
 20
-3.7338
 30
0.0
 10
20.3534
 20
-3.7338
 30
0.0
 10
20.266
 20
-3.6479
 30
0.0
 10
20.148
 20
-3.6024
 30
0.0
 10
19.9995
 20
-3.5972
 30
0.0
 10
19.9995
 20
-3.5972
 30
0.0
 10
19.858
 20
-3.5922
 30
0.0
 10
19.7452
 20
-3.6278
 30
0.0
 10
19.6607
 20
-3.7044
 30
0.0
 10
19.6607
 20
-3.7044
 30
0.0
 10
19.5761
 20
-3.781
 30
0.0
 10
19.5316
 20
-3.8834
 30
0.0
 10
19.5271
 20
-4.0122
 30
0.0
 10
19.5271
 20
-4.0122
 30
0.0
 10
19.5243
 20
-4.0922
 30
0.0
 10
19.54
 20
-4.1647
 30
0.0
 10
19.574
 20
-4.2304
 30
0.0
 10
19.574
 20
-4.2304
 30
0.0
 10
19.608
 20
-4.296
 30
0.0
 10
19.6532
 20
-4.348
 30
0.0
 10
19.7098
 20
-4.3867
 30
0.0
 10
19.7098
 20
-4.3867
 30
0.0
 10
19.7098
 20
-4.3867
 30
0.0
 10
19.6716
 20
-4.6184
 30
0.0
 10
19.6716
 20
-4.6184
 30
0.0
 10
19.6716
 20
-4.6184
 30
0.0
 10
19.6716
 20
-4.6184
 30
0.0
 10
18.6414
 20
-4.3866
 30
0.0
 10
18.6414
 20
-4.3866
 30
0.0
 10
18.6414
 20
-4.3866
 30
0.0
 10
18.6414
 20
-4.3866
 30
0.0
 10
18.6764
 20
-3.3825
 30
0.0
 10
18.6764
 20
-3.3825
 30
0.0
 10
18.6764
 20
-3.3825
 30
0.0
 10
18.6764
 20
-3.3825
 30
0.0
 10
18.9134
 20
-3.3908
 30
0.0
 10
18.9134
 20
-3.3908
 30
0.0
 10
18.9134
 20
-3.3908
 30
0.0
 10
18.9134
 20
-3.3908
 30
0.0
 10
18.8852
 20
-4.1965
 30
0.0
 10
18.8852
 20
-4.1965
 30
0.0
 10
18.8852
 20
-4.1965
 30
0.0
 10
18.8852
 20
-4.1965
 30
0.0
 10
19.4239
 20
-4.3244
 30
0.0
 10
19.4239
 20
-4.3244
 30
0.0
 10
19.4239
 20
-4.3244
 30
0.0
 10
19.3435
 20
-4.2003
 30
0.0
 10
19.3057
 20
-4.0714
 30
0.0
 10
19.3103
 20
-3.9383
 30
0.0
 10
19.3103
 20
-3.9383
 30
0.0
 10
19.3165
 20
-3.762
 30
0.0
 10
19.3827
 20
-3.6157
 30
0.0
 10
19.5092
 20
-3.4986
 30
0.0
 10
19.5092
 20
-3.4986
 30
0.0
 10
19.6356
 20
-3.3817
 30
0.0
 10
19.7948
 20
-3.3265
 30
0.0
 10
19.9865
 20
-3.3332
 30
0.0
 10
19.9865
 20
-3.3332
 30
0.0
 10
20.1694
 20
-3.3396
 30
0.0
 10
20.3256
 20
-3.3986
 30
0.0
 10
20.4549
 20
-3.5095
 30
0.0
 10
20.4549
 20
-3.5095
 30
0.0
 10
20.6134
 20
-3.6449
 30
0.0
 10
20.689
 20
-3.8246
 30
0.0
 10
20.6812
 20
-4.0483
 30
0.0
 10
20.6812
 20
-4.0483
 30
0.0
 10
20.6748
 20
-4.2321
 30
0.0
 10
20.6184
 20
-4.3803
 30
0.0
 10
20.5114
 20
-4.4928
 30
0.0
 10
20.5114
 20
-4.4928
 30
0.0
 10
20.4043
 20
-4.6053
 30
0.0
 10
20.2657
 20
-4.6668
 30
0.0
 10
20.0954
 20
-4.6774
 30
0.0
  0
SPLINE
  5
69
330
1F
100
AcDbEntity
  8
DEFAULT_1
 62
   250
100
AcDbSpline
210
0.0
220
0.0
230
1.0
 70
    11
 71
     3
 72
    52
 73
    48
 74
     0
 42
0.0000000001
 43
0.0000000001
 40
0.0
 40
0.0
 40
0.0
 40
0.0
 40
0.0769230769230769
 40
0.0769230769230769
 40
0.0769230769230769
 40
0.0769230769230769
 40
0.1538461538461539
 40
0.1538461538461539
 40
0.1538461538461539
 40
0.1538461538461539
 40
0.2307692307692308
 40
0.2307692307692308
 40
0.2307692307692308
 40
0.2307692307692308
 40
0.3076923076923077
 40
0.3076923076923077
 40
0.3076923076923077
 40
0.3076923076923077
 40
0.3846153846153846
 40
0.3846153846153846
 40
0.3846153846153846
 40
0.3846153846153846
 40
0.4615384615384616
 40
0.4615384615384616
 40
0.4615384615384616
 40
0.4615384615384616
 40
0.5384615384615384
 40
0.5384615384615384
 40
0.5384615384615384
 40
0.5384615384615384
 40
0.6153846153846154
 40
0.6153846153846154
 40
0.6153846153846154
 40
0.6153846153846154
 40
0.6923076923076923
 40
0.6923076923076923
 40
0.6923076923076923
 40
0.6923076923076923
 40
0.7692307692307693
 40
0.7692307692307693
 40
0.7692307692307693
 40
0.7692307692307693
 40
0.8461538461538461
 40
0.8461538461538461
 40
0.8461538461538461
 40
0.8461538461538461
 40
1.0
 40
1.0
 40
1.0
 40
1.0
 10
19.6835
 20
-3.0924
 30
0.0
 10
19.4446
 20
-3.0841
 30
0.0
 10
19.2532
 20
-3.0529
 30
0.0
 10
19.1097
 20
-2.9985
 30
0.0
 10
19.1097
 20
-2.9985
 30
0.0
 10
18.9657
 20
-2.9445
 30
0.0
 10
18.8559
 20
-2.8672
 30
0.0
 10
18.7802
 20
-2.7676
 30
0.0
 10
18.7802
 20
-2.7676
 30
0.0
 10
18.7047
 20
-2.668
 30
0.0
 10
18.6694
 20
-2.5449
 30
0.0
 10
18.6746
 20
-2.3983
 30
0.0
 10
18.6746
 20
-2.3983
 30
0.0
 10
18.6784
 20
-2.2897
 30
0.0
 10
18.7038
 20
-2.1955
 30
0.0
 10
18.7504
 20
-2.1153
 30
0.0
 10
18.7504
 20
-2.1153
 30
0.0
 10
18.7964
 20
-2.0349
 30
0.0
 10
18.8618
 20
-1.9699
 30
0.0
 10
18.946
 20
-1.9192
 30
0.0
 10
18.946
 20
-1.9192
 30
0.0
 10
19.0301
 20
-1.869
 30
0.0
 10
19.1317
 20
-1.8306
 30
0.0
 10
19.2506
 20
-1.8047
 30
0.0
 10
19.2506
 20
-1.8047
 30
0.0
 10
19.3697
 20
-1.7782
 30
0.0
 10
19.5292
 20
-1.7688
 30
0.0
 10
19.7294
 20
-1.7757
 30
0.0
 10
19.7294
 20
-1.7757
 30
0.0
 10
19.9663
 20
-1.784
 30
0.0
 10
20.1563
 20
-1.8151
 30
0.0
 10
20.3003
 20
-1.8686
 30
0.0
 10
20.3003
 20
-1.8686
 30
0.0
 10
20.4443
 20
-1.9226
 30
0.0
 10
20.5541
 20
-1.9994
 30
0.0
 10
20.6302
 20
-2.099
 30
0.0
 10
20.6302
 20
-2.099
 30
0.0
 10
20.7063
 20
-2.1986
 30
0.0
 10
20.7415
 20
-2.3222
 30
0.0
 10
20.7363
 20
-2.4703
 30
0.0
 10
20.7363
 20
-2.4703
 30
0.0
 10
20.7295
 20
-2.6649
 30
0.0
 10
20.6546
 20
-2.8153
 30
0.0
 10
20.5111
 20
-2.9213
 30
0.0
 10
20.5111
 20
-2.9213
 30
0.0
 10
20.3387
 20
-3.0485
 30
0.0
 10
20.0623
 20
-3.1057
 30
0.0
 10
19.6835
 20
-3.0924
 30
0.0
  0
SPLINE
  5
6A
330
1F
100
AcDbEntity
  8
DEFAULT_1
 62
   250
100
AcDbSpline
210
0.0
220
0.0
230
1.0
 70
    11
 71
     3
 72
    36
 73
    32
 74
     0
 42
0.0000000001
 43
0.0000000001
 40
0.0
 40
0.0
 40
0.0
 40
0.0
 40
0.1111111111111111
 40
0.1111111111111111
 40
0.1111111111111111
 40
0.1111111111111111
 40
0.2222222222222222
 40
0.2222222222222222
 40
0.2222222222222222
 40
0.2222222222222222
 40
0.3333333333333333
 40
0.3333333333333333
 40
0.3333333333333333
 40
0.3333333333333333
 40
0.4444444444444444
 40
0.4444444444444444
 40
0.4444444444444444
 40
0.4444444444444444
 40
0.5555555555555556
 40
0.5555555555555556
 40
0.5555555555555556
 40
0.5555555555555556
 40
0.6666666666666666
 40
0.6666666666666666
 40
0.6666666666666666
 40
0.6666666666666666
 40
0.7777777777777778
 40
0.7777777777777778
 40
0.7777777777777778
 40
0.7777777777777778
 40
1.0
 40
1.0
 40
1.0
 40
1.0
 10
19.6924
 20
-2.8376
 30
0.0
 10
20.0238
 20
-2.8492
 30
0.0
 10
20.2456
 20
-2.8179
 30
0.0
 10
20.3582
 20
-2.7442
 30
0.0
 10
20.3582
 20
-2.7442
 30
0.0
 10
20.4705
 20
-2.6705
 30
0.0
 10
20.5289
 20
-2.5769
 30
0.0
 10
20.5328
 20
-2.4632
 30
0.0
 10
20.5328
 20
-2.4632
 30
0.0
 10
20.5368
 20
-2.349
 30
0.0
 10
20.4847
 20
-2.2516
 30
0.0
 10
20.3774
 20
-2.1702
 30
0.0
 10
20.3774
 20
-2.1702
 30
0.0
 10
20.27
 20
-2.0888
 30
0.0
 10
20.0509
 20
-2.042
 30
0.0
 10
19.7205
 20
-2.0305
 30
0.0
 10
19.7205
 20
-2.0305
 30
0.0
 10
19.3881
 20
-2.0189
 30
0.0
 10
19.1658
 20
-2.0502
 30
0.0
 10
19.0541
 20
-2.124
 30
0.0
 10
19.0541
 20
-2.124
 30
0.0
 10
18.9418
 20
-2.1977
 30
0.0
 10
18.884
 20
-2.2922
 30
0.0
 10
18.88
 20
-2.4078
 30
0.0
 10
18.88
 20
-2.4078
 30
0.0
 10
18.876
 20
-2.522
 30
0.0
 10
18.9212
 20
-2.6145
 30
0.0
 10
19.0151
 20
-2.686
 30
0.0
 10
19.0151
 20
-2.686
 30
0.0
 10
19.1349
 20
-2.7753
 30
0.0
 10
19.361
 20
-2.826
 30
0.0
 10
19.6924
 20
-2.8376
 30
0.0
  0
SPLINE
  5
6B
330
1F
100
AcDbEntity
  8
DEFAULT_1
 62
   250
100
AcDbSpline
210
0.0
220
0.0
230
1.0
 70
    11
 71
     3
 72
    20
 73
    16
 74
     0
 42
0.0000000001
 43
0.0000000001
 40
0.0
 40
0.0
 40
0.0
 40
0.0
 40
0.2
 40
0.2
 40
0.2
 40
0.2
 40
0.4
 40
0.4
 40
0.4
 40
0.4
 40
0.6
 40
0.6
 40
0.6
 40
0.6
 40
1.0
 40
1.0
 40
1.0
 40
1.0
 10
20.5992
 20
-11.5126
 30
0.0
 10
20.5992
 20
-11.5126
 30
0.0
 10
21.039
 20
-9.0264
 30
0.0
 10
21.039
 20
-9.0264
 30
0.0
 10
21.039
 20
-9.0264
 30
0.0
 10
21.039
 20
-9.0264
 30
0.0
 10
21.1173
 20
-9.0291
 30
0.0
 10
21.1173
 20
-9.0291
 30
0.0
 10
21.1173
 20
-9.0291
 30
0.0
 10
21.1173
 20
-9.0291
 30
0.0
 10
21.4061
 20
-11.5407
 30
0.0
 10
21.4061
 20
-11.5407
 30
0.0
 10
21.4061
 20
-11.5407
 30
0.0
 10
21.4061
 20
-11.5407
 30
0.0
 10
20.5992
 20
-11.5126
 30
0.0
 10
20.5992
 20
-11.5126
 30
0.0
  0
SPLINE
  5
6C
330
1F
100
AcDbEntity
  8
DEFAULT_1
 62
   250
100
AcDbSpline
210
0.0
220
0.0
230
1.0
 70
    11
 71
     3
 72
    20
 73
    16
 74
     0
 42
0.0000000001
 43
0.0000000001
 40
0.0
 40
0.0
 40
0.0
 40
0.0
 40
0.2
 40
0.2
 40
0.2
 40
0.2
 40
0.4
 40
0.4
 40
0.4
 40
0.4
 40
0.6
 40
0.6
 40
0.6
 40
0.6
 40
1.0
 40
1.0
 40
1.0
 40
1.0
 10
21.87
 20
2.2497
 30
0.0
 10
21.87
 20
2.2497
 30
0.0
 10
21.4302
 20
-0.2365
 30
0.0
 10
21.4302
 20
-0.2365
 30
0.0
 10
21.4302
 20
-0.2365
 30
0.0
 10
21.4302
 20
-0.2365
 30
0.0
 10
21.3518
 20
-0.2338
 30
0.0
 10
21.3518
 20
-0.2338
 30
0.0
 10
21.3518
 20
-0.2338
 30
0.0
 10
21.3518
 20
-0.2338
 30
0.0
 10
21.063
 20
2.2779
 30
0.0
 10
21.063
 20
2.2779
 30
0.0
 10
21.063
 20
2.2779
 30
0.0
 10
21.063
 20
2.2779
 30
0.0
 10
21.87
 20
2.2497
 30
0.0
 10
21.87
 20
2.2497
 30
0.0
  0
ENDSEC
  0
SECTION
  2
OBJECTS
  0
DICTIONARY
  5
C
330
0
100
AcDbDictionary
  3
ACAD_GROUP
350
D
  3
ACAD_LAYOUT
350
1A
  3
ACAD_MATERIAL
350
3B
  3
ACAD_MLEADERSTYLE
350
8F
  3
ACAD_MLINESTYLE
350
17
  3
ACAD_PLOTSETTINGS
350
19
  3
ACAD_VISUALSTYLE
350
2A
  3
ACDBHEADERROUNDTRIPXREC
350
6D
  3
ACDBVARIABLEDICTIONARY
350
8D
  0
DICTIONARY
  5
D
102
{ACAD_REACTORS
330
C
102
}
330
C
100
AcDbDictionary
  0
DICTIONARY
  5
1A
102
{ACAD_REACTORS
330
C
102
}
330
C
100
AcDbDictionary
  0
DICTIONARY
  5
3B
102
{ACAD_REACTORS
330
C
102
}
330
C
100
AcDbDictionary
  3
BYBLOCK
350
3D
  3
BYLAYER
350
3C
  3
GLOBAL
350
3E
  0
DICTIONARY
  5
8F
102
{ACAD_REACTORS
330
C
102
}
330
C
100
AcDbDictionary
  0
DICTIONARY
  5
17
102
{ACAD_REACTORS
330
C
102
}
330
C
100
AcDbDictionary
  3
STANDARD
350
18
  0
DICTIONARY
  5
19
102
{ACAD_REACTORS
330
C
102
}
330
C
100
AcDbDictionary
  0
DICTIONARY
  5
2A
102
{ACAD_REACTORS
330
C
102
}
330
C
100
AcDbDictionary
  3
2DWIREFRAME
350
2F
  3
3D_HIDDEN
350
31
  3
3DWIREFRAME
350
30
  3
BASIC
350
32
  3
BRIGHTEN
350
36
  3
COLORCHANGE
350
3A
  3
CONCEPTUAL
350
34
  3
DIM
350
35
  3
FACEPATTERN
350
39
  3
FLAT
350
2B
  3
FLATWITHEDGES
350
2C
  3
GOURAUD
350
2D
  3
GOURAUDWITHEDGES
350
2E
  3
LINEPATTERN
350
38
  3
REALISTIC
350
33
  3
THICKEN
350
37
  0
DICTIONARY
  5
6D
102
{ACAD_REACTORS
330
C
102
}
330
C
100
AcDbDictionary
  3
CEPSNTYPE
350
76
  3
DIMSTYLEDATA
350
8C
  3
FINGERPRINTGUID
350
77
  3
HYPERLINKBASE
350
70
  3
INSUNITS
350
75
  3
LAYOUTDICT
350
72
  3
LWETCUNION
350
74
  3
PLOTSETDICT
350
73
  3
PSVPSCALE
350
79
  3
PUCSBASE
350
7C
  3
PUCSORGBACK
350
82
  3
PUCSORGBOTTOM
350
7E
  3
PUCSORGFRONT
350
81
  3
PUCSORGLEFT
350
7F
  3
PUCSORGRIGHT
350
80
  3
PUCSORGTOP
350
7D
  3
PUCSORTHOREF
350
7A
  3
PUCSORTHOVIEW
350
7B
  3
STYLESHEET
350
71
  3
TSTACKALIGN
350
6E
  3
TSTACKSIZE
350
6F
  3
UCSBASE
350
85
  3
UCSORGBACK
350
8B
  3
UCSORGBOTTOM
350
87
  3
UCSORGFRONT
350
8A
  3
UCSORGLEFT
350
88
  3
UCSORGRIGHT
350
89
  3
UCSORGTOP
350
86
  3
UCSORTHOREF
350
83
  3
UCSORTHOVIEW
350
84
  3
VERSIONGUID
350
78
  0
DICTIONARY
  5
8D
102
{ACAD_REACTORS
330
C
102
}
330
C
100
AcDbDictionary
  3
DIMASSOC
350
90
  3
HIDETEXT
350
91
  0
MATERIAL
  5
3D
102
{ACAD_REACTORS
330
3B
102
}
102
{ACAD_XDICTIONARY
360
94
102
}
330
3B
100
AcDbMaterial
  1
ByBlock
  0
MATERIAL
  5
3C
102
{ACAD_REACTORS
330
3B
102
}
102
{ACAD_XDICTIONARY
360
92
102
}
330
3B
100
AcDbMaterial
  1
ByLayer
  0
MATERIAL
  5
3E
102
{ACAD_REACTORS
330
3B
102
}
102
{ACAD_XDICTIONARY
360
96
102
}
330
3B
100
AcDbMaterial
  1
Global
  0
MLINESTYLE
  5
18
102
{ACAD_REACTORS
330
17
102
}
330
17
100
AcDbMlineStyle
  2
Standard
 70
     0
  3

 62
   256
 51
90.0
 52
90.0
 71
     2
 49
0.5
 62
   256
  6
BYLAYER
 49
-0.5
 62
   256
  6
BYLAYER
  0
ACAD_PROXY_OBJECT
  5
2F
102
{ACAD_REACTORS
330
2A
102
}
330
2A
100
AcDbProxyObject
 90
      499
 91
      501
 93
      436
310
42CC9915DA5C99599C985B595049028333333333333E3BF0000000000000FB0107901411070040501600405405064090741402480A0340
1001
ACAD
1000
AcDbSavedByObjectVersion
1070
     0
  0
ACAD_PROXY_OBJECT
  5
31
102
{ACAD_REACTORS
330
2A
102
}
330
2A
100
AcDbProxyObject
 90
      499
 91
      501
 93
      500
310
424CD108121A5919195B90640502408333333333333E3BF0000000000000FB01079024090700405020000000000001110200405405064090740C02480A0340
1001
ACAD
1000
AcDbSavedByObjectVersion
1070
     0
  0
ACAD_PROXY_OBJECT
  5
30
102
{ACAD_REACTORS
330
2A
102
}
330
2A
100
AcDbProxyObject
 90
      499
 91
      501
 93
      436
310
42CCD915DA5C99599C985B595059028333333333333E3BF0000000000000FB0107901411070040501600405405064090741402480A0340
1001
ACAD
1000
AcDbSavedByObjectVersion
1070
     0
  0
ACAD_PROXY_OBJECT
  5
32
102
{ACAD_REACTORS
330
2A
102
}
330
2A
100
AcDbProxyObject
 90
      499
 91
      501
 93
      388
310
4150985CDA58D07406404333333333333E3BF0000000000000FB0107A41107004050150841D405064090741402480A0350
1001
ACAD
1000
AcDbSavedByObjectVersion
1070
     0
  0
ACAD_PROXY_OBJECT
  5
36
102
{ACAD_REACTORS
330
2A
102
}
330
2A
100
AcDbProxyObject
 90
      499
 91
      501
 93
      428
310
42109C9A59DA1D195B90C409028333333333333E3BF0000000000000FB010790141107004050150841D405064090741402480A029950
1001
ACAD
1000
AcDbSavedByObjectVersion
1070
     0
  0
ACAD_PROXY_OBJECT
  5
3A
102
{ACAD_REACTORS
330
2A
102
}
330
2A
100
AcDbProxyObject
 90
      499
 91
      501
 93
      452
310
42D0DBDB1BDC90DA185B99D95104090240C333333333333E3BF0000000000000FB0108901411070040501508421405064090741402480A0350
1001
ACAD
1000
AcDbSavedByObjectVersion
1070
     0
  0
ACAD_PROXY_OBJECT
  5
34
102
{ACAD_REACTORS
330
2A
102
}
330
2A
100
AcDbProxyObject
 90
      499
 91
      501
 93
      500
310
4290DBDB98D95C1D1D585B10940D028333333333333E3BF0000000000000FB0107902409070040501000000000000111010841D405064090740C02480A0340
1001
ACAD
1000
AcDbSavedByObjectVersion
1070
     0
  0
ACAD_PROXY_OBJECT
  5
35
102
{ACAD_REACTORS
330
2A
102
}
330
2A
100
AcDbProxyObject
 90
      499
 91
      501
 93
      412
310
40D11A5B50B409028333333333333E3BF0000000000000FB010790141107004050150841D405064090741402480A02677FFFFFD0
1001
ACAD
1000
AcDbSavedByObjectVersion
1070
     0
  0
ACAD_PROXY_OBJECT
  5
39
102
{ACAD_REACTORS
330
2A
102
}
330
2A
100
AcDbProxyObject
 90
      499
 91
      501
 93
      444
310
42D19858D95C185D1D195C9B90F409028333333333333E3BF0000000000000FB010790141107004050150841D405064090741402480A0350
1001
ACAD
1000
AcDbSavedByObjectVersion
1070
     0
  0
ACAD_PROXY_OBJECT
  5
2B
102
{ACAD_REACTORS
330
2A
102
}
330
2A
100
AcDbProxyObject
 90
      499
 91
      501
 93
      388
310
41119B185D240901404333333333333E3BF0000000000000F9010740A41107004050150841D405064090741402480A1B50
1001
ACAD
1000
AcDbSavedByObjectVersion
1070
     0
  0
ACAD_PROXY_OBJECT
  5
2C
102
{ACAD_REACTORS
330
2A
102
}
330
2A
100
AcDbProxyObject
 90
      499
 91
      501
 93
      476
310
43519B185D15DA5D1A115919D95CD0140901404333333333333E3BF0000000000000F9010740901411070040501600405405064090741402480A1B50
1001
ACAD
1000
AcDbSavedByObjectVersion
1070
     0
  0
ACAD_PROXY_OBJECT
  5
2D
102
{ACAD_REACTORS
330
2A
102
}
330
2A
100
AcDbProxyObject
 90
      499
 91
      501
 93
      412
310
41D1DBDD5C985D5910240902404333333333333E3BF0000000000000F9010740A411070040501641D405064090741402480A1B50
1001
ACAD
1000
AcDbSavedByObjectVersion
1070
     0
  0
ACAD_PROXY_OBJECT
  5
2E
102
{ACAD_REACTORS
330
2A
102
}
330
2A
100
AcDbProxyObject
 90
      499
 91
      501
 93
      500
310
4411DBDD5C985D5915DA5D1A115919D95CD0340902404333333333333E3BF0000000000000F9010740901411070040501600405405064090741402480A1B50
1001
ACAD
1000
AcDbSavedByObjectVersion
1070
     0
  0
ACAD_PROXY_OBJECT
  5
38
102
{ACAD_REACTORS
330
2A
102
}
330
2A
100
AcDbProxyObject
 90
      499
 91
      501
 93
      444
310
42D31A5B995C185D1D195C9B90E409028333333333333E3BF0000000000000FB010790141107004050750841D405064090741402483A0350
1001
ACAD
1000
AcDbSavedByObjectVersion
1070
     0
  0
ACAD_PROXY_OBJECT
  5
33
102
{ACAD_REACTORS
330
2A
102
}
330
2A
100
AcDbProxyObject
 90
      499
 91
      501
 93
      420
310
425499585B1A5CDD1A58D08409028333333333333E3BF0000000000000FB01079019070040501508421405064090741402480A1B40
1001
ACAD
1000
AcDbSavedByObjectVersion
1070
     0
  0
ACAD_PROXY_OBJECT
  5
37
102
{ACAD_REACTORS
330
2A
102
}
330
2A
100
AcDbProxyObject
 90
      499
 91
      501
 93
      412
310
41D51A1A58DAD95B90D409028333333333333E3BF0000000000000FB010790141107004050150C41D405064090741402480A0350
1001
ACAD
1000
AcDbSavedByObjectVersion
1070
     0
  0
XRECORD
  5
76
102
{ACAD_REACTORS
330
6D
102
}
330
6D
100
AcDbXrecord
 90
        0
  0
XRECORD
  5
8C
102
{ACAD_REACTORS
330
6D
102
}
330
6D
100
AcDbXrecord
1000
DSTYLE
1002
{
1070
   340
340
11
1002
}
  0
XRECORD
  5
77
102
{ACAD_REACTORS
330
6D
102
}
330
6D
100
AcDbXrecord
  1
{55C48B6D-BF98-4B38-BD64-5F8AE9ABE621}
  0
XRECORD
  5
70
102
{ACAD_REACTORS
330
6D
102
}
330
6D
100
AcDbXrecord
  1

  0
XRECORD
  5
75
102
{ACAD_REACTORS
330
6D
102
}
330
6D
100
AcDbXrecord
 90
        4
  0
XRECORD
  5
72
102
{ACAD_REACTORS
330
6D
102
}
330
6D
100
AcDbXrecord
340
1A
  0
XRECORD
  5
74
102
{ACAD_REACTORS
330
6D
102
}
330
6D
100
AcDbXrecord
 90
    10781
  0
XRECORD
  5
73
102
{ACAD_REACTORS
330
6D
102
}
330
6D
100
AcDbXrecord
340
19
  0
XRECORD
  5
79
102
{ACAD_REACTORS
330
6D
102
}
330
6D
100
AcDbXrecord
 40
0.0
  0
XRECORD
  5
7C
102
{ACAD_REACTORS
330
6D
102
}
330
6D
100
AcDbXrecord
340
0
  0
XRECORD
  5
82
102
{ACAD_REACTORS
330
6D
102
}
330
6D
100
AcDbXrecord
 10
0.0
 20
0.0
 30
0.0
  0
XRECORD
  5
7E
102
{ACAD_REACTORS
330
6D
102
}
330
6D
100
AcDbXrecord
 10
0.0
 20
0.0
 30
0.0
  0
XRECORD
  5
81
102
{ACAD_REACTORS
330
6D
102
}
330
6D
100
AcDbXrecord
 10
0.0
 20
0.0
 30
0.0
  0
XRECORD
  5
7F
102
{ACAD_REACTORS
330
6D
102
}
330
6D
100
AcDbXrecord
 10
0.0
 20
0.0
 30
0.0
  0
XRECORD
  5
80
102
{ACAD_REACTORS
330
6D
102
}
330
6D
100
AcDbXrecord
 10
0.0
 20
0.0
 30
0.0
  0
XRECORD
  5
7D
102
{ACAD_REACTORS
330
6D
102
}
330
6D
100
AcDbXrecord
 10
0.0
 20
0.0
 30
0.0
  0
XRECORD
  5
7A
102
{ACAD_REACTORS
330
6D
102
}
330
6D
100
AcDbXrecord
340
0
  0
XRECORD
  5
7B
102
{ACAD_REACTORS
330
6D
102
}
330
6D
100
AcDbXrecord
 70
     0
  0
XRECORD
  5
71
102
{ACAD_REACTORS
330
6D
102
}
330
6D
100
AcDbXrecord
  1

  0
XRECORD
  5
6E
102
{ACAD_REACTORS
330
6D
102
}
330
6D
100
AcDbXrecord
 90
        1
  0
XRECORD
  5
6F
102
{ACAD_REACTORS
330
6D
102
}
330
6D
100
AcDbXrecord
 90
       70
  0
XRECORD
  5
85
102
{ACAD_REACTORS
330
6D
102
}
330
6D
100
AcDbXrecord
340
0
  0
XRECORD
  5
8B
102
{ACAD_REACTORS
330
6D
102
}
330
6D
100
AcDbXrecord
 10
0.0
 20
0.0
 30
0.0
  0
XRECORD
  5
87
102
{ACAD_REACTORS
330
6D
102
}
330
6D
100
AcDbXrecord
 10
0.0
 20
0.0
 30
0.0
  0
XRECORD
  5
8A
102
{ACAD_REACTORS
330
6D
102
}
330
6D
100
AcDbXrecord
 10
0.0
 20
0.0
 30
0.0
  0
XRECORD
  5
88
102
{ACAD_REACTORS
330
6D
102
}
330
6D
100
AcDbXrecord
 10
0.0
 20
0.0
 30
0.0
  0
XRECORD
  5
89
102
{ACAD_REACTORS
330
6D
102
}
330
6D
100
AcDbXrecord
 10
0.0
 20
0.0
 30
0.0
  0
XRECORD
  5
86
102
{ACAD_REACTORS
330
6D
102
}
330
6D
100
AcDbXrecord
 10
0.0
 20
0.0
 30
0.0
  0
XRECORD
  5
83
102
{ACAD_REACTORS
330
6D
102
}
330
6D
100
AcDbXrecord
340
0
  0
XRECORD
  5
84
102
{ACAD_REACTORS
330
6D
102
}
330
6D
100
AcDbXrecord
 70
     0
  0
XRECORD
  5
78
102
{ACAD_REACTORS
330
6D
102
}
330
6D
100
AcDbXrecord
  1
{FAEB1C32-E019-11D5-929B-00C0DF256EC4}
  0
DICTIONARYVAR
  5
90
102
{ACAD_REACTORS
330
8D
102
}
330
8D
100
DictionaryVariables
280
     0
  1
2
  0
DICTIONARYVAR
  5
91
102
{ACAD_REACTORS
330
8D
102
}
330
8D
100
DictionaryVariables
280
     0
  1
1
  0
DICTIONARY
  5
94
330
3D
100
AcDbDictionary
280
     1
  3
ACAD_XREC_ROUNDTRIP
360
95
  0
DICTIONARY
  5
92
330
3C
100
AcDbDictionary
280
     1
  3
ACAD_XREC_ROUNDTRIP
360
93
  0
DICTIONARY
  5
96
330
3E
100
AcDbDictionary
280
     1
  3
ACAD_XREC_ROUNDTRIP
360
97
  0
XRECORD
  5
95
102
{ACAD_REACTORS
330
94
102
}
330
94
100
AcDbXrecord
102
MATERIAL
148
0.0
149
0.0
149
0.0
 93
        0
 94
      127
282
     0
 72
     1
 77
     1
171
     1
175
     1
179
     1
273
     0
  0
XRECORD
  5
93
102
{ACAD_REACTORS
330
92
102
}
330
92
100
AcDbXrecord
102
MATERIAL
148
0.0
149
0.0
149
0.0
 93
        0
 94
      127
282
     0
 72
     1
 77
     1
171
     1
175
     1
179
     1
273
     0
  0
XRECORD
  5
97
102
{ACAD_REACTORS
330
96
102
}
330
96
100
AcDbXrecord
102
MATERIAL
148
0.0
149
0.0
149
0.0
 93
        0
 94
      127
282
     0
 72
     1
 77
     1
171
     1
175
     1
179
     1
273
     0
  0
ENDSEC
  0
EOF
