  0
SECTION
  2
HEADER
  9
$ACADVER
  1
AC1015
  9
$ACADMAINTVER
 70
     6
  9
$DWGCODEPAGE
  3
ANSI_1250
  9
$INSBASE
 10
0.0
 20
0.0
 30
0.0
  9
$EXTMIN
 10
-73.016
 20
-17.8734
 30
0.0
  9
$EXTMAX
 10
72.9275
 20
17.7929
 30
0.0
  9
$LIMMIN
 10
0.0
 20
0.0
  9
$LIMMAX
 10
12.0
 20
9.0
  9
$ORTHOMODE
 70
     0
  9
$REGENMODE
 70
     1
  9
$FILLMODE
 70
     1
  9
$QTEXTMODE
 70
     0
  9
$MIRRTEXT
 70
     1
  9
$LTSCALE
 40
1.0
  9
$ATTMODE
 70
     1
  9
$TEXTSIZE
 40
0.2
  9
$TRACEWID
 40
0.05
  9
$TEXTSTYLE
  7
Standard
  9
$CLAYER
  8
0
  9
$CELTYPE
  6
ByLayer
  9
$CECOLOR
 62
   256
  9
$CELTSCALE
 40
1.0
  9
$DISPSILH
 70
     0
  9
$DIMSCALE
 40
1.0
  9
$DIMASZ
 40
0.18
  9
$DIMEXO
 40
0.0625
  9
$DIMDLI
 40
0.38
  9
$DIMRND
 40
0.0
  9
$DIMDLE
 40
0.0
  9
$DIMEXE
 40
0.18
  9
$DIMTP
 40
0.0
  9
$DIMTM
 40
0.0
  9
$DIMTXT
 40
0.18
  9
$DIMCEN
 40
0.09
  9
$DIMTSZ
 40
0.0
  9
$DIMTOL
 70
     0
  9
$DIMLIM
 70
     0
  9
$DIMTIH
 70
     1
  9
$DIMTOH
 70
     1
  9
$DIMSE1
 70
     0
  9
$DIMSE2
 70
     0
  9
$DIMTAD
 70
     0
  9
$DIMZIN
 70
     0
  9
$DIMBLK
  1

  9
$DIMASO
 70
     1
  9
$DIMSHO
 70
     1
  9
$DIMPOST
  1

  9
$DIMAPOST
  1

  9
$DIMALT
 70
     0
  9
$DIMALTD
 70
     2
  9
$DIMALTF
 40
25.4
  9
$DIMLFAC
 40
1.0
  9
$DIMTOFL
 70
     0
  9
$DIMTVP
 40
0.0
  9
$DIMTIX
 70
     0
  9
$DIMSOXD
 70
     0
  9
$DIMSAH
 70
     0
  9
$DIMBLK1
  1

  9
$DIMBLK2
  1

  9
$DIMSTYLE
  2
Standard
  9
$DIMCLRD
 70
     0
  9
$DIMCLRE
 70
     0
  9
$DIMCLRT
 70
     0
  9
$DIMTFAC
 40
1.0
  9
$DIMGAP
 40
0.09
  9
$DIMJUST
 70
     0
  9
$DIMSD1
 70
     0
  9
$DIMSD2
 70
     0
  9
$DIMTOLJ
 70
     1
  9
$DIMTZIN
 70
     0
  9
$DIMALTZ
 70
     0
  9
$DIMALTTZ
 70
     0
  9
$DIMUPT
 70
     0
  9
$DIMDEC
 70
     4
  9
$DIMTDEC
 70
     4
  9
$DIMALTU
 70
     2
  9
$DIMALTTD
 70
     2
  9
$DIMTXSTY
  7
Standard
  9
$DIMAUNIT
 70
     0
  9
$DIMADEC
 70
     0
  9
$DIMALTRND
 40
0.0
  9
$DIMAZIN
 70
     0
  9
$DIMDSEP
 70
    46
  9
$DIMATFIT
 70
     3
  9
$DIMFRAC
 70
     0
  9
$DIMLDRBLK
  1

  9
$DIMLUNIT
 70
     2
  9
$DIMLWD
 70
    -2
  9
$DIMLWE
 70
    -2
  9
$DIMTMOVE
 70
     0
  9
$LUNITS
 70
     2
  9
$LUPREC
 70
     4
  9
$SKETCHINC
 40
0.1
  9
$FILLETRAD
 40
0.5
  9
$AUNITS
 70
     0
  9
$AUPREC
 70
     0
  9
$MENU
  1
.
  9
$ELEVATION
 40
0.0
  9
$PELEVATION
 40
0.0
  9
$THICKNESS
 40
0.0
  9
$LIMCHECK
 70
     0
  9
$CHAMFERA
 40
0.5
  9
$CHAMFERB
 40
0.5
  9
$CHAMFERC
 40
1.0
  9
$CHAMFERD
 40
0.0
  9
$SKPOLY
 70
     0
  9
$TDCREATE
 40
2457637.402207743
  9
$TDUCREATE
 40
2457637.31887441
  9
$TDUPDATE
 40
2457637.402207755
  9
$TDUUPDATE
 40
2457637.318874421
  9
$TDINDWG
 40
0.0000000116
  9
$TDUSRTIMER
 40
0.0000000116
  9
$USRTIMER
 70
     1
  9
$ANGBASE
 50
0.0
  9
$ANGDIR
 70
     0
  9
$PDMODE
 70
     0
  9
$PDSIZE
 40
0.0
  9
$PLINEWID
 40
0.0
  9
$SPLFRAME
 70
     0
  9
$SPLINETYPE
 70
     6
  9
$SPLINESEGS
 70
     8
  9
$HANDSEED
  5
1B0
  9
$SURFTAB1
 70
     6
  9
$SURFTAB2
 70
     6
  9
$SURFTYPE
 70
     6
  9
$SURFU
 70
     6
  9
$SURFV
 70
     6
  9
$UCSBASE
  2

  9
$UCSNAME
  2

  9
$UCSORG
 10
0.0
 20
0.0
 30
0.0
  9
$UCSXDIR
 10
1.0
 20
0.0
 30
0.0
  9
$UCSYDIR
 10
0.0
 20
1.0
 30
0.0
  9
$UCSORTHOREF
  2

  9
$UCSORTHOVIEW
 70
     0
  9
$UCSORGTOP
 10
0.0
 20
0.0
 30
0.0
  9
$UCSORGBOTTOM
 10
0.0
 20
0.0
 30
0.0
  9
$UCSORGLEFT
 10
0.0
 20
0.0
 30
0.0
  9
$UCSORGRIGHT
 10
0.0
 20
0.0
 30
0.0
  9
$UCSORGFRONT
 10
0.0
 20
0.0
 30
0.0
  9
$UCSORGBACK
 10
0.0
 20
0.0
 30
0.0
  9
$PUCSBASE
  2

  9
$PUCSNAME
  2

  9
$PUCSORG
 10
0.0
 20
0.0
 30
0.0
  9
$PUCSXDIR
 10
1.0
 20
0.0
 30
0.0
  9
$PUCSYDIR
 10
0.0
 20
1.0
 30
0.0
  9
$PUCSORTHOREF
  2

  9
$PUCSORTHOVIEW
 70
     0
  9
$PUCSORGTOP
 10
0.0
 20
0.0
 30
0.0
  9
$PUCSORGBOTTOM
 10
0.0
 20
0.0
 30
0.0
  9
$PUCSORGLEFT
 10
0.0
 20
0.0
 30
0.0
  9
$PUCSORGRIGHT
 10
0.0
 20
0.0
 30
0.0
  9
$PUCSORGFRONT
 10
0.0
 20
0.0
 30
0.0
  9
$PUCSORGBACK
 10
0.0
 20
0.0
 30
0.0
  9
$USERI1
 70
     0
  9
$USERI2
 70
     0
  9
$USERI3
 70
     0
  9
$USERI4
 70
     0
  9
$USERI5
 70
     0
  9
$USERR1
 40
0.0
  9
$USERR2
 40
0.0
  9
$USERR3
 40
0.0
  9
$USERR4
 40
0.0
  9
$USERR5
 40
0.0
  9
$WORLDVIEW
 70
     1
  9
$SHADEDGE
 70
     3
  9
$SHADEDIF
 70
    70
  9
$TILEMODE
 70
     1
  9
$MAXACTVP
 70
    64
  9
$PINSBASE
 10
0.0
 20
0.0
 30
0.0
  9
$PLIMCHECK
 70
     0
  9
$PEXTMIN
 10
1.000000000000000E+20
 20
1.000000000000000E+20
 30
1.000000000000000E+20
  9
$PEXTMAX
 10
-1.000000000000000E+20
 20
-1.000000000000000E+20
 30
-1.000000000000000E+20
  9
$PLIMMIN
 10
0.0
 20
0.0
  9
$PLIMMAX
 10
12.0
 20
9.0
  9
$UNITMODE
 70
     0
  9
$VISRETAIN
 70
     1
  9
$PLINEGEN
 70
     0
  9
$PSLTSCALE
 70
     1
  9
$TREEDEPTH
 70
  3020
  9
$CMLSTYLE
  2
Standard
  9
$CMLJUST
 70
     0
  9
$CMLSCALE
 40
1.0
  9
$PROXYGRAPHICS
 70
     1
  9
$MEASUREMENT
 70
     0
  9
$CELWEIGHT
370
    -1
  9
$ENDCAPS
280
     0
  9
$JOINSTYLE
280
     0
  9
$LWDISPLAY
290
     0
  9
$INSUNITS
 70
     4
  9
$HYPERLINKBASE
  1

  9
$STYLESHEET
  1

  9
$XEDIT
290
     1
  9
$CEPSNTYPE
380
     0
  9
$PSTYLEMODE
290
     1
  9
$FINGERPRINTGUID
  2
{3B512887-82A1-4410-B9B0-96742CA3B0D7}
  9
$VERSIONGUID
  2
{FAEB1C32-E019-11D5-929B-00C0DF256EC4}
  9
$EXTNAMES
290
     1
  9
$PSVPSCALE
 40
0.0
  9
$OLESTARTUP
290
     0
  0
ENDSEC
  0
SECTION
  2
CLASSES
  0
CLASS
  1
ACDBDICTIONARYWDFLT
  2
AcDbDictionaryWithDefault
  3
ObjectDBX Classes
 90
        0
280
     0
281
     0
  0
CLASS
  1
VISUALSTYLE
  2
AcDbVisualStyle
  3
ObjectDBX Classes
 90
     4095
280
     0
281
     0
  0
CLASS
  1
MATERIAL
  2
AcDbMaterial
  3
ObjectDBX Classes
 90
     1153
280
     0
281
     0
  0
CLASS
  1
DICTIONARYVAR
  2
AcDbDictionaryVar
  3
ObjectDBX Classes
 90
        0
280
     0
281
     0
  0
CLASS
  1
ACDBPLACEHOLDER
  2
AcDbPlaceHolder
  3
ObjectDBX Classes
 90
        0
280
     0
281
     0
  0
CLASS
  1
LAYOUT
  2
AcDbLayout
  3
ObjectDBX Classes
 90
        0
280
     0
281
     0
  0
ENDSEC
  0
SECTION
  2
TABLES
  0
TABLE
  2
VPORT
  5
8
330
0
100
AcDbSymbolTable
 70
     1
  0
VPORT
  5
29
330
8
100
AcDbSymbolTableRecord
100
AcDbViewportTableRecord
  2
*Active
 70
     0
 10
0.0
 20
0.0
 11
1.0
 21
1.0
 12
10.42990654205607
 22
4.5
 13
0.0
 23
0.0
 14
0.5
 24
0.5
 15
0.5
 25
0.5
 16
0.0
 26
0.0
 36
1.0
 17
0.0
 27
0.0
 37
0.0
 40
9.0
 41
1.972972972850329
 42
50.0
 43
0.0
 44
0.0
 50
0.0
 51
0.0
 71
     0
 72
   100
 73
     1
 74
     3
 75
     0
 76
     0
 77
     0
 78
     0
281
     0
 65
     1
110
0.0
120
0.0
130
0.0
111
1.0
121
0.0
131
0.0
112
0.0
122
1.0
132
0.0
 79
     0
146
0.0
  0
ENDTAB
  0
TABLE
  2
LTYPE
  5
5
330
0
100
AcDbSymbolTable
 70
     1
  0
LTYPE
  5
14
330
5
100
AcDbSymbolTableRecord
100
AcDbLinetypeTableRecord
  2
ByBlock
 70
     0
  3

 72
    65
 73
     0
 40
0.0
  0
LTYPE
  5
15
330
5
100
AcDbSymbolTableRecord
100
AcDbLinetypeTableRecord
  2
ByLayer
 70
     0
  3

 72
    65
 73
     0
 40
0.0
  0
LTYPE
  5
16
330
5
100
AcDbSymbolTableRecord
100
AcDbLinetypeTableRecord
  2
Continuous
 70
     0
  3
Solid line
 72
    65
 73
     0
 40
0.0
  0
ENDTAB
  0
TABLE
  2
LAYER
  5
2
330
0
100
AcDbSymbolTable
 70
     2
  0
LAYER
  5
10
330
2
100
AcDbSymbolTableRecord
100
AcDbLayerTableRecord
  2
0
 70
     0
 62
     7
  6
Continuous
370
    -3
390
F
  0
LAYER
  5
40
330
2
100
AcDbSymbolTableRecord
100
AcDbLayerTableRecord
  2
Ilustrace
 70
     0
 62
     7
  6
Continuous
370
    -3
390
F
  0
ENDTAB
  0
TABLE
  2
STYLE
  5
3
330
0
100
AcDbSymbolTable
 70
     1
  0
STYLE
  5
11
330
3
100
AcDbSymbolTableRecord
100
AcDbTextStyleTableRecord
  2
Standard
 70
     0
 40
0.0
 41
1.0
 50
0.0
 71
     0
 42
0.2
  3
txt
  4

  0
ENDTAB
  0
TABLE
  2
VIEW
  5
6
330
0
100
AcDbSymbolTable
 70
     0
  0
ENDTAB
  0
TABLE
  2
UCS
  5
7
330
0
100
AcDbSymbolTable
 70
     0
  0
ENDTAB
  0
TABLE
  2
APPID
  5
9
330
0
100
AcDbSymbolTable
 70
     2
  0
APPID
  5
12
330
9
100
AcDbSymbolTableRecord
100
AcDbRegAppTableRecord
  2
ACAD
 70
     0
  0
APPID
  5
3F
330
9
100
AcDbSymbolTableRecord
100
AcDbRegAppTableRecord
  2
ODA
 70
     0
  0
ENDTAB
  0
TABLE
  2
DIMSTYLE
  5
A
330
0
100
AcDbSymbolTable
 70
     1
100
AcDbDimStyleTable
  0
DIMSTYLE
105
27
330
A
100
AcDbSymbolTableRecord
100
AcDbDimStyleTableRecord
  2
Standard
 70
     0
340
11
  0
ENDTAB
  0
TABLE
  2
BLOCK_RECORD
  5
1
330
0
100
AcDbSymbolTable
 70
     1
  0
BLOCK_RECORD
  5
1F
330
1
100
AcDbSymbolTableRecord
100
AcDbBlockTableRecord
  2
*Model_Space
340
22
  0
BLOCK_RECORD
  5
1B
330
1
100
AcDbSymbolTableRecord
100
AcDbBlockTableRecord
  2
*Paper_Space
340
1E
  0
BLOCK_RECORD
  5
23
330
1
100
AcDbSymbolTableRecord
100
AcDbBlockTableRecord
  2
*Paper_Space0
340
26
  0
ENDTAB
  0
ENDSEC
  0
SECTION
  2
BLOCKS
  0
BLOCK
  5
20
330
1F
100
AcDbEntity
  8
0
100
AcDbBlockBegin
  2
*Model_Space
 70
     0
 10
0.0
 20
0.0
 30
0.0
  3
*Model_Space
  1

  0
ENDBLK
  5
21
330
1F
100
AcDbEntity
  8
0
100
AcDbBlockEnd
  0
BLOCK
  5
1C
330
1B
100
AcDbEntity
 67
     1
  8
0
100
AcDbBlockBegin
  2
*Paper_Space
 70
     0
 10
0.0
 20
0.0
 30
0.0
  3
*Paper_Space
  1

  0
ENDBLK
  5
1D
330
1B
100
AcDbEntity
 67
     1
  8
0
100
AcDbBlockEnd
  0
BLOCK
  5
24
330
23
100
AcDbEntity
  8
0
100
AcDbBlockBegin
  2
*Paper_Space0
 70
     0
 10
0.0
 20
0.0
 30
0.0
  3
*Paper_Space0
  1

  0
ENDBLK
  5
25
330
23
100
AcDbEntity
  8
0
100
AcDbBlockEnd
  0
ENDSEC
  0
SECTION
  2
ENTITIES
  0
SPLINE
  5
41
330
1F
100
AcDbEntity
  8
Ilustrace
 62
   250
370
    15
100
AcDbSpline
210
0.0
220
0.0
230
1.0
 70
    24
 71
     3
 72
     8
 73
     4
 74
     0
 42
0.0000000001
 43
0.0000000001
 40
0.0
 40
0.0
 40
0.0
 40
0.0
 40
1.0
 40
1.0
 40
1.0
 40
1.0
 10
67.3256
 20
6.3642
 30
0.0
 10
67.3256
 20
6.3642
 30
0.0
 10
67.3256
 20
10.5152
 30
0.0
 10
67.3256
 20
10.5152
 30
0.0
  0
SPLINE
  5
42
330
1F
100
AcDbEntity
  8
Ilustrace
 62
   250
370
    15
100
AcDbSpline
210
0.0
220
0.0
230
1.0
 70
    24
 71
     3
 72
     8
 73
     4
 74
     0
 42
0.0000000001
 43
0.0000000001
 40
0.0
 40
0.0
 40
0.0
 40
0.0
 40
1.0
 40
1.0
 40
1.0
 40
1.0
 10
62.4536
 20
6.188
 30
0.0
 10
62.4536
 20
6.188
 30
0.0
 10
62.4536
 20
10.5538
 30
0.0
 10
62.4536
 20
10.5538
 30
0.0
  0
SPLINE
  5
43
330
1F
100
AcDbEntity
  8
Ilustrace
 62
   250
370
    15
100
AcDbSpline
210
0.0
220
0.0
230
1.0
 70
    24
 71
     3
 72
     8
 73
     4
 74
     0
 42
0.0000000001
 43
0.0000000001
 40
0.0
 40
0.0
 40
0.0
 40
0.0
 40
1.0
 40
1.0
 40
1.0
 40
1.0
 10
72.8645
 20
-17.7927
 30
0.0
 10
72.8645
 20
-17.7927
 30
0.0
 10
67.4209
 20
-17.7927
 30
0.0
 10
67.4209
 20
-17.7927
 30
0.0
  0
SPLINE
  5
44
330
1F
100
AcDbEntity
  8
Ilustrace
 62
   250
100
AcDbSpline
210
0.0
220
0.0
230
1.0
 70
    11
 71
     3
 72
   124
 73
   120
 74
     0
 42
0.0000000001
 43
0.0000000001
 40
0.0
 40
0.0
 40
0.0
 40
0.0
 40
0.032258064516129
 40
0.032258064516129
 40
0.032258064516129
 40
0.032258064516129
 40
0.0645161290322581
 40
0.0645161290322581
 40
0.0645161290322581
 40
0.0645161290322581
 40
0.0967741935483871
 40
0.0967741935483871
 40
0.0967741935483871
 40
0.0967741935483871
 40
0.1290322580645161
 40
0.1290322580645161
 40
0.1290322580645161
 40
0.1290322580645161
 40
0.1612903225806452
 40
0.1612903225806452
 40
0.1612903225806452
 40
0.1612903225806452
 40
0.1935483870967742
 40
0.1935483870967742
 40
0.1935483870967742
 40
0.1935483870967742
 40
0.2258064516129032
 40
0.2258064516129032
 40
0.2258064516129032
 40
0.2258064516129032
 40
0.2580645161290323
 40
0.2580645161290323
 40
0.2580645161290323
 40
0.2580645161290323
 40
0.2903225806451613
 40
0.2903225806451613
 40
0.2903225806451613
 40
0.2903225806451613
 40
0.3225806451612903
 40
0.3225806451612903
 40
0.3225806451612903
 40
0.3225806451612903
 40
0.3548387096774194
 40
0.3548387096774194
 40
0.3548387096774194
 40
0.3548387096774194
 40
0.3870967741935484
 40
0.3870967741935484
 40
0.3870967741935484
 40
0.3870967741935484
 40
0.4193548387096774
 40
0.4193548387096774
 40
0.4193548387096774
 40
0.4193548387096774
 40
0.4516129032258064
 40
0.4516129032258064
 40
0.4516129032258064
 40
0.4516129032258064
 40
0.4838709677419355
 40
0.4838709677419355
 40
0.4838709677419355
 40
0.4838709677419355
 40
0.5161290322580645
 40
0.5161290322580645
 40
0.5161290322580645
 40
0.5161290322580645
 40
0.5483870967741935
 40
0.5483870967741935
 40
0.5483870967741935
 40
0.5483870967741935
 40
0.5806451612903226
 40
0.5806451612903226
 40
0.5806451612903226
 40
0.5806451612903226
 40
0.6129032258064516
 40
0.6129032258064516
 40
0.6129032258064516
 40
0.6129032258064516
 40
0.6451612903225806
 40
0.6451612903225806
 40
0.6451612903225806
 40
0.6451612903225806
 40
0.6774193548387096
 40
0.6774193548387096
 40
0.6774193548387096
 40
0.6774193548387096
 40
0.7096774193548387
 40
0.7096774193548387
 40
0.7096774193548387
 40
0.7096774193548387
 40
0.7419354838709677
 40
0.7419354838709677
 40
0.7419354838709677
 40
0.7419354838709677
 40
0.7741935483870968
 40
0.7741935483870968
 40
0.7741935483870968
 40
0.7741935483870968
 40
0.8064516129032258
 40
0.8064516129032258
 40
0.8064516129032258
 40
0.8064516129032258
 40
0.8387096774193549
 40
0.8387096774193549
 40
0.8387096774193549
 40
0.8387096774193549
 40
0.8709677419354839
 40
0.8709677419354839
 40
0.8709677419354839
 40
0.8709677419354839
 40
0.9032258064516129
 40
0.9032258064516129
 40
0.9032258064516129
 40
0.9032258064516129
 40
0.9354838709677419
 40
0.9354838709677419
 40
0.9354838709677419
 40
0.9354838709677419
 40
1.0
 40
1.0
 40
1.0
 40
1.0
 10
64.8908
 20
10.6525
 30
0.0
 10
64.8908
 20
10.6525
 30
0.0
 10
64.8908
 20
10.9357
 30
0.0
 10
64.8908
 20
10.9357
 30
0.0
 10
64.8908
 20
10.9357
 30
0.0
 10
64.8908
 20
10.9357
 30
0.0
 10
63.9873
 20
10.9357
 30
0.0
 10
63.9873
 20
10.9357
 30
0.0
 10
63.9873
 20
10.9357
 30
0.0
 10
63.9873
 20
10.9357
 30
0.0
 10
63.9873
 20
10.9436
 30
0.0
 10
63.9873
 20
10.9436
 30
0.0
 10
63.9873
 20
10.9436
 30
0.0
 10
63.9873
 20
10.9436
 30
0.0
 10
64.1457
 20
11.1297
 30
0.0
 10
64.1457
 20
11.1297
 30
0.0
 10
64.1457
 20
11.1297
 30
0.0
 10
64.2523
 20
11.2572
 30
0.0
 10
64.3485
 20
11.3781
 30
0.0
 10
64.4338
 20
11.492
 30
0.0
 10
64.4338
 20
11.492
 30
0.0
 10
64.5192
 20
11.6057
 30
0.0
 10
64.5922
 20
11.7169
 30
0.0
 10
64.6528
 20
11.8243
 30
0.0
 10
64.6528
 20
11.8243
 30
0.0
 10
64.7137
 20
11.9318
 30
0.0
 10
64.7598
 20
12.0397
 30
0.0
 10
64.7924
 20
12.1484
 30
0.0
 10
64.7924
 20
12.1484
 30
0.0
 10
64.8245
 20
12.2564
 30
0.0
 10
64.8406
 20
12.3683
 30
0.0
 10
64.841
 20
12.4839
 30
0.0
 10
64.841
 20
12.4839
 30
0.0
 10
64.841
 20
12.5752
 30
0.0
 10
64.8297
 20
12.6644
 30
0.0
 10
64.8059
 20
12.751
 30
0.0
 10
64.8059
 20
12.751
 30
0.0
 10
64.782
 20
12.8378
 30
0.0
 10
64.7449
 20
12.916
 30
0.0
 10
64.6951
 20
12.9857
 30
0.0
 10
64.6951
 20
12.9857
 30
0.0
 10
64.6455
 20
13.0564
 30
0.0
 10
64.5813
 20
13.112
 30
0.0
 10
64.5033
 20
13.1533
 30
0.0
 10
64.5033
 20
13.1533
 30
0.0
 10
64.4251
 20
13.1954
 30
0.0
 10
64.332
 20
13.2167
 30
0.0
 10
64.2234
 20
13.2173
 30
0.0
 10
64.2234
 20
13.2173
 30
0.0
 10
64.1467
 20
13.2167
 30
0.0
 10
64.0739
 20
13.2056
 30
0.0
 10
64.0044
 20
13.183
 30
0.0
 10
64.0044
 20
13.183
 30
0.0
 10
63.9351
 20
13.1604
 30
0.0
 10
63.871
 20
13.1301
 30
0.0
 10
63.812
 20
13.0912
 30
0.0
 10
63.812
 20
13.0912
 30
0.0
 10
63.7536
 20
13.053
 30
0.0
 10
63.7013
 20
13.0098
 30
0.0
 10
63.6552
 20
12.9612
 30
0.0
 10
63.6552
 20
12.9612
 30
0.0
 10
63.6552
 20
12.9612
 30
0.0
 10
63.7421
 20
12.7207
 30
0.0
 10
63.7421
 20
12.7207
 30
0.0
 10
63.7421
 20
12.7207
 30
0.0
 10
63.7733
 20
12.7537
 30
0.0
 10
63.8104
 20
12.7867
 30
0.0
 10
63.8539
 20
12.819
 30
0.0
 10
63.8539
 20
12.819
 30
0.0
 10
63.8974
 20
12.852
 30
0.0
 10
63.9454
 20
12.8785
 30
0.0
 10
63.9988
 20
12.9004
 30
0.0
 10
63.9988
 20
12.9004
 30
0.0
 10
64.052
 20
12.9217
 30
0.0
 10
64.1094
 20
12.9334
 30
0.0
 10
64.1706
 20
12.9341
 30
0.0
 10
64.1706
 20
12.9341
 30
0.0
 10
64.2456
 20
12.9334
 30
0.0
 10
64.3087
 20
12.9199
 30
0.0
 10
64.3599
 20
12.8934
 30
0.0
 10
64.3599
 20
12.8934
 30
0.0
 10
64.4106
 20
12.8661
 30
0.0
 10
64.4515
 20
12.8299
 30
0.0
 10
64.482
 20
12.784
 30
0.0
 10
64.482
 20
12.784
 30
0.0
 10
64.5126
 20
12.7375
 30
0.0
 10
64.5348
 20
12.6852
 30
0.0
 10
64.5482
 20
12.6263
 30
0.0
 10
64.5482
 20
12.6263
 30
0.0
 10
64.5617
 20
12.5673
 30
0.0
 10
64.5684
 20
12.506
 30
0.0
 10
64.5678
 20
12.4413
 30
0.0
 10
64.5678
 20
12.4413
 30
0.0
 10
64.5678
 20
12.3469
 30
0.0
 10
64.5529
 20
12.2537
 30
0.0
 10
64.5229
 20
12.1613
 30
0.0
 10
64.5229
 20
12.1613
 30
0.0
 10
64.4929
 20
12.0682
 30
0.0
 10
64.4473
 20
11.9712
 30
0.0
 10
64.3858
 20
11.869
 30
0.0
 10
64.3858
 20
11.869
 30
0.0
 10
64.3242
 20
11.7668
 30
0.0
 10
64.246
 20
11.6548
 30
0.0
 10
64.1515
 20
11.5333
 30
0.0
 10
64.1515
 20
11.5333
 30
0.0
 10
64.0572
 20
11.4117
 30
0.0
 10
63.9454
 20
11.2746
 30
0.0
 10
63.8168
 20
11.122
 30
0.0
 10
63.8168
 20
11.122
 30
0.0
 10
63.8168
 20
11.122
 30
0.0
 10
63.6025
 20
10.862
 30
0.0
 10
63.6025
 20
10.862
 30
0.0
 10
63.6025
 20
10.862
 30
0.0
 10
63.6025
 20
10.862
 30
0.0
 10
63.6025
 20
10.6525
 30
0.0
 10
63.6025
 20
10.6525
 30
0.0
 10
63.6025
 20
10.6525
 30
0.0
 10
63.6025
 20
10.6525
 30
0.0
 10
64.8908
 20
10.6525
 30
0.0
 10
64.8908
 20
10.6525
 30
0.0
  0
SPLINE
  5
45
330
1F
100
AcDbEntity
  8
Ilustrace
 62
   250
100
AcDbSpline
210
0.0
220
0.0
230
1.0
 70
    11
 71
     3
 72
    56
 73
    52
 74
     0
 42
0.0000000001
 43
0.0000000001
 40
0.0
 40
0.0
 40
0.0
 40
0.0
 40
0.0714285714285714
 40
0.0714285714285714
 40
0.0714285714285714
 40
0.0714285714285714
 40
0.1428571428571428
 40
0.1428571428571428
 40
0.1428571428571428
 40
0.1428571428571428
 40
0.2142857142857143
 40
0.2142857142857143
 40
0.2142857142857143
 40
0.2142857142857143
 40
0.2857142857142857
 40
0.2857142857142857
 40
0.2857142857142857
 40
0.2857142857142857
 40
0.3571428571428572
 40
0.3571428571428572
 40
0.3571428571428572
 40
0.3571428571428572
 40
0.4285714285714285
 40
0.4285714285714285
 40
0.4285714285714285
 40
0.4285714285714285
 40
0.5
 40
0.5
 40
0.5
 40
0.5
 40
0.5714285714285714
 40
0.5714285714285714
 40
0.5714285714285714
 40
0.5714285714285714
 40
0.6428571428571429
 40
0.6428571428571429
 40
0.6428571428571429
 40
0.6428571428571429
 40
0.7142857142857143
 40
0.7142857142857143
 40
0.7142857142857143
 40
0.7142857142857143
 40
0.7857142857142857
 40
0.7857142857142857
 40
0.7857142857142857
 40
0.7857142857142857
 40
0.8571428571428571
 40
0.8571428571428571
 40
0.8571428571428571
 40
0.8571428571428571
 40
1.0
 40
1.0
 40
1.0
 40
1.0
 10
65.8716
 20
13.2173
 30
0.0
 10
65.7687
 20
13.2173
 30
0.0
 10
65.6745
 20
13.1889
 30
0.0
 10
65.5887
 20
13.1319
 30
0.0
 10
65.5887
 20
13.1319
 30
0.0
 10
65.5027
 20
13.0751
 30
0.0
 10
65.4288
 20
12.9917
 30
0.0
 10
65.3657
 20
12.8805
 30
0.0
 10
65.3657
 20
12.8805
 30
0.0
 10
65.3026
 20
12.7691
 30
0.0
 10
65.2539
 20
12.6321
 30
0.0
 10
65.2192
 20
12.4691
 30
0.0
 10
65.2192
 20
12.4691
 30
0.0
 10
65.1851
 20
12.3062
 30
0.0
 10
65.1676
 20
12.1186
 30
0.0
 10
65.167
 20
11.9057
 30
0.0
 10
65.167
 20
11.9057
 30
0.0
 10
65.1701
 20
11.627
 30
0.0
 10
65.1996
 20
11.3917
 30
0.0
 10
65.2559
 20
11.199
 30
0.0
 10
65.2559
 20
11.199
 30
0.0
 10
65.3123
 20
11.0062
 30
0.0
 10
65.3905
 20
10.8602
 30
0.0
 10
65.4898
 20
10.7605
 30
0.0
 10
65.4898
 20
10.7605
 30
0.0
 10
65.5891
 20
10.6609
 30
0.0
 10
65.705
 20
10.6105
 30
0.0
 10
65.8374
 20
10.6098
 30
0.0
 10
65.8374
 20
10.6098
 30
0.0
 10
65.9859
 20
10.6105
 30
0.0
 10
66.1122
 20
10.6622
 30
0.0
 10
66.2166
 20
10.7644
 30
0.0
 10
66.2166
 20
10.7644
 30
0.0
 10
66.3212
 20
10.8666
 30
0.0
 10
66.4009
 20
11.0166
 30
0.0
 10
66.4557
 20
11.2146
 30
0.0
 10
66.4557
 20
11.2146
 30
0.0
 10
66.511
 20
11.4124
 30
0.0
 10
66.5385
 20
11.6543
 30
0.0
 10
66.539
 20
11.9407
 30
0.0
 10
66.539
 20
11.9407
 30
0.0
 10
66.5385
 20
12.2092
 30
0.0
 10
66.5121
 20
12.4388
 30
0.0
 10
66.4598
 20
12.6289
 30
0.0
 10
66.4598
 20
12.6289
 30
0.0
 10
66.4076
 20
12.819
 30
0.0
 10
66.3316
 20
12.9644
 30
0.0
 10
66.2323
 20
13.0647
 30
0.0
 10
66.2323
 20
13.0647
 30
0.0
 10
66.1329
 20
13.1656
 30
0.0
 10
66.0129
 20
13.2167
 30
0.0
 10
65.8716
 20
13.2173
 30
0.0
  0
SPLINE
  5
46
330
1F
100
AcDbEntity
  8
Ilustrace
 62
   250
100
AcDbSpline
210
0.0
220
0.0
230
1.0
 70
    11
 71
     3
 72
    56
 73
    52
 74
     0
 42
0.0000000001
 43
0.0000000001
 40
0.0
 40
0.0
 40
0.0
 40
0.0
 40
0.0714285714285714
 40
0.0714285714285714
 40
0.0714285714285714
 40
0.0714285714285714
 40
0.1428571428571428
 40
0.1428571428571428
 40
0.1428571428571428
 40
0.1428571428571428
 40
0.2142857142857143
 40
0.2142857142857143
 40
0.2142857142857143
 40
0.2142857142857143
 40
0.2857142857142857
 40
0.2857142857142857
 40
0.2857142857142857
 40
0.2857142857142857
 40
0.3571428571428572
 40
0.3571428571428572
 40
0.3571428571428572
 40
0.3571428571428572
 40
0.4285714285714285
 40
0.4285714285714285
 40
0.4285714285714285
 40
0.4285714285714285
 40
0.5
 40
0.5
 40
0.5
 40
0.5
 40
0.5714285714285714
 40
0.5714285714285714
 40
0.5714285714285714
 40
0.5714285714285714
 40
0.6428571428571429
 40
0.6428571428571429
 40
0.6428571428571429
 40
0.6428571428571429
 40
0.7142857142857143
 40
0.7142857142857143
 40
0.7142857142857143
 40
0.7142857142857143
 40
0.7857142857142857
 40
0.7857142857142857
 40
0.7857142857142857
 40
0.7857142857142857
 40
0.8571428571428571
 40
0.8571428571428571
 40
0.8571428571428571
 40
0.8571428571428571
 40
1.0
 40
1.0
 40
1.0
 40
1.0
 10
65.8529
 20
12.9535
 30
0.0
 10
65.9244
 20
12.9529
 30
0.0
 10
65.9859
 20
12.9289
 30
0.0
 10
66.0377
 20
12.8805
 30
0.0
 10
66.0377
 20
12.8805
 30
0.0
 10
66.0894
 20
12.8319
 30
0.0
 10
66.1318
 20
12.7626
 30
0.0
 10
66.165
 20
12.6723
 30
0.0
 10
66.165
 20
12.6723
 30
0.0
 10
66.1981
 20
12.5822
 30
0.0
 10
66.223
 20
12.4735
 30
0.0
 10
66.239
 20
12.3482
 30
0.0
 10
66.239
 20
12.3482
 30
0.0
 10
66.2549
 20
12.2221
 30
0.0
 10
66.2627
 20
12.0811
 30
0.0
 10
66.2627
 20
11.9253
 30
0.0
 10
66.2627
 20
11.9253
 30
0.0
 10
66.2627
 20
11.7092
 30
0.0
 10
66.2478
 20
11.523
 30
0.0
 10
66.2178
 20
11.3665
 30
0.0
 10
66.2178
 20
11.3665
 30
0.0
 10
66.1882
 20
11.2094
 30
0.0
 10
66.1428
 20
11.0883
 30
0.0
 10
66.0822
 20
11.0029
 30
0.0
 10
66.0822
 20
11.0029
 30
0.0
 10
66.0217
 20
10.9176
 30
0.0
 10
65.945
 20
10.8749
 30
0.0
 10
65.8529
 20
10.8736
 30
0.0
 10
65.8529
 20
10.8736
 30
0.0
 10
65.7697
 20
10.8743
 30
0.0
 10
65.6978
 20
10.9143
 30
0.0
 10
65.6363
 20
10.9947
 30
0.0
 10
65.6363
 20
10.9947
 30
0.0
 10
65.5752
 20
11.0749
 30
0.0
 10
65.5281
 20
11.1912
 30
0.0
 10
65.4944
 20
11.3439
 30
0.0
 10
65.4944
 20
11.3439
 30
0.0
 10
65.4608
 20
11.497
 30
0.0
 10
65.4437
 20
11.6826
 30
0.0
 10
65.4432
 20
11.902
 30
0.0
 10
65.4432
 20
11.902
 30
0.0
 10
65.4437
 20
12.1315
 30
0.0
 10
65.4618
 20
12.3236
 30
0.0
 10
65.4971
 20
12.4802
 30
0.0
 10
65.4971
 20
12.4802
 30
0.0
 10
65.5323
 20
12.636
 30
0.0
 10
65.5803
 20
12.7537
 30
0.0
 10
65.6419
 20
12.8338
 30
0.0
 10
65.6419
 20
12.8338
 30
0.0
 10
65.7034
 20
12.9135
 30
0.0
 10
65.7739
 20
12.9535
 30
0.0
 10
65.8529
 20
12.9535
 30
0.0
  0
SPLINE
  5
47
330
1F
100
AcDbEntity
  8
Ilustrace
 62
   250
370
    15
100
AcDbSpline
210
0.0
220
0.0
230
1.0
 70
    24
 71
     3
 72
     8
 73
     4
 74
     0
 42
0.0000000001
 43
0.0000000001
 40
0.0
 40
0.0
 40
0.0
 40
0.0
 40
1.0
 40
1.0
 40
1.0
 40
1.0
 10
69.4383
 20
10.042
 30
0.0
 10
69.4383
 20
10.042
 30
0.0
 10
60.5086
 20
10.042
 30
0.0
 10
60.5086
 20
10.042
 30
0.0
  0
SPLINE
  5
48
330
1F
100
AcDbEntity
  8
Ilustrace
 62
   250
370
    15
100
AcDbSpline
210
0.0
220
0.0
230
1.0
 70
    24
 71
     3
 72
     8
 73
     4
 74
     0
 42
0.0000000001
 43
0.0000000001
 40
0.0
 40
0.0
 40
0.0
 40
0.0
 40
1.0
 40
1.0
 40
1.0
 40
1.0
 10
72.3231
 20
5.7582
 30
0.0
 10
72.3231
 20
5.7582
 30
0.0
 10
72.3231
 20
-17.492
 30
0.0
 10
72.3231
 20
-17.492
 30
0.0
  0
SPLINE
  5
49
330
1F
100
AcDbEntity
  8
Ilustrace
 62
   250
370
     9
100
AcDbSpline
210
0.0
220
0.0
230
1.0
 70
    11
 71
     3
 72
    32
 73
    28
 74
     0
 42
0.0000000001
 43
0.0000000001
 40
0.0
 40
0.0
 40
0.0
 40
0.0
 40
0.125
 40
0.125
 40
0.125
 40
0.125
 40
0.25
 40
0.25
 40
0.25
 40
0.25
 40
0.375
 40
0.375
 40
0.375
 40
0.375
 40
0.5
 40
0.5
 40
0.5
 40
0.5
 40
0.625
 40
0.625
 40
0.625
 40
0.625
 40
0.75
 40
0.75
 40
0.75
 40
0.75
 40
1.0
 40
1.0
 40
1.0
 40
1.0
 10
61.172
 20
9.6057
 30
0.0
 10
61.172
 20
9.6057
 30
0.0
 10
61.172
 20
9.6057
 30
0.0
 10
61.172
 20
9.6057
 30
0.0
 10
61.172
 20
9.6057
 30
0.0
 10
61.172
 20
9.6057
 30
0.0
 10
61.172
 20
9.6057
 30
0.0
 10
61.172
 20
9.6057
 30
0.0
 10
61.172
 20
9.6057
 30
0.0
 10
61.172
 20
9.6057
 30
0.0
 10
62.4448
 20
10.0491
 30
0.0
 10
62.4448
 20
10.0491
 30
0.0
 10
62.4448
 20
10.0491
 30
0.0
 10
62.4448
 20
10.0491
 30
0.0
 10
61.172
 20
10.4925
 30
0.0
 10
61.172
 20
10.4925
 30
0.0
 10
61.172
 20
10.4925
 30
0.0
 10
61.172
 20
10.4925
 30
0.0
 10
61.172
 20
10.4925
 30
0.0
 10
61.172
 20
10.4925
 30
0.0
 10
61.172
 20
10.4925
 30
0.0
 10
61.172
 20
10.4925
 30
0.0
 10
61.172
 20
10.4925
 30
0.0
 10
61.172
 20
10.4925
 30
0.0
 10
61.172
 20
10.4925
 30
0.0
 10
61.172
 20
10.4925
 30
0.0
 10
61.172
 20
9.6057
 30
0.0
 10
61.172
 20
9.6057
 30
0.0
  0
SPLINE
  5
4A
330
1F
100
AcDbEntity
  8
Ilustrace
 62
   250
370
     9
100
AcDbSpline
210
0.0
220
0.0
230
1.0
 70
    11
 71
     3
 72
    32
 73
    28
 74
     0
 42
0.0000000001
 43
0.0000000001
 40
0.0
 40
0.0
 40
0.0
 40
0.0
 40
0.125
 40
0.125
 40
0.125
 40
0.125
 40
0.25
 40
0.25
 40
0.25
 40
0.25
 40
0.375
 40
0.375
 40
0.375
 40
0.375
 40
0.5
 40
0.5
 40
0.5
 40
0.5
 40
0.625
 40
0.625
 40
0.625
 40
0.625
 40
0.75
 40
0.75
 40
0.75
 40
0.75
 40
1.0
 40
1.0
 40
1.0
 40
1.0
 10
72.7483
 20
4.9822
 30
0.0
 10
72.7483
 20
4.9822
 30
0.0
 10
72.7483
 20
4.9822
 30
0.0
 10
72.7483
 20
4.9822
 30
0.0
 10
72.7483
 20
4.9822
 30
0.0
 10
72.7483
 20
4.9822
 30
0.0
 10
72.7483
 20
4.9822
 30
0.0
 10
72.7483
 20
4.9822
 30
0.0
 10
72.7483
 20
4.9822
 30
0.0
 10
72.7483
 20
4.9822
 30
0.0
 10
72.3049
 20
6.255
 30
0.0
 10
72.3049
 20
6.255
 30
0.0
 10
72.3049
 20
6.255
 30
0.0
 10
72.3049
 20
6.255
 30
0.0
 10
71.8615
 20
4.9822
 30
0.0
 10
71.8615
 20
4.9822
 30
0.0
 10
71.8615
 20
4.9822
 30
0.0
 10
71.8615
 20
4.9822
 30
0.0
 10
71.8615
 20
4.9822
 30
0.0
 10
71.8615
 20
4.9822
 30
0.0
 10
71.8615
 20
4.9822
 30
0.0
 10
71.8615
 20
4.9822
 30
0.0
 10
71.8615
 20
4.9822
 30
0.0
 10
71.8615
 20
4.9822
 30
0.0
 10
71.8615
 20
4.9822
 30
0.0
 10
71.8615
 20
4.9822
 30
0.0
 10
72.7483
 20
4.9822
 30
0.0
 10
72.7483
 20
4.9822
 30
0.0
  0
SPLINE
  5
4B
330
1F
100
AcDbEntity
  8
Ilustrace
 62
   250
370
     9
100
AcDbSpline
210
0.0
220
0.0
230
1.0
 70
    11
 71
     3
 72
    32
 73
    28
 74
     0
 42
0.0000000001
 43
0.0000000001
 40
0.0
 40
0.0
 40
0.0
 40
0.0
 40
0.125
 40
0.125
 40
0.125
 40
0.125
 40
0.25
 40
0.25
 40
0.25
 40
0.25
 40
0.375
 40
0.375
 40
0.375
 40
0.375
 40
0.5
 40
0.5
 40
0.5
 40
0.5
 40
0.625
 40
0.625
 40
0.625
 40
0.625
 40
0.75
 40
0.75
 40
0.75
 40
0.75
 40
1.0
 40
1.0
 40
1.0
 40
1.0
 10
68.6948
 20
9.5913
 30
0.0
 10
68.6948
 20
9.5913
 30
0.0
 10
68.6948
 20
9.5913
 30
0.0
 10
68.6948
 20
9.5913
 30
0.0
 10
68.6948
 20
9.5913
 30
0.0
 10
68.6948
 20
9.5913
 30
0.0
 10
68.6948
 20
9.5913
 30
0.0
 10
68.6948
 20
9.5913
 30
0.0
 10
68.6948
 20
9.5913
 30
0.0
 10
68.6948
 20
9.5913
 30
0.0
 10
67.422
 20
10.0347
 30
0.0
 10
67.422
 20
10.0347
 30
0.0
 10
67.422
 20
10.0347
 30
0.0
 10
67.422
 20
10.0347
 30
0.0
 10
68.6948
 20
10.4781
 30
0.0
 10
68.6948
 20
10.4781
 30
0.0
 10
68.6948
 20
10.4781
 30
0.0
 10
68.6948
 20
10.4781
 30
0.0
 10
68.6948
 20
10.4781
 30
0.0
 10
68.6948
 20
10.4781
 30
0.0
 10
68.6948
 20
10.4781
 30
0.0
 10
68.6948
 20
10.4781
 30
0.0
 10
68.6948
 20
10.4781
 30
0.0
 10
68.6948
 20
10.4781
 30
0.0
 10
68.6948
 20
10.4781
 30
0.0
 10
68.6948
 20
10.4781
 30
0.0
 10
68.6948
 20
9.5913
 30
0.0
 10
68.6948
 20
9.5913
 30
0.0
  0
SPLINE
  5
4C
330
1F
100
AcDbEntity
  8
Ilustrace
 62
   250
370
     9
100
AcDbSpline
210
0.0
220
0.0
230
1.0
 70
    11
 71
     3
 72
    32
 73
    28
 74
     0
 42
0.0000000001
 43
0.0000000001
 40
0.0
 40
0.0
 40
0.0
 40
0.0
 40
0.125
 40
0.125
 40
0.125
 40
0.125
 40
0.25
 40
0.25
 40
0.25
 40
0.25
 40
0.375
 40
0.375
 40
0.375
 40
0.375
 40
0.5
 40
0.5
 40
0.5
 40
0.5
 40
0.625
 40
0.625
 40
0.625
 40
0.625
 40
0.75
 40
0.75
 40
0.75
 40
0.75
 40
1.0
 40
1.0
 40
1.0
 40
1.0
 10
72.7462
 20
-16.4848
 30
0.0
 10
72.7462
 20
-16.4848
 30
0.0
 10
72.7462
 20
-16.4848
 30
0.0
 10
72.7462
 20
-16.4848
 30
0.0
 10
72.7462
 20
-16.4848
 30
0.0
 10
72.7462
 20
-16.4848
 30
0.0
 10
72.7462
 20
-16.4848
 30
0.0
 10
72.7462
 20
-16.4848
 30
0.0
 10
72.7462
 20
-16.4848
 30
0.0
 10
72.7462
 20
-16.4848
 30
0.0
 10
72.3028
 20
-17.7576
 30
0.0
 10
72.3028
 20
-17.7576
 30
0.0
 10
72.3028
 20
-17.7576
 30
0.0
 10
72.3028
 20
-17.7576
 30
0.0
 10
71.8594
 20
-16.4848
 30
0.0
 10
71.8594
 20
-16.4848
 30
0.0
 10
71.8594
 20
-16.4848
 30
0.0
 10
71.8594
 20
-16.4848
 30
0.0
 10
71.8594
 20
-16.4848
 30
0.0
 10
71.8594
 20
-16.4848
 30
0.0
 10
71.8594
 20
-16.4848
 30
0.0
 10
71.8594
 20
-16.4848
 30
0.0
 10
71.8594
 20
-16.4848
 30
0.0
 10
71.8594
 20
-16.4848
 30
0.0
 10
71.8594
 20
-16.4848
 30
0.0
 10
71.8594
 20
-16.4848
 30
0.0
 10
72.7462
 20
-16.4848
 30
0.0
 10
72.7462
 20
-16.4848
 30
0.0
  0
SPLINE
  5
4D
330
1F
100
AcDbEntity
  8
Ilustrace
 62
   250
370
    15
100
AcDbSpline
210
0.0
220
0.0
230
1.0
 70
    24
 71
     3
 72
     8
 73
     4
 74
     0
 42
0.0000000001
 43
0.0000000001
 40
0.0
 40
0.0
 40
0.0
 40
0.0
 40
1.0
 40
1.0
 40
1.0
 40
1.0
 10
67.4209
 20
6.2496
 30
0.0
 10
67.4209
 20
6.2496
 30
0.0
 10
72.9275
 20
6.2496
 30
0.0
 10
72.9275
 20
6.2496
 30
0.0
  0
SPLINE
  5
4E
330
1F
100
AcDbEntity
  8
Ilustrace
 62
   250
100
AcDbSpline
210
0.0
220
0.0
230
1.0
 70
    11
 71
     3
 72
    36
 73
    32
 74
     0
 42
0.0000000001
 43
0.0000000001
 40
0.0
 40
0.0
 40
0.0
 40
0.0
 40
0.1111111111111111
 40
0.1111111111111111
 40
0.1111111111111111
 40
0.1111111111111111
 40
0.2222222222222222
 40
0.2222222222222222
 40
0.2222222222222222
 40
0.2222222222222222
 40
0.3333333333333333
 40
0.3333333333333333
 40
0.3333333333333333
 40
0.3333333333333333
 40
0.4444444444444444
 40
0.4444444444444444
 40
0.4444444444444444
 40
0.4444444444444444
 40
0.5555555555555556
 40
0.5555555555555556
 40
0.5555555555555556
 40
0.5555555555555556
 40
0.6666666666666666
 40
0.6666666666666666
 40
0.6666666666666666
 40
0.6666666666666666
 40
0.7777777777777778
 40
0.7777777777777778
 40
0.7777777777777778
 40
0.7777777777777778
 40
1.0
 40
1.0
 40
1.0
 40
1.0
 10
71.7777
 20
-7.4575
 30
0.0
 10
71.7777
 20
-7.4575
 30
0.0
 10
71.7777
 20
-7.1936
 30
0.0
 10
71.7777
 20
-7.1936
 30
0.0
 10
71.7777
 20
-7.1936
 30
0.0
 10
71.7777
 20
-7.1936
 30
0.0
 10
69.2555
 20
-7.1936
 30
0.0
 10
69.2555
 20
-7.1936
 30
0.0
 10
69.2555
 20
-7.1936
 30
0.0
 10
69.2555
 20
-7.1936
 30
0.0
 10
69.2555
 20
-7.4264
 30
0.0
 10
69.2555
 20
-7.4264
 30
0.0
 10
69.2555
 20
-7.4264
 30
0.0
 10
69.2555
 20
-7.4264
 30
0.0
 10
69.5504
 20
-7.8673
 30
0.0
 10
69.5504
 20
-7.8673
 30
0.0
 10
69.5504
 20
-7.8673
 30
0.0
 10
69.5504
 20
-7.8673
 30
0.0
 10
69.8103
 20
-7.8145
 30
0.0
 10
69.8103
 20
-7.8145
 30
0.0
 10
69.8103
 20
-7.8145
 30
0.0
 10
69.8103
 20
-7.8145
 30
0.0
 10
69.5737
 20
-7.4637
 30
0.0
 10
69.5737
 20
-7.4637
 30
0.0
 10
69.5737
 20
-7.4637
 30
0.0
 10
69.5737
 20
-7.4637
 30
0.0
 10
69.5737
 20
-7.4575
 30
0.0
 10
69.5737
 20
-7.4575
 30
0.0
 10
69.5737
 20
-7.4575
 30
0.0
 10
69.5737
 20
-7.4575
 30
0.0
 10
71.7777
 20
-7.4575
 30
0.0
 10
71.7777
 20
-7.4575
 30
0.0
  0
SPLINE
  5
4F
330
1F
100
AcDbEntity
  8
Ilustrace
 62
   250
100
AcDbSpline
210
0.0
220
0.0
230
1.0
 70
    11
 71
     3
 72
    56
 73
    52
 74
     0
 42
0.0000000001
 43
0.0000000001
 40
0.0
 40
0.0
 40
0.0
 40
0.0
 40
0.0714285714285714
 40
0.0714285714285714
 40
0.0714285714285714
 40
0.0714285714285714
 40
0.1428571428571428
 40
0.1428571428571428
 40
0.1428571428571428
 40
0.1428571428571428
 40
0.2142857142857143
 40
0.2142857142857143
 40
0.2142857142857143
 40
0.2142857142857143
 40
0.2857142857142857
 40
0.2857142857142857
 40
0.2857142857142857
 40
0.2857142857142857
 40
0.3571428571428572
 40
0.3571428571428572
 40
0.3571428571428572
 40
0.3571428571428572
 40
0.4285714285714285
 40
0.4285714285714285
 40
0.4285714285714285
 40
0.4285714285714285
 40
0.5
 40
0.5
 40
0.5
 40
0.5
 40
0.5714285714285714
 40
0.5714285714285714
 40
0.5714285714285714
 40
0.5714285714285714
 40
0.6428571428571429
 40
0.6428571428571429
 40
0.6428571428571429
 40
0.6428571428571429
 40
0.7142857142857143
 40
0.7142857142857143
 40
0.7142857142857143
 40
0.7142857142857143
 40
0.7857142857142857
 40
0.7857142857142857
 40
0.7857142857142857
 40
0.7857142857142857
 40
0.8571428571428571
 40
0.8571428571428571
 40
0.8571428571428571
 40
0.8571428571428571
 40
1.0
 40
1.0
 40
1.0
 40
1.0
 10
69.2128
 20
-5.7811
 30
0.0
 10
69.2128
 20
-5.8841
 30
0.0
 10
69.2412
 20
-5.9782
 30
0.0
 10
69.2981
 20
-6.0642
 30
0.0
 10
69.2981
 20
-6.0642
 30
0.0
 10
69.3551
 20
-6.1501
 30
0.0
 10
69.4385
 20
-6.2241
 30
0.0
 10
69.5497
 20
-6.2872
 30
0.0
 10
69.5497
 20
-6.2872
 30
0.0
 10
69.6609
 20
-6.3502
 30
0.0
 10
69.7981
 20
-6.3989
 30
0.0
 10
69.9611
 20
-6.4335
 30
0.0
 10
69.9611
 20
-6.4335
 30
0.0
 10
70.124
 20
-6.4677
 30
0.0
 10
70.3116
 20
-6.4853
 30
0.0
 10
70.5244
 20
-6.4858
 30
0.0
 10
70.5244
 20
-6.4858
 30
0.0
 10
70.8031
 20
-6.4827
 30
0.0
 10
71.0385
 20
-6.4532
 30
0.0
 10
71.2311
 20
-6.3968
 30
0.0
 10
71.2311
 20
-6.3968
 30
0.0
 10
71.424
 20
-6.3404
 30
0.0
 10
71.57
 20
-6.2623
 30
0.0
 10
71.6696
 20
-6.163
 30
0.0
 10
71.6696
 20
-6.163
 30
0.0
 10
71.7693
 20
-6.0636
 30
0.0
 10
71.8198
 20
-5.9477
 30
0.0
 10
71.8204
 20
-5.8152
 30
0.0
 10
71.8204
 20
-5.8152
 30
0.0
 10
71.8198
 20
-5.6668
 30
0.0
 10
71.7679
 20
-5.5405
 30
0.0
 10
71.6659
 20
-5.436
 30
0.0
 10
71.6659
 20
-5.436
 30
0.0
 10
71.5636
 20
-5.3315
 30
0.0
 10
71.4136
 20
-5.2518
 30
0.0
 10
71.2157
 20
-5.197
 30
0.0
 10
71.2157
 20
-5.197
 30
0.0
 10
71.0178
 20
-5.1416
 30
0.0
 10
70.7759
 20
-5.1142
 30
0.0
 10
70.4894
 20
-5.1137
 30
0.0
 10
70.4894
 20
-5.1137
 30
0.0
 10
70.221
 20
-5.1142
 30
0.0
 10
69.9914
 20
-5.1407
 30
0.0
 10
69.8013
 20
-5.1929
 30
0.0
 10
69.8013
 20
-5.1929
 30
0.0
 10
69.6111
 20
-5.2452
 30
0.0
 10
69.4656
 20
-5.3211
 30
0.0
 10
69.3654
 20
-5.4205
 30
0.0
 10
69.3654
 20
-5.4205
 30
0.0
 10
69.2645
 20
-5.5199
 30
0.0
 10
69.2134
 20
-5.6399
 30
0.0
 10
69.2128
 20
-5.7811
 30
0.0
  0
SPLINE
  5
50
330
1F
100
AcDbEntity
  8
Ilustrace
 62
   250
100
AcDbSpline
210
0.0
220
0.0
230
1.0
 70
    11
 71
     3
 72
    56
 73
    52
 74
     0
 42
0.0000000001
 43
0.0000000001
 40
0.0
 40
0.0
 40
0.0
 40
0.0
 40
0.0714285714285714
 40
0.0714285714285714
 40
0.0714285714285714
 40
0.0714285714285714
 40
0.1428571428571428
 40
0.1428571428571428
 40
0.1428571428571428
 40
0.1428571428571428
 40
0.2142857142857143
 40
0.2142857142857143
 40
0.2142857142857143
 40
0.2142857142857143
 40
0.2857142857142857
 40
0.2857142857142857
 40
0.2857142857142857
 40
0.2857142857142857
 40
0.3571428571428572
 40
0.3571428571428572
 40
0.3571428571428572
 40
0.3571428571428572
 40
0.4285714285714285
 40
0.4285714285714285
 40
0.4285714285714285
 40
0.4285714285714285
 40
0.5
 40
0.5
 40
0.5
 40
0.5
 40
0.5714285714285714
 40
0.5714285714285714
 40
0.5714285714285714
 40
0.5714285714285714
 40
0.6428571428571429
 40
0.6428571428571429
 40
0.6428571428571429
 40
0.6428571428571429
 40
0.7142857142857143
 40
0.7142857142857143
 40
0.7142857142857143
 40
0.7142857142857143
 40
0.7857142857142857
 40
0.7857142857142857
 40
0.7857142857142857
 40
0.7857142857142857
 40
0.8571428571428571
 40
0.8571428571428571
 40
0.8571428571428571
 40
0.8571428571428571
 40
1.0
 40
1.0
 40
1.0
 40
1.0
 10
69.4767
 20
-5.7997
 30
0.0
 10
69.4773
 20
-5.7283
 30
0.0
 10
69.5012
 20
-5.6668
 30
0.0
 10
69.5497
 20
-5.6151
 30
0.0
 10
69.5497
 20
-5.6151
 30
0.0
 10
69.5982
 20
-5.5633
 30
0.0
 10
69.6675
 20
-5.5209
 30
0.0
 10
69.7579
 20
-5.4877
 30
0.0
 10
69.7579
 20
-5.4877
 30
0.0
 10
69.8479
 20
-5.4546
 30
0.0
 10
69.9566
 20
-5.4298
 30
0.0
 10
70.0819
 20
-5.4137
 30
0.0
 10
70.0819
 20
-5.4137
 30
0.0
 10
70.2081
 20
-5.3978
 30
0.0
 10
70.349
 20
-5.39
 30
0.0
 10
70.5049
 20
-5.39
 30
0.0
 10
70.5049
 20
-5.39
 30
0.0
 10
70.721
 20
-5.39
 30
0.0
 10
70.9073
 20
-5.405
 30
0.0
 10
71.0637
 20
-5.435
 30
0.0
 10
71.0637
 20
-5.435
 30
0.0
 10
71.2208
 20
-5.4645
 30
0.0
 10
71.3418
 20
-5.51
 30
0.0
 10
71.4272
 20
-5.5706
 30
0.0
 10
71.4272
 20
-5.5706
 30
0.0
 10
71.5125
 20
-5.6312
 30
0.0
 10
71.5552
 20
-5.7077
 30
0.0
 10
71.5565
 20
-5.7997
 30
0.0
 10
71.5565
 20
-5.7997
 30
0.0
 10
71.5559
 20
-5.883
 30
0.0
 10
71.5157
 20
-5.9549
 30
0.0
 10
71.4356
 20
-6.0166
 30
0.0
 10
71.4356
 20
-6.0166
 30
0.0
 10
71.3554
 20
-6.0776
 30
0.0
 10
71.239
 20
-6.1247
 30
0.0
 10
71.0864
 20
-6.1583
 30
0.0
 10
71.0864
 20
-6.1583
 30
0.0
 10
70.933
 20
-6.1919
 30
0.0
 10
70.7475
 20
-6.209
 30
0.0
 10
70.5282
 20
-6.2095
 30
0.0
 10
70.5282
 20
-6.2095
 30
0.0
 10
70.2986
 20
-6.209
 30
0.0
 10
70.1066
 20
-6.191
 30
0.0
 10
69.95
 20
-6.1558
 30
0.0
 10
69.95
 20
-6.1558
 30
0.0
 10
69.7942
 20
-6.1206
 30
0.0
 10
69.6765
 20
-6.0725
 30
0.0
 10
69.5963
 20
-6.0108
 30
0.0
 10
69.5963
 20
-6.0108
 30
0.0
 10
69.5167
 20
-5.9493
 30
0.0
 10
69.4767
 20
-5.879
 30
0.0
 10
69.4767
 20
-5.7997
 30
0.0
  0
SPLINE
  5
51
330
1F
100
AcDbEntity
  8
Ilustrace
 62
   250
100
AcDbSpline
210
0.0
220
0.0
230
1.0
 70
    11
 71
     3
 72
    56
 73
    52
 74
     0
 42
0.0000000001
 43
0.0000000001
 40
0.0
 40
0.0
 40
0.0
 40
0.0
 40
0.0714285714285714
 40
0.0714285714285714
 40
0.0714285714285714
 40
0.0714285714285714
 40
0.1428571428571428
 40
0.1428571428571428
 40
0.1428571428571428
 40
0.1428571428571428
 40
0.2142857142857143
 40
0.2142857142857143
 40
0.2142857142857143
 40
0.2142857142857143
 40
0.2857142857142857
 40
0.2857142857142857
 40
0.2857142857142857
 40
0.2857142857142857
 40
0.3571428571428572
 40
0.3571428571428572
 40
0.3571428571428572
 40
0.3571428571428572
 40
0.4285714285714285
 40
0.4285714285714285
 40
0.4285714285714285
 40
0.4285714285714285
 40
0.5
 40
0.5
 40
0.5
 40
0.5
 40
0.5714285714285714
 40
0.5714285714285714
 40
0.5714285714285714
 40
0.5714285714285714
 40
0.6428571428571429
 40
0.6428571428571429
 40
0.6428571428571429
 40
0.6428571428571429
 40
0.7142857142857143
 40
0.7142857142857143
 40
0.7142857142857143
 40
0.7142857142857143
 40
0.7857142857142857
 40
0.7857142857142857
 40
0.7857142857142857
 40
0.7857142857142857
 40
0.8571428571428571
 40
0.8571428571428571
 40
0.8571428571428571
 40
0.8571428571428571
 40
1.0
 40
1.0
 40
1.0
 40
1.0
 10
69.2128
 20
-4.1886
 30
0.0
 10
69.2128
 20
-4.2916
 30
0.0
 10
69.2412
 20
-4.3857
 30
0.0
 10
69.2981
 20
-4.4717
 30
0.0
 10
69.2981
 20
-4.4717
 30
0.0
 10
69.3551
 20
-4.5575
 30
0.0
 10
69.4385
 20
-4.6315
 30
0.0
 10
69.5497
 20
-4.6947
 30
0.0
 10
69.5497
 20
-4.6947
 30
0.0
 10
69.6609
 20
-4.7577
 30
0.0
 10
69.7981
 20
-4.8064
 30
0.0
 10
69.9611
 20
-4.841
 30
0.0
 10
69.9611
 20
-4.841
 30
0.0
 10
70.124
 20
-4.8751
 30
0.0
 10
70.3116
 20
-4.8927
 30
0.0
 10
70.5244
 20
-4.8933
 30
0.0
 10
70.5244
 20
-4.8933
 30
0.0
 10
70.8031
 20
-4.8902
 30
0.0
 10
71.0385
 20
-4.8607
 30
0.0
 10
71.2311
 20
-4.8043
 30
0.0
 10
71.2311
 20
-4.8043
 30
0.0
 10
71.424
 20
-4.7479
 30
0.0
 10
71.57
 20
-4.6697
 30
0.0
 10
71.6696
 20
-4.5705
 30
0.0
 10
71.6696
 20
-4.5705
 30
0.0
 10
71.7693
 20
-4.4711
 30
0.0
 10
71.8198
 20
-4.3552
 30
0.0
 10
71.8204
 20
-4.2227
 30
0.0
 10
71.8204
 20
-4.2227
 30
0.0
 10
71.8198
 20
-4.0743
 30
0.0
 10
71.7679
 20
-3.948
 30
0.0
 10
71.6659
 20
-3.8435
 30
0.0
 10
71.6659
 20
-3.8435
 30
0.0
 10
71.5636
 20
-3.739
 30
0.0
 10
71.4136
 20
-3.6593
 30
0.0
 10
71.2157
 20
-3.6045
 30
0.0
 10
71.2157
 20
-3.6045
 30
0.0
 10
71.0178
 20
-3.5491
 30
0.0
 10
70.7759
 20
-3.5217
 30
0.0
 10
70.4894
 20
-3.5212
 30
0.0
 10
70.4894
 20
-3.5212
 30
0.0
 10
70.221
 20
-3.5217
 30
0.0
 10
69.9914
 20
-3.5481
 30
0.0
 10
69.8013
 20
-3.6003
 30
0.0
 10
69.8013
 20
-3.6003
 30
0.0
 10
69.6111
 20
-3.6526
 30
0.0
 10
69.4656
 20
-3.7286
 30
0.0
 10
69.3654
 20
-3.828
 30
0.0
 10
69.3654
 20
-3.828
 30
0.0
 10
69.2645
 20
-3.9274
 30
0.0
 10
69.2134
 20
-4.0474
 30
0.0
 10
69.2128
 20
-4.1886
 30
0.0
  0
SPLINE
  5
52
330
1F
100
AcDbEntity
  8
Ilustrace
 62
   250
100
AcDbSpline
210
0.0
220
0.0
230
1.0
 70
    11
 71
     3
 72
    56
 73
    52
 74
     0
 42
0.0000000001
 43
0.0000000001
 40
0.0
 40
0.0
 40
0.0
 40
0.0
 40
0.0714285714285714
 40
0.0714285714285714
 40
0.0714285714285714
 40
0.0714285714285714
 40
0.1428571428571428
 40
0.1428571428571428
 40
0.1428571428571428
 40
0.1428571428571428
 40
0.2142857142857143
 40
0.2142857142857143
 40
0.2142857142857143
 40
0.2142857142857143
 40
0.2857142857142857
 40
0.2857142857142857
 40
0.2857142857142857
 40
0.2857142857142857
 40
0.3571428571428572
 40
0.3571428571428572
 40
0.3571428571428572
 40
0.3571428571428572
 40
0.4285714285714285
 40
0.4285714285714285
 40
0.4285714285714285
 40
0.4285714285714285
 40
0.5
 40
0.5
 40
0.5
 40
0.5
 40
0.5714285714285714
 40
0.5714285714285714
 40
0.5714285714285714
 40
0.5714285714285714
 40
0.6428571428571429
 40
0.6428571428571429
 40
0.6428571428571429
 40
0.6428571428571429
 40
0.7142857142857143
 40
0.7142857142857143
 40
0.7142857142857143
 40
0.7142857142857143
 40
0.7857142857142857
 40
0.7857142857142857
 40
0.7857142857142857
 40
0.7857142857142857
 40
0.8571428571428571
 40
0.8571428571428571
 40
0.8571428571428571
 40
0.8571428571428571
 40
1.0
 40
1.0
 40
1.0
 40
1.0
 10
69.4767
 20
-4.2072
 30
0.0
 10
69.4773
 20
-4.1358
 30
0.0
 10
69.5012
 20
-4.0743
 30
0.0
 10
69.5497
 20
-4.0225
 30
0.0
 10
69.5497
 20
-4.0225
 30
0.0
 10
69.5982
 20
-3.9708
 30
0.0
 10
69.6675
 20
-3.9284
 30
0.0
 10
69.7579
 20
-3.8952
 30
0.0
 10
69.7579
 20
-3.8952
 30
0.0
 10
69.8479
 20
-3.8621
 30
0.0
 10
69.9566
 20
-3.8373
 30
0.0
 10
70.0819
 20
-3.8212
 30
0.0
 10
70.0819
 20
-3.8212
 30
0.0
 10
70.2081
 20
-3.8053
 30
0.0
 10
70.349
 20
-3.7975
 30
0.0
 10
70.5049
 20
-3.7975
 30
0.0
 10
70.5049
 20
-3.7975
 30
0.0
 10
70.721
 20
-3.7975
 30
0.0
 10
70.9073
 20
-3.8125
 30
0.0
 10
71.0637
 20
-3.8424
 30
0.0
 10
71.0637
 20
-3.8424
 30
0.0
 10
71.2208
 20
-3.872
 30
0.0
 10
71.3418
 20
-3.9175
 30
0.0
 10
71.4272
 20
-3.978
 30
0.0
 10
71.4272
 20
-3.978
 30
0.0
 10
71.5125
 20
-4.0386
 30
0.0
 10
71.5552
 20
-4.1152
 30
0.0
 10
71.5565
 20
-4.2072
 30
0.0
 10
71.5565
 20
-4.2072
 30
0.0
 10
71.5559
 20
-4.2905
 30
0.0
 10
71.5157
 20
-4.3624
 30
0.0
 10
71.4356
 20
-4.424
 30
0.0
 10
71.4356
 20
-4.424
 30
0.0
 10
71.3554
 20
-4.4851
 30
0.0
 10
71.239
 20
-4.5321
 30
0.0
 10
71.0864
 20
-4.5658
 30
0.0
 10
71.0864
 20
-4.5658
 30
0.0
 10
70.933
 20
-4.5994
 30
0.0
 10
70.7475
 20
-4.6165
 30
0.0
 10
70.5282
 20
-4.617
 30
0.0
 10
70.5282
 20
-4.617
 30
0.0
 10
70.2986
 20
-4.6165
 30
0.0
 10
70.1066
 20
-4.5984
 30
0.0
 10
69.95
 20
-4.5633
 30
0.0
 10
69.95
 20
-4.5633
 30
0.0
 10
69.7942
 20
-4.5281
 30
0.0
 10
69.6765
 20
-4.4799
 30
0.0
 10
69.5963
 20
-4.4183
 30
0.0
 10
69.5963
 20
-4.4183
 30
0.0
 10
69.5167
 20
-4.3568
 30
0.0
 10
69.4767
 20
-4.2864
 30
0.0
 10
69.4767
 20
-4.2072
 30
0.0
  0
SPLINE
  5
53
330
1F
100
AcDbEntity
  8
Ilustrace
 62
   250
370
    15
100
AcDbSpline
210
0.0
220
0.0
230
1.0
 70
    24
 71
     3
 72
     8
 73
     4
 74
     0
 42
0.0000000001
 43
0.0000000001
 40
0.0
 40
0.0
 40
0.0
 40
0.0
 40
1.0
 40
1.0
 40
1.0
 40
1.0
 10
55.3863
 20
6.684
 30
0.0
 10
55.3863
 20
6.684
 30
0.0
 10
55.3863
 20
14.8491
 30
0.0
 10
55.3863
 20
14.8491
 30
0.0
  0
SPLINE
  5
54
330
1F
100
AcDbEntity
  8
Ilustrace
 62
   250
370
    15
100
AcDbSpline
210
0.0
220
0.0
230
1.0
 70
    24
 71
     3
 72
     8
 73
     4
 74
     0
 42
0.0000000001
 43
0.0000000001
 40
0.0
 40
0.0
 40
0.0
 40
0.0
 40
1.0
 40
1.0
 40
1.0
 40
1.0
 10
-72.9273
 20
6.6884
 30
0.0
 10
-72.9273
 20
6.6884
 30
0.0
 10
-72.9273
 20
14.8492
 30
0.0
 10
-72.9273
 20
14.8492
 30
0.0
  0
SPLINE
  5
55
330
1F
100
AcDbEntity
  8
Ilustrace
 62
   250
100
AcDbSpline
210
0.0
220
0.0
230
1.0
 70
    11
 71
     3
 72
   124
 73
   120
 74
     0
 42
0.0000000001
 43
0.0000000001
 40
0.0
 40
0.0
 40
0.0
 40
0.0
 40
0.032258064516129
 40
0.032258064516129
 40
0.032258064516129
 40
0.032258064516129
 40
0.0645161290322581
 40
0.0645161290322581
 40
0.0645161290322581
 40
0.0645161290322581
 40
0.0967741935483871
 40
0.0967741935483871
 40
0.0967741935483871
 40
0.0967741935483871
 40
0.1290322580645161
 40
0.1290322580645161
 40
0.1290322580645161
 40
0.1290322580645161
 40
0.1612903225806452
 40
0.1612903225806452
 40
0.1612903225806452
 40
0.1612903225806452
 40
0.1935483870967742
 40
0.1935483870967742
 40
0.1935483870967742
 40
0.1935483870967742
 40
0.2258064516129032
 40
0.2258064516129032
 40
0.2258064516129032
 40
0.2258064516129032
 40
0.2580645161290323
 40
0.2580645161290323
 40
0.2580645161290323
 40
0.2580645161290323
 40
0.2903225806451613
 40
0.2903225806451613
 40
0.2903225806451613
 40
0.2903225806451613
 40
0.3225806451612903
 40
0.3225806451612903
 40
0.3225806451612903
 40
0.3225806451612903
 40
0.3548387096774194
 40
0.3548387096774194
 40
0.3548387096774194
 40
0.3548387096774194
 40
0.3870967741935484
 40
0.3870967741935484
 40
0.3870967741935484
 40
0.3870967741935484
 40
0.4193548387096774
 40
0.4193548387096774
 40
0.4193548387096774
 40
0.4193548387096774
 40
0.4516129032258064
 40
0.4516129032258064
 40
0.4516129032258064
 40
0.4516129032258064
 40
0.4838709677419355
 40
0.4838709677419355
 40
0.4838709677419355
 40
0.4838709677419355
 40
0.5161290322580645
 40
0.5161290322580645
 40
0.5161290322580645
 40
0.5161290322580645
 40
0.5483870967741935
 40
0.5483870967741935
 40
0.5483870967741935
 40
0.5483870967741935
 40
0.5806451612903226
 40
0.5806451612903226
 40
0.5806451612903226
 40
0.5806451612903226
 40
0.6129032258064516
 40
0.6129032258064516
 40
0.6129032258064516
 40
0.6129032258064516
 40
0.6451612903225806
 40
0.6451612903225806
 40
0.6451612903225806
 40
0.6451612903225806
 40
0.6774193548387096
 40
0.6774193548387096
 40
0.6774193548387096
 40
0.6774193548387096
 40
0.7096774193548387
 40
0.7096774193548387
 40
0.7096774193548387
 40
0.7096774193548387
 40
0.7419354838709677
 40
0.7419354838709677
 40
0.7419354838709677
 40
0.7419354838709677
 40
0.7741935483870968
 40
0.7741935483870968
 40
0.7741935483870968
 40
0.7741935483870968
 40
0.8064516129032258
 40
0.8064516129032258
 40
0.8064516129032258
 40
0.8064516129032258
 40
0.8387096774193549
 40
0.8387096774193549
 40
0.8387096774193549
 40
0.8387096774193549
 40
0.8709677419354839
 40
0.8709677419354839
 40
0.8709677419354839
 40
0.8709677419354839
 40
0.9032258064516129
 40
0.9032258064516129
 40
0.9032258064516129
 40
0.9032258064516129
 40
0.9354838709677419
 40
0.9354838709677419
 40
0.9354838709677419
 40
0.9354838709677419
 40
1.0
 40
1.0
 40
1.0
 40
1.0
 10
-18.0488
 20
15.1894
 30
0.0
 10
-18.0162
 20
15.1874
 30
0.0
 10
-17.9785
 20
15.1874
 30
0.0
 10
-17.936
 20
15.1906
 30
0.0
 10
-17.936
 20
15.1906
 30
0.0
 10
-17.8936
 20
15.1931
 30
0.0
 10
-17.8471
 20
15.199
 30
0.0
 10
-17.7973
 20
15.2087
 30
0.0
 10
-17.7973
 20
15.2087
 30
0.0
 10
-17.7244
 20
15.2191
 30
0.0
 10
-17.653
 20
15.239
 30
0.0
 10
-17.5832
 20
15.2676
 30
0.0
 10
-17.5832
 20
15.2676
 30
0.0
 10
-17.5134
 20
15.2966
 30
0.0
 10
-17.4466
 20
15.3348
 30
0.0
 10
-17.3835
 20
15.3814
 30
0.0
 10
-17.3835
 20
15.3814
 30
0.0
 10
-17.3204
 20
15.4279
 30
0.0
 10
-17.2629
 20
15.4829
 30
0.0
 10
-17.2106
 20
15.5463
 30
0.0
 10
-17.2106
 20
15.5463
 30
0.0
 10
-17.1439
 20
15.6264
 30
0.0
 10
-17.0844
 20
15.7229
 30
0.0
 10
-17.0321
 20
15.8366
 30
0.0
 10
-17.0321
 20
15.8366
 30
0.0
 10
-16.9799
 20
15.9498
 30
0.0
 10
-16.939
 20
16.0805
 30
0.0
 10
-16.909
 20
16.2285
 30
0.0
 10
-16.909
 20
16.2285
 30
0.0
 10
-16.8791
 20
16.3766
 30
0.0
 10
-16.8636
 20
16.5421
 30
0.0
 10
-16.863
 20
16.7258
 30
0.0
 10
-16.863
 20
16.7258
 30
0.0
 10
-16.863
 20
16.8895
 30
0.0
 10
-16.8785
 20
17.0362
 30
0.0
 10
-16.909
 20
17.1675
 30
0.0
 10
-16.909
 20
17.1675
 30
0.0
 10
-16.9396
 20
17.2988
 30
0.0
 10
-16.9841
 20
17.4107
 30
0.0
 10
-17.042
 20
17.504
 30
0.0
 10
-17.042
 20
17.504
 30
0.0
 10
-17.1
 20
17.597
 30
0.0
 10
-17.1697
 20
17.6681
 30
0.0
 10
-17.2521
 20
17.7179
 30
0.0
 10
-17.2521
 20
17.7179
 30
0.0
 10
-17.3343
 20
17.7678
 30
0.0
 10
-17.427
 20
17.7923
 30
0.0
 10
-17.5304
 20
17.7929
 30
0.0
 10
-17.5304
 20
17.7929
 30
0.0
 10
-17.6339
 20
17.7923
 30
0.0
 10
-17.728
 20
17.7678
 30
0.0
 10
-17.8124
 20
17.7199
 30
0.0
 10
-17.8124
 20
17.7199
 30
0.0
 10
-17.8967
 20
17.6727
 30
0.0
 10
-17.9692
 20
17.6067
 30
0.0
 10
-18.0297
 20
17.5239
 30
0.0
 10
-18.0297
 20
17.5239
 30
0.0
 10
-18.0907
 20
17.4405
 30
0.0
 10
-18.1373
 20
17.3454
 30
0.0
 10
-18.1699
 20
17.238
 30
0.0
 10
-18.1699
 20
17.238
 30
0.0
 10
-18.2025
 20
17.1307
 30
0.0
 10
-18.219
 20
17.0169
 30
0.0
 10
-18.2195
 20
16.8965
 30
0.0
 10
-18.2195
 20
16.8965
 30
0.0
 10
-18.219
 20
16.7886
 30
0.0
 10
-18.205
 20
16.6878
 30
0.0
 10
-18.1776
 20
16.5945
 30
0.0
 10
-18.1776
 20
16.5945
 30
0.0
 10
-18.1497
 20
16.5009
 30
0.0
 10
-18.1098
 20
16.4193
 30
0.0
 10
-18.0581
 20
16.3488
 30
0.0
 10
-18.0581
 20
16.3488
 30
0.0
 10
-18.0063
 20
16.279
 30
0.0
 10
-17.9438
 20
16.224
 30
0.0
 10
-17.8713
 20
16.1845
 30
0.0
 10
-17.8713
 20
16.1845
 30
0.0
 10
-17.7984
 20
16.1451
 30
0.0
 10
-17.7171
 20
16.1252
 30
0.0
 10
-17.6266
 20
16.1245
 30
0.0
 10
-17.6266
 20
16.1245
 30
0.0
 10
-17.5241
 20
16.1252
 30
0.0
 10
-17.4326
 20
16.1483
 30
0.0
 10
-17.3524
 20
16.1942
 30
0.0
 10
-17.3524
 20
16.1942
 30
0.0
 10
-17.2728
 20
16.2401
 30
0.0
 10
-17.2045
 20
16.3061
 30
0.0
 10
-17.1486
 20
16.3922
 30
0.0
 10
-17.1486
 20
16.3922
 30
0.0
 10
-17.1486
 20
16.3922
 30
0.0
 10
-17.1393
 20
16.3922
 30
0.0
 10
-17.1393
 20
16.3922
 30
0.0
 10
-17.1393
 20
16.3922
 30
0.0
 10
-17.1584
 20
16.2448
 30
0.0
 10
-17.191
 20
16.1153
 30
0.0
 10
-17.2366
 20
16.0048
 30
0.0
 10
-17.2366
 20
16.0048
 30
0.0
 10
-17.2825
 20
15.8936
 30
0.0
 10
-17.339
 20
15.8004
 30
0.0
 10
-17.4062
 20
15.7247
 30
0.0
 10
-17.4062
 20
15.7247
 30
0.0
 10
-17.4641
 20
15.6549
 30
0.0
 10
-17.5289
 20
15.6006
 30
0.0
 10
-17.6007
 20
15.5604
 30
0.0
 10
-17.6007
 20
15.5604
 30
0.0
 10
-17.6726
 20
15.5204
 30
0.0
 10
-17.7487
 20
15.4939
 30
0.0
 10
-17.8284
 20
15.4803
 30
0.0
 10
-17.8284
 20
15.4803
 30
0.0
 10
-17.8745
 20
15.4745
 30
0.0
 10
-17.9158
 20
15.47
 30
0.0
 10
-17.9515
 20
15.4673
 30
0.0
 10
-17.9515
 20
15.4673
 30
0.0
 10
-17.9873
 20
15.4648
 30
0.0
 10
-18.0198
 20
15.4648
 30
0.0
 10
-18.0488
 20
15.4686
 30
0.0
 10
-18.0488
 20
15.4686
 30
0.0
 10
-18.0488
 20
15.4686
 30
0.0
 10
-18.0488
 20
15.1894
 30
0.0
 10
-18.0488
 20
15.1894
 30
0.0
  0
SPLINE
  5
56
330
1F
100
AcDbEntity
  8
Ilustrace
 62
   250
100
AcDbSpline
210
0.0
220
0.0
230
1.0
 70
    11
 71
     3
 72
    64
 73
    60
 74
     0
 42
0.0000000001
 43
0.0000000001
 40
0.0
 40
0.0
 40
0.0
 40
0.0
 40
0.0625
 40
0.0625
 40
0.0625
 40
0.0625
 40
0.125
 40
0.125
 40
0.125
 40
0.125
 40
0.1875
 40
0.1875
 40
0.1875
 40
0.1875
 40
0.25
 40
0.25
 40
0.25
 40
0.25
 40
0.3125
 40
0.3125
 40
0.3125
 40
0.3125
 40
0.375
 40
0.375
 40
0.375
 40
0.375
 40
0.4375
 40
0.4375
 40
0.4375
 40
0.4375
 40
0.5
 40
0.5
 40
0.5
 40
0.5
 40
0.5625
 40
0.5625
 40
0.5625
 40
0.5625
 40
0.625
 40
0.625
 40
0.625
 40
0.625
 40
0.6875
 40
0.6875
 40
0.6875
 40
0.6875
 40
0.75
 40
0.75
 40
0.75
 40
0.75
 40
0.8125
 40
0.8125
 40
0.8125
 40
0.8125
 40
0.875
 40
0.875
 40
0.875
 40
0.875
 40
1.0
 40
1.0
 40
1.0
 40
1.0
 10
-17.5553
 20
17.533
 30
0.0
 10
-17.4834
 20
17.5323
 30
0.0
 10
-17.4207
 20
17.5129
 30
0.0
 10
-17.3685
 20
17.4747
 30
0.0
 10
-17.3685
 20
17.4747
 30
0.0
 10
-17.3162
 20
17.4365
 30
0.0
 10
-17.2728
 20
17.3829
 30
0.0
 10
-17.2392
 20
17.3144
 30
0.0
 10
-17.2392
 20
17.3144
 30
0.0
 10
-17.205
 20
17.2459
 30
0.0
 10
-17.1801
 20
17.165
 30
0.0
 10
-17.1636
 20
17.0732
 30
0.0
 10
-17.1636
 20
17.0732
 30
0.0
 10
-17.1471
 20
16.9806
 30
0.0
 10
-17.1393
 20
16.8804
 30
0.0
 10
-17.1393
 20
16.7724
 30
0.0
 10
-17.1393
 20
16.7724
 30
0.0
 10
-17.1393
 20
16.7439
 30
0.0
 10
-17.1413
 20
16.7193
 30
0.0
 10
-17.1459
 20
16.7
 30
0.0
 10
-17.1459
 20
16.7
 30
0.0
 10
-17.1501
 20
16.6799
 30
0.0
 10
-17.1564
 20
16.6612
 30
0.0
 10
-17.1641
 20
16.6444
 30
0.0
 10
-17.1641
 20
16.6444
 30
0.0
 10
-17.188
 20
16.5933
 30
0.0
 10
-17.2195
 20
16.5481
 30
0.0
 10
-17.2583
 20
16.5086
 30
0.0
 10
-17.2583
 20
16.5086
 30
0.0
 10
-17.2966
 20
16.4692
 30
0.0
 10
-17.3416
 20
16.4381
 30
0.0
 10
-17.3928
 20
16.4155
 30
0.0
 10
-17.3928
 20
16.4155
 30
0.0
 10
-17.4441
 20
16.3928
 30
0.0
 10
-17.5004
 20
16.3811
 30
0.0
 10
-17.5614
 20
16.3806
 30
0.0
 10
-17.5614
 20
16.3806
 30
0.0
 10
-17.6406
 20
16.3811
 30
0.0
 10
-17.7089
 20
16.4044
 30
0.0
 10
-17.7669
 20
16.4498
 30
0.0
 10
-17.7669
 20
16.4498
 30
0.0
 10
-17.8248
 20
16.495
 30
0.0
 10
-17.8697
 20
16.557
 30
0.0
 10
-17.9013
 20
16.6372
 30
0.0
 10
-17.9013
 20
16.6372
 30
0.0
 10
-17.9329
 20
16.7175
 30
0.0
 10
-17.9489
 20
16.8106
 30
0.0
 10
-17.9495
 20
16.9161
 30
0.0
 10
-17.9495
 20
16.9161
 30
0.0
 10
-17.9489
 20
17.0377
 30
0.0
 10
-17.9319
 20
17.1444
 30
0.0
 10
-17.8983
 20
17.2362
 30
0.0
 10
-17.8983
 20
17.2362
 30
0.0
 10
-17.8646
 20
17.3286
 30
0.0
 10
-17.8185
 20
17.401
 30
0.0
 10
-17.7596
 20
17.4534
 30
0.0
 10
-17.7596
 20
17.4534
 30
0.0
 10
-17.7006
 20
17.5058
 30
0.0
 10
-17.6323
 20
17.5323
 30
0.0
 10
-17.5553
 20
17.533
 30
0.0
  0
SPLINE
  5
57
330
1F
100
AcDbEntity
  8
Ilustrace
 62
   250
100
AcDbSpline
210
0.0
220
0.0
230
1.0
 70
    11
 71
     3
 72
   124
 73
   120
 74
     0
 42
0.0000000001
 43
0.0000000001
 40
0.0
 40
0.0
 40
0.0
 40
0.0
 40
0.032258064516129
 40
0.032258064516129
 40
0.032258064516129
 40
0.032258064516129
 40
0.0645161290322581
 40
0.0645161290322581
 40
0.0645161290322581
 40
0.0645161290322581
 40
0.0967741935483871
 40
0.0967741935483871
 40
0.0967741935483871
 40
0.0967741935483871
 40
0.1290322580645161
 40
0.1290322580645161
 40
0.1290322580645161
 40
0.1290322580645161
 40
0.1612903225806452
 40
0.1612903225806452
 40
0.1612903225806452
 40
0.1612903225806452
 40
0.1935483870967742
 40
0.1935483870967742
 40
0.1935483870967742
 40
0.1935483870967742
 40
0.2258064516129032
 40
0.2258064516129032
 40
0.2258064516129032
 40
0.2258064516129032
 40
0.2580645161290323
 40
0.2580645161290323
 40
0.2580645161290323
 40
0.2580645161290323
 40
0.2903225806451613
 40
0.2903225806451613
 40
0.2903225806451613
 40
0.2903225806451613
 40
0.3225806451612903
 40
0.3225806451612903
 40
0.3225806451612903
 40
0.3225806451612903
 40
0.3548387096774194
 40
0.3548387096774194
 40
0.3548387096774194
 40
0.3548387096774194
 40
0.3870967741935484
 40
0.3870967741935484
 40
0.3870967741935484
 40
0.3870967741935484
 40
0.4193548387096774
 40
0.4193548387096774
 40
0.4193548387096774
 40
0.4193548387096774
 40
0.4516129032258064
 40
0.4516129032258064
 40
0.4516129032258064
 40
0.4516129032258064
 40
0.4838709677419355
 40
0.4838709677419355
 40
0.4838709677419355
 40
0.4838709677419355
 40
0.5161290322580645
 40
0.5161290322580645
 40
0.5161290322580645
 40
0.5161290322580645
 40
0.5483870967741935
 40
0.5483870967741935
 40
0.5483870967741935
 40
0.5483870967741935
 40
0.5806451612903226
 40
0.5806451612903226
 40
0.5806451612903226
 40
0.5806451612903226
 40
0.6129032258064516
 40
0.6129032258064516
 40
0.6129032258064516
 40
0.6129032258064516
 40
0.6451612903225806
 40
0.6451612903225806
 40
0.6451612903225806
 40
0.6451612903225806
 40
0.6774193548387096
 40
0.6774193548387096
 40
0.6774193548387096
 40
0.6774193548387096
 40
0.7096774193548387
 40
0.7096774193548387
 40
0.7096774193548387
 40
0.7096774193548387
 40
0.7419354838709677
 40
0.7419354838709677
 40
0.7419354838709677
 40
0.7419354838709677
 40
0.7741935483870968
 40
0.7741935483870968
 40
0.7741935483870968
 40
0.7741935483870968
 40
0.8064516129032258
 40
0.8064516129032258
 40
0.8064516129032258
 40
0.8064516129032258
 40
0.8387096774193549
 40
0.8387096774193549
 40
0.8387096774193549
 40
0.8387096774193549
 40
0.8709677419354839
 40
0.8709677419354839
 40
0.8709677419354839
 40
0.8709677419354839
 40
0.9032258064516129
 40
0.9032258064516129
 40
0.9032258064516129
 40
0.9032258064516129
 40
0.9354838709677419
 40
0.9354838709677419
 40
0.9354838709677419
 40
0.9354838709677419
 40
1.0
 40
1.0
 40
1.0
 40
1.0
 10
-16.4564
 20
15.1894
 30
0.0
 10
-16.4238
 20
15.1874
 30
0.0
 10
-16.3861
 20
15.1874
 30
0.0
 10
-16.3436
 20
15.1906
 30
0.0
 10
-16.3436
 20
15.1906
 30
0.0
 10
-16.3011
 20
15.1931
 30
0.0
 10
-16.2547
 20
15.199
 30
0.0
 10
-16.2049
 20
15.2087
 30
0.0
 10
-16.2049
 20
15.2087
 30
0.0
 10
-16.132
 20
15.2191
 30
0.0
 10
-16.0605
 20
15.239
 30
0.0
 10
-15.9908
 20
15.2676
 30
0.0
 10
-15.9908
 20
15.2676
 30
0.0
 10
-15.9209
 20
15.2966
 30
0.0
 10
-15.8542
 20
15.3348
 30
0.0
 10
-15.7911
 20
15.3814
 30
0.0
 10
-15.7911
 20
15.3814
 30
0.0
 10
-15.728
 20
15.4279
 30
0.0
 10
-15.6704
 20
15.4829
 30
0.0
 10
-15.6182
 20
15.5463
 30
0.0
 10
-15.6182
 20
15.5463
 30
0.0
 10
-15.5515
 20
15.6264
 30
0.0
 10
-15.492
 20
15.7229
 30
0.0
 10
-15.4397
 20
15.8366
 30
0.0
 10
-15.4397
 20
15.8366
 30
0.0
 10
-15.3875
 20
15.9498
 30
0.0
 10
-15.3466
 20
16.0805
 30
0.0
 10
-15.3166
 20
16.2285
 30
0.0
 10
-15.3166
 20
16.2285
 30
0.0
 10
-15.2866
 20
16.3766
 30
0.0
 10
-15.2711
 20
16.5421
 30
0.0
 10
-15.2706
 20
16.7258
 30
0.0
 10
-15.2706
 20
16.7258
 30
0.0
 10
-15.2706
 20
16.8895
 30
0.0
 10
-15.2861
 20
17.0362
 30
0.0
 10
-15.3166
 20
17.1675
 30
0.0
 10
-15.3166
 20
17.1675
 30
0.0
 10
-15.3472
 20
17.2988
 30
0.0
 10
-15.3917
 20
17.4107
 30
0.0
 10
-15.4496
 20
17.504
 30
0.0
 10
-15.4496
 20
17.504
 30
0.0
 10
-15.5076
 20
17.597
 30
0.0
 10
-15.5773
 20
17.6681
 30
0.0
 10
-15.6597
 20
17.7179
 30
0.0
 10
-15.6597
 20
17.7179
 30
0.0
 10
-15.7419
 20
17.7678
 30
0.0
 10
-15.8346
 20
17.7923
 30
0.0
 10
-15.938
 20
17.7929
 30
0.0
 10
-15.938
 20
17.7929
 30
0.0
 10
-16.0415
 20
17.7923
 30
0.0
 10
-16.1356
 20
17.7678
 30
0.0
 10
-16.2199
 20
17.7199
 30
0.0
 10
-16.2199
 20
17.7199
 30
0.0
 10
-16.3043
 20
17.6727
 30
0.0
 10
-16.3768
 20
17.6067
 30
0.0
 10
-16.4373
 20
17.5239
 30
0.0
 10
-16.4373
 20
17.5239
 30
0.0
 10
-16.4983
 20
17.4405
 30
0.0
 10
-16.5449
 20
17.3454
 30
0.0
 10
-16.5775
 20
17.238
 30
0.0
 10
-16.5775
 20
17.238
 30
0.0
 10
-16.61
 20
17.1307
 30
0.0
 10
-16.6265
 20
17.0169
 30
0.0
 10
-16.6271
 20
16.8965
 30
0.0
 10
-16.6271
 20
16.8965
 30
0.0
 10
-16.6265
 20
16.7886
 30
0.0
 10
-16.6126
 20
16.6878
 30
0.0
 10
-16.5852
 20
16.5945
 30
0.0
 10
-16.5852
 20
16.5945
 30
0.0
 10
-16.5572
 20
16.5009
 30
0.0
 10
-16.5174
 20
16.4193
 30
0.0
 10
-16.4657
 20
16.3488
 30
0.0
 10
-16.4657
 20
16.3488
 30
0.0
 10
-16.4139
 20
16.279
 30
0.0
 10
-16.3514
 20
16.224
 30
0.0
 10
-16.2789
 20
16.1845
 30
0.0
 10
-16.2789
 20
16.1845
 30
0.0
 10
-16.206
 20
16.1451
 30
0.0
 10
-16.1247
 20
16.1252
 30
0.0
 10
-16.0341
 20
16.1245
 30
0.0
 10
-16.0341
 20
16.1245
 30
0.0
 10
-15.9317
 20
16.1252
 30
0.0
 10
-15.8402
 20
16.1483
 30
0.0
 10
-15.76
 20
16.1942
 30
0.0
 10
-15.76
 20
16.1942
 30
0.0
 10
-15.6803
 20
16.2401
 30
0.0
 10
-15.612
 20
16.3061
 30
0.0
 10
-15.5562
 20
16.3922
 30
0.0
 10
-15.5562
 20
16.3922
 30
0.0
 10
-15.5562
 20
16.3922
 30
0.0
 10
-15.5469
 20
16.3922
 30
0.0
 10
-15.5469
 20
16.3922
 30
0.0
 10
-15.5469
 20
16.3922
 30
0.0
 10
-15.566
 20
16.2448
 30
0.0
 10
-15.5986
 20
16.1153
 30
0.0
 10
-15.6442
 20
16.0048
 30
0.0
 10
-15.6442
 20
16.0048
 30
0.0
 10
-15.6901
 20
15.8936
 30
0.0
 10
-15.7466
 20
15.8004
 30
0.0
 10
-15.8138
 20
15.7247
 30
0.0
 10
-15.8138
 20
15.7247
 30
0.0
 10
-15.8717
 20
15.6549
 30
0.0
 10
-15.9364
 20
15.6006
 30
0.0
 10
-16.0083
 20
15.5604
 30
0.0
 10
-16.0083
 20
15.5604
 30
0.0
 10
-16.0802
 20
15.5204
 30
0.0
 10
-16.1562
 20
15.4939
 30
0.0
 10
-16.236
 20
15.4803
 30
0.0
 10
-16.236
 20
15.4803
 30
0.0
 10
-16.2821
 20
15.4745
 30
0.0
 10
-16.3234
 20
15.47
 30
0.0
 10
-16.3591
 20
15.4673
 30
0.0
 10
-16.3591
 20
15.4673
 30
0.0
 10
-16.3948
 20
15.4648
 30
0.0
 10
-16.4274
 20
15.4648
 30
0.0
 10
-16.4564
 20
15.4686
 30
0.0
 10
-16.4564
 20
15.4686
 30
0.0
 10
-16.4564
 20
15.4686
 30
0.0
 10
-16.4564
 20
15.1894
 30
0.0
 10
-16.4564
 20
15.1894
 30
0.0
  0
SPLINE
  5
58
330
1F
100
AcDbEntity
  8
Ilustrace
 62
   250
100
AcDbSpline
210
0.0
220
0.0
230
1.0
 70
    11
 71
     3
 72
    64
 73
    60
 74
     0
 42
0.0000000001
 43
0.0000000001
 40
0.0
 40
0.0
 40
0.0
 40
0.0
 40
0.0625
 40
0.0625
 40
0.0625
 40
0.0625
 40
0.125
 40
0.125
 40
0.125
 40
0.125
 40
0.1875
 40
0.1875
 40
0.1875
 40
0.1875
 40
0.25
 40
0.25
 40
0.25
 40
0.25
 40
0.3125
 40
0.3125
 40
0.3125
 40
0.3125
 40
0.375
 40
0.375
 40
0.375
 40
0.375
 40
0.4375
 40
0.4375
 40
0.4375
 40
0.4375
 40
0.5
 40
0.5
 40
0.5
 40
0.5
 40
0.5625
 40
0.5625
 40
0.5625
 40
0.5625
 40
0.625
 40
0.625
 40
0.625
 40
0.625
 40
0.6875
 40
0.6875
 40
0.6875
 40
0.6875
 40
0.75
 40
0.75
 40
0.75
 40
0.75
 40
0.8125
 40
0.8125
 40
0.8125
 40
0.8125
 40
0.875
 40
0.875
 40
0.875
 40
0.875
 40
1.0
 40
1.0
 40
1.0
 40
1.0
 10
-15.9628
 20
17.533
 30
0.0
 10
-15.891
 20
17.5323
 30
0.0
 10
-15.8283
 20
17.5129
 30
0.0
 10
-15.776
 20
17.4747
 30
0.0
 10
-15.776
 20
17.4747
 30
0.0
 10
-15.7238
 20
17.4365
 30
0.0
 10
-15.6803
 20
17.3829
 30
0.0
 10
-15.6468
 20
17.3144
 30
0.0
 10
-15.6468
 20
17.3144
 30
0.0
 10
-15.6126
 20
17.2459
 30
0.0
 10
-15.5877
 20
17.165
 30
0.0
 10
-15.5712
 20
17.0732
 30
0.0
 10
-15.5712
 20
17.0732
 30
0.0
 10
-15.5547
 20
16.9806
 30
0.0
 10
-15.5469
 20
16.8804
 30
0.0
 10
-15.5469
 20
16.7724
 30
0.0
 10
-15.5469
 20
16.7724
 30
0.0
 10
-15.5469
 20
16.7439
 30
0.0
 10
-15.5489
 20
16.7193
 30
0.0
 10
-15.5535
 20
16.7
 30
0.0
 10
-15.5535
 20
16.7
 30
0.0
 10
-15.5577
 20
16.6799
 30
0.0
 10
-15.564
 20
16.6612
 30
0.0
 10
-15.5717
 20
16.6444
 30
0.0
 10
-15.5717
 20
16.6444
 30
0.0
 10
-15.5955
 20
16.5933
 30
0.0
 10
-15.6271
 20
16.5481
 30
0.0
 10
-15.6658
 20
16.5086
 30
0.0
 10
-15.6658
 20
16.5086
 30
0.0
 10
-15.7042
 20
16.4692
 30
0.0
 10
-15.7492
 20
16.4381
 30
0.0
 10
-15.8004
 20
16.4155
 30
0.0
 10
-15.8004
 20
16.4155
 30
0.0
 10
-15.8516
 20
16.3928
 30
0.0
 10
-15.908
 20
16.3811
 30
0.0
 10
-15.969
 20
16.3806
 30
0.0
 10
-15.969
 20
16.3806
 30
0.0
 10
-16.0482
 20
16.3811
 30
0.0
 10
-16.1165
 20
16.4044
 30
0.0
 10
-16.1745
 20
16.4498
 30
0.0
 10
-16.1745
 20
16.4498
 30
0.0
 10
-16.2324
 20
16.495
 30
0.0
 10
-16.2773
 20
16.557
 30
0.0
 10
-16.3089
 20
16.6372
 30
0.0
 10
-16.3089
 20
16.6372
 30
0.0
 10
-16.3405
 20
16.7175
 30
0.0
 10
-16.3565
 20
16.8106
 30
0.0
 10
-16.3571
 20
16.9161
 30
0.0
 10
-16.3571
 20
16.9161
 30
0.0
 10
-16.3565
 20
17.0377
 30
0.0
 10
-16.3395
 20
17.1444
 30
0.0
 10
-16.3059
 20
17.2362
 30
0.0
 10
-16.3059
 20
17.2362
 30
0.0
 10
-16.2722
 20
17.3286
 30
0.0
 10
-16.2261
 20
17.401
 30
0.0
 10
-16.1671
 20
17.4534
 30
0.0
 10
-16.1671
 20
17.4534
 30
0.0
 10
-16.1082
 20
17.5058
 30
0.0
 10
-16.0399
 20
17.5323
 30
0.0
 10
-15.9628
 20
17.533
 30
0.0
  0
SPLINE
  5
59
330
1F
100
AcDbEntity
  8
Ilustrace
 62
   250
100
AcDbSpline
210
0.0
220
0.0
230
1.0
 70
    11
 71
     3
 72
   124
 73
   120
 74
     0
 42
0.0000000001
 43
0.0000000001
 40
0.0
 40
0.0
 40
0.0
 40
0.0
 40
0.032258064516129
 40
0.032258064516129
 40
0.032258064516129
 40
0.032258064516129
 40
0.0645161290322581
 40
0.0645161290322581
 40
0.0645161290322581
 40
0.0645161290322581
 40
0.0967741935483871
 40
0.0967741935483871
 40
0.0967741935483871
 40
0.0967741935483871
 40
0.1290322580645161
 40
0.1290322580645161
 40
0.1290322580645161
 40
0.1290322580645161
 40
0.1612903225806452
 40
0.1612903225806452
 40
0.1612903225806452
 40
0.1612903225806452
 40
0.1935483870967742
 40
0.1935483870967742
 40
0.1935483870967742
 40
0.1935483870967742
 40
0.2258064516129032
 40
0.2258064516129032
 40
0.2258064516129032
 40
0.2258064516129032
 40
0.2580645161290323
 40
0.2580645161290323
 40
0.2580645161290323
 40
0.2580645161290323
 40
0.2903225806451613
 40
0.2903225806451613
 40
0.2903225806451613
 40
0.2903225806451613
 40
0.3225806451612903
 40
0.3225806451612903
 40
0.3225806451612903
 40
0.3225806451612903
 40
0.3548387096774194
 40
0.3548387096774194
 40
0.3548387096774194
 40
0.3548387096774194
 40
0.3870967741935484
 40
0.3870967741935484
 40
0.3870967741935484
 40
0.3870967741935484
 40
0.4193548387096774
 40
0.4193548387096774
 40
0.4193548387096774
 40
0.4193548387096774
 40
0.4516129032258064
 40
0.4516129032258064
 40
0.4516129032258064
 40
0.4516129032258064
 40
0.4838709677419355
 40
0.4838709677419355
 40
0.4838709677419355
 40
0.4838709677419355
 40
0.5161290322580645
 40
0.5161290322580645
 40
0.5161290322580645
 40
0.5161290322580645
 40
0.5483870967741935
 40
0.5483870967741935
 40
0.5483870967741935
 40
0.5483870967741935
 40
0.5806451612903226
 40
0.5806451612903226
 40
0.5806451612903226
 40
0.5806451612903226
 40
0.6129032258064516
 40
0.6129032258064516
 40
0.6129032258064516
 40
0.6129032258064516
 40
0.6451612903225806
 40
0.6451612903225806
 40
0.6451612903225806
 40
0.6451612903225806
 40
0.6774193548387096
 40
0.6774193548387096
 40
0.6774193548387096
 40
0.6774193548387096
 40
0.7096774193548387
 40
0.7096774193548387
 40
0.7096774193548387
 40
0.7096774193548387
 40
0.7419354838709677
 40
0.7419354838709677
 40
0.7419354838709677
 40
0.7419354838709677
 40
0.7741935483870968
 40
0.7741935483870968
 40
0.7741935483870968
 40
0.7741935483870968
 40
0.8064516129032258
 40
0.8064516129032258
 40
0.8064516129032258
 40
0.8064516129032258
 40
0.8387096774193549
 40
0.8387096774193549
 40
0.8387096774193549
 40
0.8387096774193549
 40
0.8709677419354839
 40
0.8709677419354839
 40
0.8709677419354839
 40
0.8709677419354839
 40
0.9032258064516129
 40
0.9032258064516129
 40
0.9032258064516129
 40
0.9032258064516129
 40
0.9354838709677419
 40
0.9354838709677419
 40
0.9354838709677419
 40
0.9354838709677419
 40
1.0
 40
1.0
 40
1.0
 40
1.0
 10
-14.6466
 20
16.5436
 30
0.0
 10
-14.73
 20
16.4995
 30
0.0
 10
-14.8014
 20
16.4446
 30
0.0
 10
-14.8608
 20
16.3798
 30
0.0
 10
-14.8608
 20
16.3798
 30
0.0
 10
-14.9204
 20
16.3146
 30
0.0
 10
-14.9664
 20
16.2389
 30
0.0
 10
-14.9985
 20
16.153
 30
0.0
 10
-14.9985
 20
16.153
 30
0.0
 10
-15.0305
 20
16.0669
 30
0.0
 10
-15.0466
 20
15.9706
 30
0.0
 10
-15.047
 20
15.8644
 30
0.0
 10
-15.047
 20
15.8644
 30
0.0
 10
-15.0466
 20
15.7713
 30
0.0
 10
-15.0315
 20
15.6847
 30
0.0
 10
-15.0006
 20
15.6026
 30
0.0
 10
-15.0006
 20
15.6026
 30
0.0
 10
-14.97
 20
15.5211
 30
0.0
 10
-14.9255
 20
15.4492
 30
0.0
 10
-14.8671
 20
15.3865
 30
0.0
 10
-14.8671
 20
15.3865
 30
0.0
 10
-14.8086
 20
15.3244
 30
0.0
 10
-14.7377
 20
15.2753
 30
0.0
 10
-14.6545
 20
15.2398
 30
0.0
 10
-14.6545
 20
15.2398
 30
0.0
 10
-14.5706
 20
15.2042
 30
0.0
 10
-14.4759
 20
15.1861
 30
0.0
 10
-14.3704
 20
15.1854
 30
0.0
 10
-14.3704
 20
15.1854
 30
0.0
 10
-14.2736
 20
15.1861
 30
0.0
 10
-14.1836
 20
15.2035
 30
0.0
 10
-14.1008
 20
15.2378
 30
0.0
 10
-14.1008
 20
15.2378
 30
0.0
 10
-14.018
 20
15.272
 30
0.0
 10
-13.9452
 20
15.3219
 30
0.0
 10
-13.883
 20
15.3865
 30
0.0
 10
-13.883
 20
15.3865
 30
0.0
 10
-13.8209
 20
15.4505
 30
0.0
 10
-13.7723
 20
15.5276
 30
0.0
 10
-13.7377
 20
15.6175
 30
0.0
 10
-13.7377
 20
15.6175
 30
0.0
 10
-13.7024
 20
15.7073
 30
0.0
 10
-13.6849
 20
15.8076
 30
0.0
 10
-13.6843
 20
15.9187
 30
0.0
 10
-13.6843
 20
15.9187
 30
0.0
 10
-13.6849
 20
16.0197
 30
0.0
 10
-13.7014
 20
16.1115
 30
0.0
 10
-13.734
 20
16.1949
 30
0.0
 10
-13.734
 20
16.1949
 30
0.0
 10
-13.7667
 20
16.2778
 30
0.0
 10
-13.8132
 20
16.3508
 30
0.0
 10
-13.8737
 20
16.4136
 30
0.0
 10
-13.8737
 20
16.4136
 30
0.0
 10
-13.9343
 20
16.4769
 30
0.0
 10
-14.0067
 20
16.5292
 30
0.0
 10
-14.0911
 20
16.5707
 30
0.0
 10
-14.0911
 20
16.5707
 30
0.0
 10
-14.0911
 20
16.5707
 30
0.0
 10
-14.0911
 20
16.5823
 30
0.0
 10
-14.0911
 20
16.5823
 30
0.0
 10
-14.0911
 20
16.5823
 30
0.0
 10
-14.0087
 20
16.6307
 30
0.0
 10
-13.943
 20
16.6871
 30
0.0
 10
-13.8939
 20
16.7518
 30
0.0
 10
-13.8939
 20
16.7518
 30
0.0
 10
-13.8447
 20
16.8158
 30
0.0
 10
-13.809
 20
16.8843
 30
0.0
 10
-13.7873
 20
16.9561
 30
0.0
 10
-13.7873
 20
16.9561
 30
0.0
 10
-13.7661
 20
17.0285
 30
0.0
 10
-13.7552
 20
17.1003
 30
0.0
 10
-13.7558
 20
17.1722
 30
0.0
 10
-13.7558
 20
17.1722
 30
0.0
 10
-13.7558
 20
17.2523
 30
0.0
 10
-13.7681
 20
17.3298
 30
0.0
 10
-13.7931
 20
17.4037
 30
0.0
 10
-13.7931
 20
17.4037
 30
0.0
 10
-13.8179
 20
17.4774
 30
0.0
 10
-13.8546
 20
17.5432
 30
0.0
 10
-13.9037
 20
17.6022
 30
0.0
 10
-13.9037
 20
17.6022
 30
0.0
 10
-13.9533
 20
17.6603
 30
0.0
 10
-14.0149
 20
17.707
 30
0.0
 10
-14.0885
 20
17.7405
 30
0.0
 10
-14.0885
 20
17.7405
 30
0.0
 10
-14.162
 20
17.7748
 30
0.0
 10
-14.2477
 20
17.7923
 30
0.0
 10
-14.3456
 20
17.7929
 30
0.0
 10
-14.3456
 20
17.7929
 30
0.0
 10
-14.4351
 20
17.7923
 30
0.0
 10
-14.5183
 20
17.7762
 30
0.0
 10
-14.594
 20
17.7445
 30
0.0
 10
-14.594
 20
17.7445
 30
0.0
 10
-14.67
 20
17.7122
 30
0.0
 10
-14.7361
 20
17.6668
 30
0.0
 10
-14.7931
 20
17.6073
 30
0.0
 10
-14.7931
 20
17.6073
 30
0.0
 10
-14.8495
 20
17.5479
 30
0.0
 10
-14.8934
 20
17.4774
 30
0.0
 10
-14.9249
 20
17.3953
 30
0.0
 10
-14.9249
 20
17.3953
 30
0.0
 10
-14.9561
 20
17.3131
 30
0.0
 10
-14.9721
 20
17.2219
 30
0.0
 10
-14.9726
 20
17.1216
 30
0.0
 10
-14.9726
 20
17.1216
 30
0.0
 10
-14.9726
 20
17.0486
 30
0.0
 10
-14.9617
 20
16.9774
 30
0.0
 10
-14.939
 20
16.9076
 30
0.0
 10
-14.939
 20
16.9076
 30
0.0
 10
-14.9168
 20
16.8377
 30
0.0
 10
-14.8816
 20
16.7724
 30
0.0
 10
-14.834
 20
16.7123
 30
0.0
 10
-14.834
 20
16.7123
 30
0.0
 10
-14.7863
 20
16.6521
 30
0.0
 10
-14.7254
 20
16.5997
 30
0.0
 10
-14.6498
 20
16.5552
 30
0.0
 10
-14.6498
 20
16.5552
 30
0.0
 10
-14.6498
 20
16.5552
 30
0.0
 10
-14.6466
 20
16.5436
 30
0.0
 10
-14.6466
 20
16.5436
 30
0.0
  0
SPLINE
  5
5A
330
1F
100
AcDbEntity
  8
Ilustrace
 62
   250
100
AcDbSpline
210
0.0
220
0.0
230
1.0
 70
    11
 71
     3
 72
    56
 73
    52
 74
     0
 42
0.0000000001
 43
0.0000000001
 40
0.0
 40
0.0
 40
0.0
 40
0.0
 40
0.0714285714285714
 40
0.0714285714285714
 40
0.0714285714285714
 40
0.0714285714285714
 40
0.1428571428571428
 40
0.1428571428571428
 40
0.1428571428571428
 40
0.1428571428571428
 40
0.2142857142857143
 40
0.2142857142857143
 40
0.2142857142857143
 40
0.2142857142857143
 40
0.2857142857142857
 40
0.2857142857142857
 40
0.2857142857142857
 40
0.2857142857142857
 40
0.3571428571428572
 40
0.3571428571428572
 40
0.3571428571428572
 40
0.3571428571428572
 40
0.4285714285714285
 40
0.4285714285714285
 40
0.4285714285714285
 40
0.4285714285714285
 40
0.5
 40
0.5
 40
0.5
 40
0.5
 40
0.5714285714285714
 40
0.5714285714285714
 40
0.5714285714285714
 40
0.5714285714285714
 40
0.6428571428571429
 40
0.6428571428571429
 40
0.6428571428571429
 40
0.6428571428571429
 40
0.7142857142857143
 40
0.7142857142857143
 40
0.7142857142857143
 40
0.7142857142857143
 40
0.7857142857142857
 40
0.7857142857142857
 40
0.7857142857142857
 40
0.7857142857142857
 40
0.8571428571428571
 40
0.8571428571428571
 40
0.8571428571428571
 40
0.8571428571428571
 40
1.0
 40
1.0
 40
1.0
 40
1.0
 10
-14.3642
 20
15.4338
 30
0.0
 10
-14.4288
 20
15.4343
 30
0.0
 10
-14.4863
 20
15.4473
 30
0.0
 10
-14.537
 20
15.4725
 30
0.0
 10
-14.537
 20
15.4725
 30
0.0
 10
-14.5882
 20
15.4984
 30
0.0
 10
-14.6311
 20
15.5333
 30
0.0
 10
-14.6663
 20
15.578
 30
0.0
 10
-14.6663
 20
15.578
 30
0.0
 10
-14.701
 20
15.6219
 30
0.0
 10
-14.7274
 20
15.673
 30
0.0
 10
-14.745
 20
15.7299
 30
0.0
 10
-14.745
 20
15.7299
 30
0.0
 10
-14.7621
 20
15.7869
 30
0.0
 10
-14.7698
 20
15.8477
 30
0.0
 10
-14.7677
 20
15.911
 30
0.0
 10
-14.7677
 20
15.911
 30
0.0
 10
-14.7677
 20
15.9919
 30
0.0
 10
-14.7538
 20
16.0662
 30
0.0
 10
-14.7258
 20
16.1349
 30
0.0
 10
-14.7258
 20
16.1349
 30
0.0
 10
-14.6984
 20
16.2034
 30
0.0
 10
-14.6575
 20
16.2634
 30
0.0
 10
-14.6037
 20
16.3146
 30
0.0
 10
-14.6037
 20
16.3146
 30
0.0
 10
-14.5493
 20
16.3657
 30
0.0
 10
-14.4832
 20
16.4058
 30
0.0
 10
-14.4046
 20
16.4349
 30
0.0
 10
-14.4046
 20
16.4349
 30
0.0
 10
-14.313
 20
16.4032
 30
0.0
 10
-14.2343
 20
16.3637
 30
0.0
 10
-14.1681
 20
16.3158
 30
0.0
 10
-14.1681
 20
16.3158
 30
0.0
 10
-14.1018
 20
16.2686
 30
0.0
 10
-14.0506
 20
16.2098
 30
0.0
 10
-14.0149
 20
16.1399
 30
0.0
 10
-14.0149
 20
16.1399
 30
0.0
 10
-13.9793
 20
16.0694
 30
0.0
 10
-13.9611
 20
15.984
 30
0.0
 10
-13.9607
 20
15.8838
 30
0.0
 10
-13.9607
 20
15.8838
 30
0.0
 10
-13.9611
 20
15.7966
 30
0.0
 10
-13.9777
 20
15.719
 30
0.0
 10
-14.0109
 20
15.6517
 30
0.0
 10
-14.0109
 20
15.6517
 30
0.0
 10
-14.0439
 20
15.5845
 30
0.0
 10
-14.0905
 20
15.5314
 30
0.0
 10
-14.1505
 20
15.4926
 30
0.0
 10
-14.1505
 20
15.4926
 30
0.0
 10
-14.2106
 20
15.4537
 30
0.0
 10
-14.2819
 20
15.4343
 30
0.0
 10
-14.3642
 20
15.4338
 30
0.0
  0
SPLINE
  5
5B
330
1F
100
AcDbEntity
  8
Ilustrace
 62
   250
100
AcDbSpline
210
0.0
220
0.0
230
1.0
 70
    11
 71
     3
 72
    56
 73
    52
 74
     0
 42
0.0000000001
 43
0.0000000001
 40
0.0
 40
0.0
 40
0.0
 40
0.0
 40
0.0714285714285714
 40
0.0714285714285714
 40
0.0714285714285714
 40
0.0714285714285714
 40
0.1428571428571428
 40
0.1428571428571428
 40
0.1428571428571428
 40
0.1428571428571428
 40
0.2142857142857143
 40
0.2142857142857143
 40
0.2142857142857143
 40
0.2142857142857143
 40
0.2857142857142857
 40
0.2857142857142857
 40
0.2857142857142857
 40
0.2857142857142857
 40
0.3571428571428572
 40
0.3571428571428572
 40
0.3571428571428572
 40
0.3571428571428572
 40
0.4285714285714285
 40
0.4285714285714285
 40
0.4285714285714285
 40
0.4285714285714285
 40
0.5
 40
0.5
 40
0.5
 40
0.5
 40
0.5714285714285714
 40
0.5714285714285714
 40
0.5714285714285714
 40
0.5714285714285714
 40
0.6428571428571429
 40
0.6428571428571429
 40
0.6428571428571429
 40
0.6428571428571429
 40
0.7142857142857143
 40
0.7142857142857143
 40
0.7142857142857143
 40
0.7142857142857143
 40
0.7857142857142857
 40
0.7857142857142857
 40
0.7857142857142857
 40
0.7857142857142857
 40
0.8571428571428571
 40
0.8571428571428571
 40
0.8571428571428571
 40
0.8571428571428571
 40
1.0
 40
1.0
 40
1.0
 40
1.0
 10
-14.3611
 20
17.5484
 30
0.0
 10
-14.3
 20
17.5479
 30
0.0
 10
-14.2477
 20
17.5362
 30
0.0
 10
-14.2043
 20
17.5129
 30
0.0
 10
-14.2043
 20
17.5129
 30
0.0
 10
-14.1608
 20
17.4896
 30
0.0
 10
-14.1257
 20
17.4579
 30
0.0
 10
-14.0982
 20
17.4186
 30
0.0
 10
-14.0982
 20
17.4186
 30
0.0
 10
-14.0714
 20
17.3791
 30
0.0
 10
-14.0512
 20
17.335
 30
0.0
 10
-14.0383
 20
17.2866
 30
0.0
 10
-14.0383
 20
17.2866
 30
0.0
 10
-14.0258
 20
17.238
 30
0.0
 10
-14.0196
 20
17.1883
 30
0.0
 10
-14.0196
 20
17.1372
 30
0.0
 10
-14.0196
 20
17.1372
 30
0.0
 10
-14.0202
 20
17.0608
 30
0.0
 10
-14.0335
 20
16.993
 30
0.0
 10
-14.0605
 20
16.9335
 30
0.0
 10
-14.0605
 20
16.9335
 30
0.0
 10
-14.0873
 20
16.8734
 30
0.0
 10
-14.1236
 20
16.8223
 30
0.0
 10
-14.1701
 20
16.7801
 30
0.0
 10
-14.1701
 20
16.7801
 30
0.0
 10
-14.2162
 20
16.7374
 30
0.0
 10
-14.2684
 20
16.7039
 30
0.0
 10
-14.3269
 20
16.6793
 30
0.0
 10
-14.3269
 20
16.6793
 30
0.0
 10
-14.405
 20
16.7052
 30
0.0
 10
-14.4729
 20
16.7382
 30
0.0
 10
-14.5308
 20
16.7783
 30
0.0
 10
-14.5308
 20
16.7783
 30
0.0
 10
-14.5888
 20
16.819
 30
0.0
 10
-14.6337
 20
16.8694
 30
0.0
 10
-14.6653
 20
16.9295
 30
0.0
 10
-14.6653
 20
16.9295
 30
0.0
 10
-14.6968
 20
16.9898
 30
0.0
 10
-14.7123
 20
17.0615
 30
0.0
 10
-14.7119
 20
17.1449
 30
0.0
 10
-14.7119
 20
17.1449
 30
0.0
 10
-14.7119
 20
17.2186
 30
0.0
 10
-14.6984
 20
17.2853
 30
0.0
 10
-14.6716
 20
17.3461
 30
0.0
 10
-14.6716
 20
17.3461
 30
0.0
 10
-14.6446
 20
17.4069
 30
0.0
 10
-14.6047
 20
17.4554
 30
0.0
 10
-14.5525
 20
17.4923
 30
0.0
 10
-14.5525
 20
17.4923
 30
0.0
 10
-14.5008
 20
17.5291
 30
0.0
 10
-14.4366
 20
17.5479
 30
0.0
 10
-14.3611
 20
17.5484
 30
0.0
  0
SPLINE
  5
5C
330
1F
100
AcDbEntity
  8
Ilustrace
 62
   250
370
    15
100
AcDbSpline
210
0.0
220
0.0
230
1.0
 70
    24
 71
     3
 72
     8
 73
     4
 74
     0
 42
0.0000000001
 43
0.0000000001
 40
0.0
 40
0.0
 40
0.0
 40
0.0
 40
1.0
 40
1.0
 40
1.0
 40
1.0
 10
54.6393
 20
14.4297
 30
0.0
 10
54.6393
 20
14.4297
 30
0.0
 10
-71.832
 20
14.4297
 30
0.0
 10
-71.832
 20
14.4297
 30
0.0
  0
SPLINE
  5
5D
330
1F
100
AcDbEntity
  8
Ilustrace
 62
   250
370
     9
100
AcDbSpline
210
0.0
220
0.0
230
1.0
 70
    11
 71
     3
 72
    32
 73
    28
 74
     0
 42
0.0000000001
 43
0.0000000001
 40
0.0
 40
0.0
 40
0.0
 40
0.0
 40
0.125
 40
0.125
 40
0.125
 40
0.125
 40
0.25
 40
0.25
 40
0.25
 40
0.25
 40
0.375
 40
0.375
 40
0.375
 40
0.375
 40
0.5
 40
0.5
 40
0.5
 40
0.5
 40
0.625
 40
0.625
 40
0.625
 40
0.625
 40
0.75
 40
0.75
 40
0.75
 40
0.75
 40
1.0
 40
1.0
 40
1.0
 40
1.0
 10
54.0486
 20
13.971
 30
0.0
 10
54.0486
 20
13.971
 30
0.0
 10
54.0486
 20
13.971
 30
0.0
 10
54.0486
 20
13.971
 30
0.0
 10
54.0486
 20
13.971
 30
0.0
 10
54.0486
 20
13.971
 30
0.0
 10
54.0486
 20
13.971
 30
0.0
 10
54.0486
 20
13.971
 30
0.0
 10
54.0486
 20
13.971
 30
0.0
 10
54.0486
 20
13.971
 30
0.0
 10
55.3214
 20
14.4144
 30
0.0
 10
55.3214
 20
14.4144
 30
0.0
 10
55.3214
 20
14.4144
 30
0.0
 10
55.3214
 20
14.4144
 30
0.0
 10
54.0486
 20
14.8578
 30
0.0
 10
54.0486
 20
14.8578
 30
0.0
 10
54.0486
 20
14.8578
 30
0.0
 10
54.0486
 20
14.8578
 30
0.0
 10
54.0486
 20
14.8578
 30
0.0
 10
54.0486
 20
14.8578
 30
0.0
 10
54.0486
 20
14.8578
 30
0.0
 10
54.0486
 20
14.8578
 30
0.0
 10
54.0486
 20
14.8578
 30
0.0
 10
54.0486
 20
14.8578
 30
0.0
 10
54.0486
 20
14.8578
 30
0.0
 10
54.0486
 20
14.8578
 30
0.0
 10
54.0486
 20
13.971
 30
0.0
 10
54.0486
 20
13.971
 30
0.0
  0
SPLINE
  5
5E
330
1F
100
AcDbEntity
  8
Ilustrace
 62
   250
370
     9
100
AcDbSpline
210
0.0
220
0.0
230
1.0
 70
    11
 71
     3
 72
    32
 73
    28
 74
     0
 42
0.0000000001
 43
0.0000000001
 40
0.0
 40
0.0
 40
0.0
 40
0.0
 40
0.125
 40
0.125
 40
0.125
 40
0.125
 40
0.25
 40
0.25
 40
0.25
 40
0.25
 40
0.375
 40
0.375
 40
0.375
 40
0.375
 40
0.5
 40
0.5
 40
0.5
 40
0.5
 40
0.625
 40
0.625
 40
0.625
 40
0.625
 40
0.75
 40
0.75
 40
0.75
 40
0.75
 40
1.0
 40
1.0
 40
1.0
 40
1.0
 10
-71.618
 20
13.9256
 30
0.0
 10
-71.618
 20
13.9256
 30
0.0
 10
-71.618
 20
13.9256
 30
0.0
 10
-71.618
 20
13.9256
 30
0.0
 10
-71.618
 20
13.9256
 30
0.0
 10
-71.618
 20
13.9256
 30
0.0
 10
-71.618
 20
13.9256
 30
0.0
 10
-71.618
 20
13.9256
 30
0.0
 10
-71.618
 20
13.9256
 30
0.0
 10
-71.618
 20
13.9256
 30
0.0
 10
-72.8908
 20
14.369
 30
0.0
 10
-72.8908
 20
14.369
 30
0.0
 10
-72.8908
 20
14.369
 30
0.0
 10
-72.8908
 20
14.369
 30
0.0
 10
-71.618
 20
14.8124
 30
0.0
 10
-71.618
 20
14.8124
 30
0.0
 10
-71.618
 20
14.8124
 30
0.0
 10
-71.618
 20
14.8124
 30
0.0
 10
-71.618
 20
14.8124
 30
0.0
 10
-71.618
 20
14.8124
 30
0.0
 10
-71.618
 20
14.8124
 30
0.0
 10
-71.618
 20
14.8124
 30
0.0
 10
-71.618
 20
14.8124
 30
0.0
 10
-71.618
 20
14.8124
 30
0.0
 10
-71.618
 20
14.8124
 30
0.0
 10
-71.618
 20
14.8124
 30
0.0
 10
-71.618
 20
13.9256
 30
0.0
 10
-71.618
 20
13.9256
 30
0.0
  0
SPLINE
  5
5F
330
1F
100
AcDbEntity
  8
Ilustrace
 62
   254
100
AcDbSpline
210
0.0
220
0.0
230
1.0
 70
    11
 71
     3
 72
    60
 73
    56
 74
     0
 42
0.0000000001
 43
0.0000000001
 40
0.0
 40
0.0
 40
0.0
 40
0.0
 40
0.0666666666666667
 40
0.0666666666666667
 40
0.0666666666666667
 40
0.0666666666666667
 40
0.1333333333333333
 40
0.1333333333333333
 40
0.1333333333333333
 40
0.1333333333333333
 40
0.2
 40
0.2
 40
0.2
 40
0.2
 40
0.2666666666666667
 40
0.2666666666666667
 40
0.2666666666666667
 40
0.2666666666666667
 40
0.3333333333333333
 40
0.3333333333333333
 40
0.3333333333333333
 40
0.3333333333333333
 40
0.4
 40
0.4
 40
0.4
 40
0.4
 40
0.4666666666666667
 40
0.4666666666666667
 40
0.4666666666666667
 40
0.4666666666666667
 40
0.5333333333333333
 40
0.5333333333333333
 40
0.5333333333333333
 40
0.5333333333333333
 40
0.6
 40
0.6
 40
0.6
 40
0.6
 40
0.6666666666666666
 40
0.6666666666666666
 40
0.6666666666666666
 40
0.6666666666666666
 40
0.7333333333333333
 40
0.7333333333333333
 40
0.7333333333333333
 40
0.7333333333333333
 40
0.8
 40
0.8
 40
0.8
 40
0.8
 40
0.8666666666666667
 40
0.8666666666666667
 40
0.8666666666666667
 40
0.8666666666666667
 40
1.0
 40
1.0
 40
1.0
 40
1.0
 10
-32.228
 20
6.3488
 30
0.0
 10
-32.228
 20
6.3488
 30
0.0
 10
-32.228
 20
6.2181
 30
0.0
 10
-32.228
 20
6.2181
 30
0.0
 10
-32.228
 20
6.2181
 30
0.0
 10
-32.228
 20
5.4519
 30
0.0
 10
-32.4639
 20
4.9313
 30
0.0
 10
-32.4639
 20
4.2136
 30
0.0
 10
-32.4639
 20
4.2136
 30
0.0
 10
-32.4639
 20
4.2136
 30
0.0
 10
-32.4639
 20
3.7993
 30
0.0
 10
-32.4639
 20
3.7993
 30
0.0
 10
-32.4639
 20
3.7993
 30
0.0
 10
-32.464
 20
1.9946
 30
0.0
 10
-32.4421
 20
0.9168
 30
0.0
 10
-32.4657
 20
-0.8166
 30
0.0
 10
-32.4657
 20
-0.8166
 30
0.0
 10
-32.4657
 20
-0.8166
 30
0.0
 10
-32.4949
 20
-2.9552
 30
0.0
 10
-32.4949
 20
-2.9552
 30
0.0
 10
-32.4949
 20
-2.9552
 30
0.0
 10
-32.6228
 20
-4.1986
 30
0.0
 10
-32.5752
 20
-4.832
 30
0.0
 10
-32.6953
 20
-6.0734
 30
0.0
 10
-32.6953
 20
-6.0734
 30
0.0
 10
-32.7608
 20
-6.7507
 30
0.0
 10
-32.7404
 20
-9.8398
 30
0.0
 10
-32.8935
 20
-10.497
 30
0.0
 10
-32.8935
 20
-10.497
 30
0.0
 10
-33.0386
 20
-11.1196
 30
0.0
 10
-33.0996
 20
-13.6117
 30
0.0
 10
-33.3217
 20
-13.9971
 30
0.0
 10
-33.3217
 20
-13.9971
 30
0.0
 10
-33.3613
 20
-14.0658
 30
0.0
 10
-33.6954
 20
-16.1014
 30
0.0
 10
-33.6954
 20
-16.2605
 30
0.0
 10
-33.6954
 20
-16.2605
 30
0.0
 10
-33.6954
 20
-16.2716
 30
0.0
 10
-33.9286
 20
-17.6826
 30
0.0
 10
-33.9175
 20
-17.6826
 30
0.0
 10
-33.9175
 20
-17.6826
 30
0.0
 10
-33.9175
 20
-17.6826
 30
0.0
 10
55.3837
 20
-17.6603
 30
0.0
 10
55.3837
 20
-17.6603
 30
0.0
 10
55.3837
 20
-17.6603
 30
0.0
 10
55.3837
 20
-17.6603
 30
0.0
 10
55.3176
 20
6.3506
 30
0.0
 10
55.3176
 20
6.3506
 30
0.0
 10
55.3176
 20
6.3506
 30
0.0
 10
55.3176
 20
6.3506
 30
0.0
 10
-32.2763
 20
6.3506
 30
0.0
 10
-32.2763
 20
6.3506
 30
0.0
 10
-32.2763
 20
6.3506
 30
0.0
 10
-32.2924
 20
6.3506
 30
0.0
 10
-32.228
 20
6.3649
 30
0.0
 10
-32.228
 20
6.3488
 30
0.0
  0
SPLINE
  5
60
330
1F
100
AcDbEntity
  8
Ilustrace
 62
   254
100
AcDbSpline
210
0.0
220
0.0
230
1.0
 70
    11
 71
     3
 72
    20
 73
    16
 74
     0
 42
0.0000000001
 43
0.0000000001
 40
0.0
 40
0.0
 40
0.0
 40
0.0
 40
0.2
 40
0.2
 40
0.2
 40
0.2
 40
0.4
 40
0.4
 40
0.4
 40
0.4
 40
0.6
 40
0.6
 40
0.6
 40
0.6
 40
1.0
 40
1.0
 40
1.0
 40
1.0
 10
36.5651
 20
-13.5337
 30
0.0
 10
36.5651
 20
-13.5337
 30
0.0
 10
49.5518
 20
-13.5337
 30
0.0
 10
49.5518
 20
-13.5337
 30
0.0
 10
49.5518
 20
-13.5337
 30
0.0
 10
49.5518
 20
-13.5337
 30
0.0
 10
49.5518
 20
-14.3762
 30
0.0
 10
49.5518
 20
-14.3762
 30
0.0
 10
49.5518
 20
-14.3762
 30
0.0
 10
49.5518
 20
-14.3762
 30
0.0
 10
36.5651
 20
-14.3762
 30
0.0
 10
36.5651
 20
-14.3762
 30
0.0
 10
36.5651
 20
-14.3762
 30
0.0
 10
36.5651
 20
-14.3762
 30
0.0
 10
36.5651
 20
-13.5337
 30
0.0
 10
36.5651
 20
-13.5337
 30
0.0
  0
SPLINE
  5
61
330
1F
100
AcDbEntity
  8
Ilustrace
 62
   254
100
AcDbSpline
210
0.0
220
0.0
230
1.0
 70
    11
 71
     3
 72
    20
 73
    16
 74
     0
 42
0.0000000001
 43
0.0000000001
 40
0.0
 40
0.0
 40
0.0
 40
0.0
 40
0.2
 40
0.2
 40
0.2
 40
0.2
 40
0.4
 40
0.4
 40
0.4
 40
0.4
 40
0.6
 40
0.6
 40
0.6
 40
0.6
 40
1.0
 40
1.0
 40
1.0
 40
1.0
 10
36.5652
 20
-4.9787
 30
0.0
 10
36.5652
 20
-4.9787
 30
0.0
 10
49.5519
 20
-4.9787
 30
0.0
 10
49.5519
 20
-4.9787
 30
0.0
 10
49.5519
 20
-4.9787
 30
0.0
 10
49.5519
 20
-4.9787
 30
0.0
 10
49.5519
 20
-6.4118
 30
0.0
 10
49.5519
 20
-6.4118
 30
0.0
 10
49.5519
 20
-6.4118
 30
0.0
 10
49.5519
 20
-6.4118
 30
0.0
 10
36.5652
 20
-6.4118
 30
0.0
 10
36.5652
 20
-6.4118
 30
0.0
 10
36.5652
 20
-6.4118
 30
0.0
 10
36.5652
 20
-6.4118
 30
0.0
 10
36.5652
 20
-4.9787
 30
0.0
 10
36.5652
 20
-4.9787
 30
0.0
  0
SPLINE
  5
62
330
1F
100
AcDbEntity
  8
Ilustrace
 62
   254
100
AcDbSpline
210
0.0
220
0.0
230
1.0
 70
    11
 71
     3
 72
    20
 73
    16
 74
     0
 42
0.0000000001
 43
0.0000000001
 40
0.0
 40
0.0
 40
0.0
 40
0.0
 40
0.2
 40
0.2
 40
0.2
 40
0.2
 40
0.4
 40
0.4
 40
0.4
 40
0.4
 40
0.6
 40
0.6
 40
0.6
 40
0.6
 40
1.0
 40
1.0
 40
1.0
 40
1.0
 10
20.0067
 20
-5.0007
 30
0.0
 10
20.0067
 20
-5.0007
 30
0.0
 10
32.9934
 20
-5.0007
 30
0.0
 10
32.9934
 20
-5.0007
 30
0.0
 10
32.9934
 20
-5.0007
 30
0.0
 10
32.9934
 20
-5.0007
 30
0.0
 10
32.9934
 20
-6.4338
 30
0.0
 10
32.9934
 20
-6.4338
 30
0.0
 10
32.9934
 20
-6.4338
 30
0.0
 10
32.9934
 20
-6.4338
 30
0.0
 10
20.0067
 20
-6.4338
 30
0.0
 10
20.0067
 20
-6.4338
 30
0.0
 10
20.0067
 20
-6.4338
 30
0.0
 10
20.0067
 20
-6.4338
 30
0.0
 10
20.0067
 20
-5.0007
 30
0.0
 10
20.0067
 20
-5.0007
 30
0.0
  0
SPLINE
  5
63
330
1F
100
AcDbEntity
  8
Ilustrace
 62
   254
100
AcDbSpline
210
0.0
220
0.0
230
1.0
 70
    11
 71
     3
 72
    20
 73
    16
 74
     0
 42
0.0000000001
 43
0.0000000001
 40
0.0
 40
0.0
 40
0.0
 40
0.0
 40
0.2
 40
0.2
 40
0.2
 40
0.2
 40
0.4
 40
0.4
 40
0.4
 40
0.4
 40
0.6
 40
0.6
 40
0.6
 40
0.6
 40
1.0
 40
1.0
 40
1.0
 40
1.0
 10
3.4481
 20
-13.5777
 30
0.0
 10
3.4481
 20
-13.5777
 30
0.0
 10
16.4348
 20
-13.5777
 30
0.0
 10
16.4348
 20
-13.5777
 30
0.0
 10
16.4348
 20
-13.5777
 30
0.0
 10
16.4348
 20
-13.5777
 30
0.0
 10
16.4348
 20
-14.2438
 30
0.0
 10
16.4348
 20
-14.2438
 30
0.0
 10
16.4348
 20
-14.2438
 30
0.0
 10
16.4348
 20
-14.2438
 30
0.0
 10
3.4481
 20
-14.2438
 30
0.0
 10
3.4481
 20
-14.2438
 30
0.0
 10
3.4481
 20
-14.2438
 30
0.0
 10
3.4481
 20
-14.2438
 30
0.0
 10
3.4481
 20
-13.5777
 30
0.0
 10
3.4481
 20
-13.5777
 30
0.0
  0
SPLINE
  5
64
330
1F
100
AcDbEntity
  8
Ilustrace
 62
   254
100
AcDbSpline
210
0.0
220
0.0
230
1.0
 70
    11
 71
     3
 72
    20
 73
    16
 74
     0
 42
0.0000000001
 43
0.0000000001
 40
0.0
 40
0.0
 40
0.0
 40
0.0
 40
0.2
 40
0.2
 40
0.2
 40
0.2
 40
0.4
 40
0.4
 40
0.4
 40
0.4
 40
0.6
 40
0.6
 40
0.6
 40
0.6
 40
1.0
 40
1.0
 40
1.0
 40
1.0
 10
3.4482
 20
-5.0227
 30
0.0
 10
3.4482
 20
-5.0227
 30
0.0
 10
16.4349
 20
-5.0227
 30
0.0
 10
16.4349
 20
-5.0227
 30
0.0
 10
16.4349
 20
-5.0227
 30
0.0
 10
16.4349
 20
-5.0227
 30
0.0
 10
16.4349
 20
-6.4558
 30
0.0
 10
16.4349
 20
-6.4558
 30
0.0
 10
16.4349
 20
-6.4558
 30
0.0
 10
16.4349
 20
-6.4558
 30
0.0
 10
3.4482
 20
-6.4558
 30
0.0
 10
3.4482
 20
-6.4558
 30
0.0
 10
3.4482
 20
-6.4558
 30
0.0
 10
3.4482
 20
-6.4558
 30
0.0
 10
3.4482
 20
-5.0227
 30
0.0
 10
3.4482
 20
-5.0227
 30
0.0
  0
SPLINE
  5
65
330
1F
100
AcDbEntity
  8
Ilustrace
 62
   254
100
AcDbSpline
210
0.0
220
0.0
230
1.0
 70
    11
 71
     3
 72
    20
 73
    16
 74
     0
 42
0.0000000001
 43
0.0000000001
 40
0.0
 40
0.0
 40
0.0
 40
0.0
 40
0.2
 40
0.2
 40
0.2
 40
0.2
 40
0.4
 40
0.4
 40
0.4
 40
0.4
 40
0.6
 40
0.6
 40
0.6
 40
0.6
 40
1.0
 40
1.0
 40
1.0
 40
1.0
 10
-13.0664
 20
-13.6328
 30
0.0
 10
-13.0664
 20
-13.6328
 30
0.0
 10
-0.0797
 20
-13.6328
 30
0.0
 10
-0.0797
 20
-13.6328
 30
0.0
 10
-0.0797
 20
-13.6328
 30
0.0
 10
-0.0797
 20
-13.6328
 30
0.0
 10
-0.0797
 20
-14.321
 30
0.0
 10
-0.0797
 20
-14.321
 30
0.0
 10
-0.0797
 20
-14.321
 30
0.0
 10
-0.0797
 20
-14.321
 30
0.0
 10
-13.0664
 20
-14.321
 30
0.0
 10
-13.0664
 20
-14.321
 30
0.0
 10
-13.0664
 20
-14.321
 30
0.0
 10
-13.0664
 20
-14.321
 30
0.0
 10
-13.0664
 20
-13.6328
 30
0.0
 10
-13.0664
 20
-13.6328
 30
0.0
  0
SPLINE
  5
66
330
1F
100
AcDbEntity
  8
Ilustrace
 62
   254
100
AcDbSpline
210
0.0
220
0.0
230
1.0
 70
    11
 71
     3
 72
    20
 73
    16
 74
     0
 42
0.0000000001
 43
0.0000000001
 40
0.0
 40
0.0
 40
0.0
 40
0.0
 40
0.2
 40
0.2
 40
0.2
 40
0.2
 40
0.4
 40
0.4
 40
0.4
 40
0.4
 40
0.6
 40
0.6
 40
0.6
 40
0.6
 40
1.0
 40
1.0
 40
1.0
 40
1.0
 10
-13.0663
 20
-5.0778
 30
0.0
 10
-13.0663
 20
-5.0778
 30
0.0
 10
-0.0796
 20
-5.0778
 30
0.0
 10
-0.0796
 20
-5.0778
 30
0.0
 10
-0.0796
 20
-5.0778
 30
0.0
 10
-0.0796
 20
-5.0778
 30
0.0
 10
-0.0796
 20
-6.5109
 30
0.0
 10
-0.0796
 20
-6.5109
 30
0.0
 10
-0.0796
 20
-6.5109
 30
0.0
 10
-0.0796
 20
-6.5109
 30
0.0
 10
-13.0663
 20
-6.5109
 30
0.0
 10
-13.0663
 20
-6.5109
 30
0.0
 10
-13.0663
 20
-6.5109
 30
0.0
 10
-13.0663
 20
-6.5109
 30
0.0
 10
-13.0663
 20
-5.0778
 30
0.0
 10
-13.0663
 20
-5.0778
 30
0.0
  0
SPLINE
  5
67
330
1F
100
AcDbEntity
  8
Ilustrace
 62
   254
100
AcDbSpline
210
0.0
220
0.0
230
1.0
 70
    11
 71
     3
 72
    20
 73
    16
 74
     0
 42
0.0000000001
 43
0.0000000001
 40
0.0
 40
0.0
 40
0.0
 40
0.0
 40
0.2
 40
0.2
 40
0.2
 40
0.2
 40
0.4
 40
0.4
 40
0.4
 40
0.4
 40
0.6
 40
0.6
 40
0.6
 40
0.6
 40
1.0
 40
1.0
 40
1.0
 40
1.0
 10
-29.7132
 20
-13.6328
 30
0.0
 10
-29.7132
 20
-13.6328
 30
0.0
 10
-16.7265
 20
-13.6328
 30
0.0
 10
-16.7265
 20
-13.6328
 30
0.0
 10
-16.7265
 20
-13.6328
 30
0.0
 10
-16.7265
 20
-13.6328
 30
0.0
 10
-16.7265
 20
-14.3211
 30
0.0
 10
-16.7265
 20
-14.3211
 30
0.0
 10
-16.7265
 20
-14.3211
 30
0.0
 10
-16.7265
 20
-14.3211
 30
0.0
 10
-29.7132
 20
-14.3211
 30
0.0
 10
-29.7132
 20
-14.3211
 30
0.0
 10
-29.7132
 20
-14.3211
 30
0.0
 10
-29.7132
 20
-14.3211
 30
0.0
 10
-29.7132
 20
-13.6328
 30
0.0
 10
-29.7132
 20
-13.6328
 30
0.0
  0
SPLINE
  5
68
330
1F
100
AcDbEntity
  8
Ilustrace
 62
   254
100
AcDbSpline
210
0.0
220
0.0
230
1.0
 70
    11
 71
     3
 72
    20
 73
    16
 74
     0
 42
0.0000000001
 43
0.0000000001
 40
0.0
 40
0.0
 40
0.0
 40
0.0
 40
0.2
 40
0.2
 40
0.2
 40
0.2
 40
0.4
 40
0.4
 40
0.4
 40
0.4
 40
0.6
 40
0.6
 40
0.6
 40
0.6
 40
1.0
 40
1.0
 40
1.0
 40
1.0
 10
-29.7131
 20
-5.0778
 30
0.0
 10
-29.7131
 20
-5.0778
 30
0.0
 10
-16.7264
 20
-5.0778
 30
0.0
 10
-16.7264
 20
-5.0778
 30
0.0
 10
-16.7264
 20
-5.0778
 30
0.0
 10
-16.7264
 20
-5.0778
 30
0.0
 10
-16.7264
 20
-6.5109
 30
0.0
 10
-16.7264
 20
-6.5109
 30
0.0
 10
-16.7264
 20
-6.5109
 30
0.0
 10
-16.7264
 20
-6.5109
 30
0.0
 10
-29.7131
 20
-6.5109
 30
0.0
 10
-29.7131
 20
-6.5109
 30
0.0
 10
-29.7131
 20
-6.5109
 30
0.0
 10
-29.7131
 20
-6.5109
 30
0.0
 10
-29.7131
 20
-5.0778
 30
0.0
 10
-29.7131
 20
-5.0778
 30
0.0
  0
SPLINE
  5
69
330
1F
100
AcDbEntity
  8
Ilustrace
 62
   254
100
AcDbSpline
210
0.0
220
0.0
230
1.0
 70
    11
 71
     3
 72
    20
 73
    16
 74
     0
 42
0.0000000001
 43
0.0000000001
 40
0.0
 40
0.0
 40
0.0
 40
0.0
 40
0.2
 40
0.2
 40
0.2
 40
0.2
 40
0.4
 40
0.4
 40
0.4
 40
0.4
 40
0.6
 40
0.6
 40
0.6
 40
0.6
 40
1.0
 40
1.0
 40
1.0
 40
1.0
 10
36.6754
 20
-9.1019
 30
0.0
 10
36.6754
 20
-9.1019
 30
0.0
 10
49.6621
 20
-9.1019
 30
0.0
 10
49.6621
 20
-9.1019
 30
0.0
 10
49.6621
 20
-9.1019
 30
0.0
 10
49.6621
 20
-9.1019
 30
0.0
 10
49.6621
 20
-10.7822
 30
0.0
 10
49.6621
 20
-10.7822
 30
0.0
 10
49.6621
 20
-10.7822
 30
0.0
 10
49.6621
 20
-10.7822
 30
0.0
 10
36.6754
 20
-10.7822
 30
0.0
 10
36.6754
 20
-10.7822
 30
0.0
 10
36.6754
 20
-10.7822
 30
0.0
 10
36.6754
 20
-10.7822
 30
0.0
 10
36.6754
 20
-9.1019
 30
0.0
 10
36.6754
 20
-9.1019
 30
0.0
  0
SPLINE
  5
6A
330
1F
100
AcDbEntity
  8
Ilustrace
 62
   254
100
AcDbSpline
210
0.0
220
0.0
230
1.0
 70
    11
 71
     3
 72
    20
 73
    16
 74
     0
 42
0.0000000001
 43
0.0000000001
 40
0.0
 40
0.0
 40
0.0
 40
0.0
 40
0.2
 40
0.2
 40
0.2
 40
0.2
 40
0.4
 40
0.4
 40
0.4
 40
0.4
 40
0.6
 40
0.6
 40
0.6
 40
0.6
 40
1.0
 40
1.0
 40
1.0
 40
1.0
 10
36.6755
 20
-0.5469
 30
0.0
 10
36.6755
 20
-0.5469
 30
0.0
 10
49.6622
 20
-0.5469
 30
0.0
 10
49.6622
 20
-0.5469
 30
0.0
 10
49.6622
 20
-0.5469
 30
0.0
 10
49.6622
 20
-0.5469
 30
0.0
 10
49.6622
 20
-1.98
 30
0.0
 10
49.6622
 20
-1.98
 30
0.0
 10
49.6622
 20
-1.98
 30
0.0
 10
49.6622
 20
-1.98
 30
0.0
 10
36.6755
 20
-1.98
 30
0.0
 10
36.6755
 20
-1.98
 30
0.0
 10
36.6755
 20
-1.98
 30
0.0
 10
36.6755
 20
-1.98
 30
0.0
 10
36.6755
 20
-0.5469
 30
0.0
 10
36.6755
 20
-0.5469
 30
0.0
  0
SPLINE
  5
6B
330
1F
100
AcDbEntity
  8
Ilustrace
 62
   254
100
AcDbSpline
210
0.0
220
0.0
230
1.0
 70
    11
 71
     3
 72
    20
 73
    16
 74
     0
 42
0.0000000001
 43
0.0000000001
 40
0.0
 40
0.0
 40
0.0
 40
0.0
 40
0.2
 40
0.2
 40
0.2
 40
0.2
 40
0.4
 40
0.4
 40
0.4
 40
0.4
 40
0.6
 40
0.6
 40
0.6
 40
0.6
 40
1.0
 40
1.0
 40
1.0
 40
1.0
 10
20.1169
 20
-9.1239
 30
0.0
 10
20.1169
 20
-9.1239
 30
0.0
 10
33.1036
 20
-9.1239
 30
0.0
 10
33.1036
 20
-9.1239
 30
0.0
 10
33.1036
 20
-9.1239
 30
0.0
 10
33.1036
 20
-9.1239
 30
0.0
 10
33.1036
 20
-10.7381
 30
0.0
 10
33.1036
 20
-10.7381
 30
0.0
 10
33.1036
 20
-10.7381
 30
0.0
 10
33.1036
 20
-10.7381
 30
0.0
 10
20.1169
 20
-10.7381
 30
0.0
 10
20.1169
 20
-10.7381
 30
0.0
 10
20.1169
 20
-10.7381
 30
0.0
 10
20.1169
 20
-10.7381
 30
0.0
 10
20.1169
 20
-9.1239
 30
0.0
 10
20.1169
 20
-9.1239
 30
0.0
  0
SPLINE
  5
6C
330
1F
100
AcDbEntity
  8
Ilustrace
 62
   254
100
AcDbSpline
210
0.0
220
0.0
230
1.0
 70
    11
 71
     3
 72
    20
 73
    16
 74
     0
 42
0.0000000001
 43
0.0000000001
 40
0.0
 40
0.0
 40
0.0
 40
0.0
 40
0.2
 40
0.2
 40
0.2
 40
0.2
 40
0.4
 40
0.4
 40
0.4
 40
0.4
 40
0.6
 40
0.6
 40
0.6
 40
0.6
 40
1.0
 40
1.0
 40
1.0
 40
1.0
 10
20.117
 20
-0.5689
 30
0.0
 10
20.117
 20
-0.5689
 30
0.0
 10
33.1037
 20
-0.5689
 30
0.0
 10
33.1037
 20
-0.5689
 30
0.0
 10
33.1037
 20
-0.5689
 30
0.0
 10
33.1037
 20
-0.5689
 30
0.0
 10
33.1037
 20
-2.002
 30
0.0
 10
33.1037
 20
-2.002
 30
0.0
 10
33.1037
 20
-2.002
 30
0.0
 10
33.1037
 20
-2.002
 30
0.0
 10
20.117
 20
-2.002
 30
0.0
 10
20.117
 20
-2.002
 30
0.0
 10
20.117
 20
-2.002
 30
0.0
 10
20.117
 20
-2.002
 30
0.0
 10
20.117
 20
-0.5689
 30
0.0
 10
20.117
 20
-0.5689
 30
0.0
  0
SPLINE
  5
6D
330
1F
100
AcDbEntity
  8
Ilustrace
 62
   254
100
AcDbSpline
210
0.0
220
0.0
230
1.0
 70
    11
 71
     3
 72
    20
 73
    16
 74
     0
 42
0.0000000001
 43
0.0000000001
 40
0.0
 40
0.0
 40
0.0
 40
0.0
 40
0.2
 40
0.2
 40
0.2
 40
0.2
 40
0.4
 40
0.4
 40
0.4
 40
0.4
 40
0.6
 40
0.6
 40
0.6
 40
0.6
 40
1.0
 40
1.0
 40
1.0
 40
1.0
 10
3.5584
 20
-9.1459
 30
0.0
 10
3.5584
 20
-9.1459
 30
0.0
 10
16.5451
 20
-9.1459
 30
0.0
 10
16.5451
 20
-9.1459
 30
0.0
 10
16.5451
 20
-9.1459
 30
0.0
 10
16.5451
 20
-9.1459
 30
0.0
 10
16.5451
 20
-10.579
 30
0.0
 10
16.5451
 20
-10.579
 30
0.0
 10
16.5451
 20
-10.579
 30
0.0
 10
16.5451
 20
-10.579
 30
0.0
 10
3.5584
 20
-10.579
 30
0.0
 10
3.5584
 20
-10.579
 30
0.0
 10
3.5584
 20
-10.579
 30
0.0
 10
3.5584
 20
-10.579
 30
0.0
 10
3.5584
 20
-9.1459
 30
0.0
 10
3.5584
 20
-9.1459
 30
0.0
  0
SPLINE
  5
6E
330
1F
100
AcDbEntity
  8
Ilustrace
 62
   254
100
AcDbSpline
210
0.0
220
0.0
230
1.0
 70
    11
 71
     3
 72
    20
 73
    16
 74
     0
 42
0.0000000001
 43
0.0000000001
 40
0.0
 40
0.0
 40
0.0
 40
0.0
 40
0.2
 40
0.2
 40
0.2
 40
0.2
 40
0.4
 40
0.4
 40
0.4
 40
0.4
 40
0.6
 40
0.6
 40
0.6
 40
0.6
 40
1.0
 40
1.0
 40
1.0
 40
1.0
 10
3.5585
 20
-0.5909
 30
0.0
 10
3.5585
 20
-0.5909
 30
0.0
 10
16.5452
 20
-0.5909
 30
0.0
 10
16.5452
 20
-0.5909
 30
0.0
 10
16.5452
 20
-0.5909
 30
0.0
 10
16.5452
 20
-0.5909
 30
0.0
 10
16.5452
 20
-2.024
 30
0.0
 10
16.5452
 20
-2.024
 30
0.0
 10
16.5452
 20
-2.024
 30
0.0
 10
16.5452
 20
-2.024
 30
0.0
 10
3.5585
 20
-2.024
 30
0.0
 10
3.5585
 20
-2.024
 30
0.0
 10
3.5585
 20
-2.024
 30
0.0
 10
3.5585
 20
-2.024
 30
0.0
 10
3.5585
 20
-0.5909
 30
0.0
 10
3.5585
 20
-0.5909
 30
0.0
  0
SPLINE
  5
6F
330
1F
100
AcDbEntity
  8
Ilustrace
 62
   254
100
AcDbSpline
210
0.0
220
0.0
230
1.0
 70
    11
 71
     3
 72
    20
 73
    16
 74
     0
 42
0.0000000001
 43
0.0000000001
 40
0.0
 40
0.0
 40
0.0
 40
0.0
 40
0.2
 40
0.2
 40
0.2
 40
0.2
 40
0.4
 40
0.4
 40
0.4
 40
0.4
 40
0.6
 40
0.6
 40
0.6
 40
0.6
 40
1.0
 40
1.0
 40
1.0
 40
1.0
 10
-12.9561
 20
-9.201
 30
0.0
 10
-12.9561
 20
-9.201
 30
0.0
 10
0.0306
 20
-9.201
 30
0.0
 10
0.0306
 20
-9.201
 30
0.0
 10
0.0306
 20
-9.201
 30
0.0
 10
0.0306
 20
-9.201
 30
0.0
 10
0.0306
 20
-10.6341
 30
0.0
 10
0.0306
 20
-10.6341
 30
0.0
 10
0.0306
 20
-10.6341
 30
0.0
 10
0.0306
 20
-10.6341
 30
0.0
 10
-12.9561
 20
-10.6341
 30
0.0
 10
-12.9561
 20
-10.6341
 30
0.0
 10
-12.9561
 20
-10.6341
 30
0.0
 10
-12.9561
 20
-10.6341
 30
0.0
 10
-12.9561
 20
-9.201
 30
0.0
 10
-12.9561
 20
-9.201
 30
0.0
  0
SPLINE
  5
70
330
1F
100
AcDbEntity
  8
Ilustrace
 62
   254
100
AcDbSpline
210
0.0
220
0.0
230
1.0
 70
    11
 71
     3
 72
    20
 73
    16
 74
     0
 42
0.0000000001
 43
0.0000000001
 40
0.0
 40
0.0
 40
0.0
 40
0.0
 40
0.2
 40
0.2
 40
0.2
 40
0.2
 40
0.4
 40
0.4
 40
0.4
 40
0.4
 40
0.6
 40
0.6
 40
0.6
 40
0.6
 40
1.0
 40
1.0
 40
1.0
 40
1.0
 10
-12.956
 20
-0.646
 30
0.0
 10
-12.956
 20
-0.646
 30
0.0
 10
0.0307
 20
-0.646
 30
0.0
 10
0.0307
 20
-0.646
 30
0.0
 10
0.0307
 20
-0.646
 30
0.0
 10
0.0307
 20
-0.646
 30
0.0
 10
0.0307
 20
-2.0791
 30
0.0
 10
0.0307
 20
-2.0791
 30
0.0
 10
0.0307
 20
-2.0791
 30
0.0
 10
0.0307
 20
-2.0791
 30
0.0
 10
-12.956
 20
-2.0791
 30
0.0
 10
-12.956
 20
-2.0791
 30
0.0
 10
-12.956
 20
-2.0791
 30
0.0
 10
-12.956
 20
-2.0791
 30
0.0
 10
-12.956
 20
-0.646
 30
0.0
 10
-12.956
 20
-0.646
 30
0.0
  0
SPLINE
  5
71
330
1F
100
AcDbEntity
  8
Ilustrace
 62
   254
100
AcDbSpline
210
0.0
220
0.0
230
1.0
 70
    11
 71
     3
 72
    20
 73
    16
 74
     0
 42
0.0000000001
 43
0.0000000001
 40
0.0
 40
0.0
 40
0.0
 40
0.0
 40
0.2
 40
0.2
 40
0.2
 40
0.2
 40
0.4
 40
0.4
 40
0.4
 40
0.4
 40
0.6
 40
0.6
 40
0.6
 40
0.6
 40
1.0
 40
1.0
 40
1.0
 40
1.0
 10
-29.6029
 20
-9.201
 30
0.0
 10
-29.6029
 20
-9.201
 30
0.0
 10
-16.6162
 20
-9.201
 30
0.0
 10
-16.6162
 20
-9.201
 30
0.0
 10
-16.6162
 20
-9.201
 30
0.0
 10
-16.6162
 20
-9.201
 30
0.0
 10
-16.6162
 20
-10.6341
 30
0.0
 10
-16.6162
 20
-10.6341
 30
0.0
 10
-16.6162
 20
-10.6341
 30
0.0
 10
-16.6162
 20
-10.6341
 30
0.0
 10
-29.6029
 20
-10.6341
 30
0.0
 10
-29.6029
 20
-10.6341
 30
0.0
 10
-29.6029
 20
-10.6341
 30
0.0
 10
-29.6029
 20
-10.6341
 30
0.0
 10
-29.6029
 20
-9.201
 30
0.0
 10
-29.6029
 20
-9.201
 30
0.0
  0
SPLINE
  5
72
330
1F
100
AcDbEntity
  8
Ilustrace
 62
   254
100
AcDbSpline
210
0.0
220
0.0
230
1.0
 70
    11
 71
     3
 72
    20
 73
    16
 74
     0
 42
0.0000000001
 43
0.0000000001
 40
0.0
 40
0.0
 40
0.0
 40
0.0
 40
0.2
 40
0.2
 40
0.2
 40
0.2
 40
0.4
 40
0.4
 40
0.4
 40
0.4
 40
0.6
 40
0.6
 40
0.6
 40
0.6
 40
1.0
 40
1.0
 40
1.0
 40
1.0
 10
-29.6028
 20
-0.646
 30
0.0
 10
-29.6028
 20
-0.646
 30
0.0
 10
-16.6161
 20
-0.646
 30
0.0
 10
-16.6161
 20
-0.646
 30
0.0
 10
-16.6161
 20
-0.646
 30
0.0
 10
-16.6161
 20
-0.646
 30
0.0
 10
-16.6161
 20
-2.0791
 30
0.0
 10
-16.6161
 20
-2.0791
 30
0.0
 10
-16.6161
 20
-2.0791
 30
0.0
 10
-16.6161
 20
-2.0791
 30
0.0
 10
-29.6028
 20
-2.0791
 30
0.0
 10
-29.6028
 20
-2.0791
 30
0.0
 10
-29.6028
 20
-2.0791
 30
0.0
 10
-29.6028
 20
-2.0791
 30
0.0
 10
-29.6028
 20
-0.646
 30
0.0
 10
-29.6028
 20
-0.646
 30
0.0
  0
SPLINE
  5
73
330
1F
100
AcDbEntity
  8
Ilustrace
 62
   254
100
AcDbSpline
210
0.0
220
0.0
230
1.0
 70
    11
 71
     3
 72
    20
 73
    16
 74
     0
 42
0.0000000001
 43
0.0000000001
 40
0.0
 40
0.0
 40
0.0
 40
0.0
 40
0.2
 40
0.2
 40
0.2
 40
0.2
 40
0.4
 40
0.4
 40
0.4
 40
0.4
 40
0.6
 40
0.6
 40
0.6
 40
0.6
 40
1.0
 40
1.0
 40
1.0
 40
1.0
 10
36.6094
 20
2.9649
 30
0.0
 10
36.6094
 20
2.9649
 30
0.0
 10
49.5961
 20
2.9649
 30
0.0
 10
49.5961
 20
2.9649
 30
0.0
 10
49.5961
 20
2.9649
 30
0.0
 10
49.5961
 20
2.9649
 30
0.0
 10
49.5961
 20
2.2313
 30
0.0
 10
49.5961
 20
2.2313
 30
0.0
 10
49.5961
 20
2.2313
 30
0.0
 10
49.5961
 20
2.2313
 30
0.0
 10
36.6094
 20
2.2313
 30
0.0
 10
36.6094
 20
2.2313
 30
0.0
 10
36.6094
 20
2.2313
 30
0.0
 10
36.6094
 20
2.2313
 30
0.0
 10
36.6094
 20
2.9649
 30
0.0
 10
36.6094
 20
2.9649
 30
0.0
  0
SPLINE
  5
74
330
1F
100
AcDbEntity
  8
Ilustrace
 62
   254
100
AcDbSpline
210
0.0
220
0.0
230
1.0
 70
    11
 71
     3
 72
    20
 73
    16
 74
     0
 42
0.0000000001
 43
0.0000000001
 40
0.0
 40
0.0
 40
0.0
 40
0.0
 40
0.2
 40
0.2
 40
0.2
 40
0.2
 40
0.4
 40
0.4
 40
0.4
 40
0.4
 40
0.6
 40
0.6
 40
0.6
 40
0.6
 40
1.0
 40
1.0
 40
1.0
 40
1.0
 10
3.4924
 20
3.0972
 30
0.0
 10
3.4924
 20
3.0972
 30
0.0
 10
16.4791
 20
3.0972
 30
0.0
 10
16.4791
 20
3.0972
 30
0.0
 10
16.4791
 20
3.0972
 30
0.0
 10
16.4791
 20
3.0972
 30
0.0
 10
16.4791
 20
2.1873
 30
0.0
 10
16.4791
 20
2.1873
 30
0.0
 10
16.4791
 20
2.1873
 30
0.0
 10
16.4791
 20
2.1873
 30
0.0
 10
3.4924
 20
2.1873
 30
0.0
 10
3.4924
 20
2.1873
 30
0.0
 10
3.4924
 20
2.1873
 30
0.0
 10
3.4924
 20
2.1873
 30
0.0
 10
3.4924
 20
3.0972
 30
0.0
 10
3.4924
 20
3.0972
 30
0.0
  0
SPLINE
  5
75
330
1F
100
AcDbEntity
  8
Ilustrace
 62
   254
100
AcDbSpline
210
0.0
220
0.0
230
1.0
 70
    11
 71
     3
 72
    20
 73
    16
 74
     0
 42
0.0000000001
 43
0.0000000001
 40
0.0
 40
0.0
 40
0.0
 40
0.0
 40
0.2
 40
0.2
 40
0.2
 40
0.2
 40
0.4
 40
0.4
 40
0.4
 40
0.4
 40
0.6
 40
0.6
 40
0.6
 40
0.6
 40
1.0
 40
1.0
 40
1.0
 40
1.0
 10
-13.0221
 20
3.1413
 30
0.0
 10
-13.0221
 20
3.1413
 30
0.0
 10
-0.0354
 20
3.1413
 30
0.0
 10
-0.0354
 20
3.1413
 30
0.0
 10
-0.0354
 20
3.1413
 30
0.0
 10
-0.0354
 20
3.1413
 30
0.0
 10
-0.0354
 20
2.1322
 30
0.0
 10
-0.0354
 20
2.1322
 30
0.0
 10
-0.0354
 20
2.1322
 30
0.0
 10
-0.0354
 20
2.1322
 30
0.0
 10
-13.0221
 20
2.1322
 30
0.0
 10
-13.0221
 20
2.1322
 30
0.0
 10
-13.0221
 20
2.1322
 30
0.0
 10
-13.0221
 20
2.1322
 30
0.0
 10
-13.0221
 20
3.1413
 30
0.0
 10
-13.0221
 20
3.1413
 30
0.0
  0
SPLINE
  5
76
330
1F
100
AcDbEntity
  8
Ilustrace
 62
   254
100
AcDbSpline
210
0.0
220
0.0
230
1.0
 70
    11
 71
     3
 72
    20
 73
    16
 74
     0
 42
0.0000000001
 43
0.0000000001
 40
0.0
 40
0.0
 40
0.0
 40
0.0
 40
0.2
 40
0.2
 40
0.2
 40
0.2
 40
0.4
 40
0.4
 40
0.4
 40
0.4
 40
0.6
 40
0.6
 40
0.6
 40
0.6
 40
1.0
 40
1.0
 40
1.0
 40
1.0
 10
-29.6689
 20
3.0532
 30
0.0
 10
-29.6689
 20
3.0532
 30
0.0
 10
-16.6822
 20
3.0532
 30
0.0
 10
-16.6822
 20
3.0532
 30
0.0
 10
-16.6822
 20
3.0532
 30
0.0
 10
-16.6822
 20
3.0532
 30
0.0
 10
-16.6822
 20
2.1322
 30
0.0
 10
-16.6822
 20
2.1322
 30
0.0
 10
-16.6822
 20
2.1322
 30
0.0
 10
-16.6822
 20
2.1322
 30
0.0
 10
-29.6689
 20
2.1322
 30
0.0
 10
-29.6689
 20
2.1322
 30
0.0
 10
-29.6689
 20
2.1322
 30
0.0
 10
-29.6689
 20
2.1322
 30
0.0
 10
-29.6689
 20
3.0532
 30
0.0
 10
-29.6689
 20
3.0532
 30
0.0
  0
SPLINE
  5
77
330
1F
100
AcDbEntity
  8
Ilustrace
 62
   254
100
AcDbSpline
210
0.0
220
0.0
230
1.0
 70
    11
 71
     3
 72
    40
 73
    36
 74
     0
 42
0.0000000001
 43
0.0000000001
 40
0.0
 40
0.0
 40
0.0
 40
0.0
 40
0.1
 40
0.1
 40
0.1
 40
0.1
 40
0.2
 40
0.2
 40
0.2
 40
0.2
 40
0.3
 40
0.3
 40
0.3
 40
0.3
 40
0.4
 40
0.4
 40
0.4
 40
0.4
 40
0.5
 40
0.5
 40
0.5
 40
0.5
 40
0.6
 40
0.6
 40
0.6
 40
0.6
 40
0.7
 40
0.7
 40
0.7
 40
0.7
 40
0.8
 40
0.8
 40
0.8
 40
0.8
 40
1.0
 40
1.0
 40
1.0
 40
1.0
 10
32.898
 20
3.6146
 30
0.0
 10
32.898
 20
3.6146
 30
0.0
 10
32.909
 20
2.1705
 30
0.0
 10
32.909
 20
2.1705
 30
0.0
 10
32.909
 20
2.1705
 30
0.0
 10
32.909
 20
2.1705
 30
0.0
 10
20.0987
 20
2.2365
 30
0.0
 10
20.0987
 20
2.2365
 30
0.0
 10
20.0987
 20
2.2365
 30
0.0
 10
20.0987
 20
2.2365
 30
0.0
 10
20.0988
 20
2.909
 30
0.0
 10
20.0988
 20
2.909
 30
0.0
 10
20.0988
 20
2.909
 30
0.0
 10
20.0988
 20
2.909
 30
0.0
 10
28.7088
 20
2.8318
 30
0.0
 10
28.7088
 20
2.8318
 30
0.0
 10
28.7088
 20
2.8318
 30
0.0
 10
28.7088
 20
2.8318
 30
0.0
 10
28.9348
 20
2.9228
 30
0.0
 10
28.9348
 20
2.9228
 30
0.0
 10
28.9348
 20
2.9228
 30
0.0
 10
28.9348
 20
2.9228
 30
0.0
 10
29.0422
 20
3.0165
 30
0.0
 10
29.0422
 20
3.0165
 30
0.0
 10
29.0422
 20
3.0165
 30
0.0
 10
29.0422
 20
3.0165
 30
0.0
 10
29.0533
 20
3.1764
 30
0.0
 10
29.0533
 20
3.1764
 30
0.0
 10
29.0533
 20
3.1764
 30
0.0
 10
29.0533
 20
3.1764
 30
0.0
 10
29.0588
 20
3.6146
 30
0.0
 10
29.0588
 20
3.6146
 30
0.0
 10
29.0588
 20
3.6146
 30
0.0
 10
29.0588
 20
3.6146
 30
0.0
 10
32.898
 20
3.6146
 30
0.0
 10
32.898
 20
3.6146
 30
0.0
  0
SPLINE
  5
78
330
1F
100
AcDbEntity
  8
Ilustrace
 62
   254
100
AcDbSpline
210
0.0
220
0.0
230
1.0
 70
    11
 71
     3
 72
    40
 73
    36
 74
     0
 42
0.0000000001
 43
0.0000000001
 40
0.0
 40
0.0
 40
0.0
 40
0.0
 40
0.1
 40
0.1
 40
0.1
 40
0.1
 40
0.2
 40
0.2
 40
0.2
 40
0.2
 40
0.3
 40
0.3
 40
0.3
 40
0.3
 40
0.4
 40
0.4
 40
0.4
 40
0.4
 40
0.5
 40
0.5
 40
0.5
 40
0.5
 40
0.6
 40
0.6
 40
0.6
 40
0.6
 40
0.7
 40
0.7
 40
0.7
 40
0.7
 40
0.8
 40
0.8
 40
0.8
 40
0.8
 40
1.0
 40
1.0
 40
1.0
 40
1.0
 10
32.898
 20
-15.0406
 30
0.0
 10
32.898
 20
-15.0406
 30
0.0
 10
32.909
 20
-13.5965
 30
0.0
 10
32.909
 20
-13.5965
 30
0.0
 10
32.909
 20
-13.5965
 30
0.0
 10
32.909
 20
-13.5965
 30
0.0
 10
20.0987
 20
-13.6625
 30
0.0
 10
20.0987
 20
-13.6625
 30
0.0
 10
20.0987
 20
-13.6625
 30
0.0
 10
20.0987
 20
-13.6625
 30
0.0
 10
20.0988
 20
-14.335
 30
0.0
 10
20.0988
 20
-14.335
 30
0.0
 10
20.0988
 20
-14.335
 30
0.0
 10
20.0988
 20
-14.335
 30
0.0
 10
28.7088
 20
-14.2578
 30
0.0
 10
28.7088
 20
-14.2578
 30
0.0
 10
28.7088
 20
-14.2578
 30
0.0
 10
28.7088
 20
-14.2578
 30
0.0
 10
28.9348
 20
-14.3488
 30
0.0
 10
28.9348
 20
-14.3488
 30
0.0
 10
28.9348
 20
-14.3488
 30
0.0
 10
28.9348
 20
-14.3488
 30
0.0
 10
29.0422
 20
-14.4425
 30
0.0
 10
29.0422
 20
-14.4425
 30
0.0
 10
29.0422
 20
-14.4425
 30
0.0
 10
29.0422
 20
-14.4425
 30
0.0
 10
29.0533
 20
-14.6024
 30
0.0
 10
29.0533
 20
-14.6024
 30
0.0
 10
29.0533
 20
-14.6024
 30
0.0
 10
29.0533
 20
-14.6024
 30
0.0
 10
29.0588
 20
-15.0406
 30
0.0
 10
29.0588
 20
-15.0406
 30
0.0
 10
29.0588
 20
-15.0406
 30
0.0
 10
29.0588
 20
-15.0406
 30
0.0
 10
32.898
 20
-15.0406
 30
0.0
 10
32.898
 20
-15.0406
 30
0.0
  0
SPLINE
  5
79
330
1F
100
AcDbEntity
  8
Ilustrace
 62
   254
100
AcDbSpline
210
0.0
220
0.0
230
1.0
 70
    11
 71
     3
 72
   188
 73
   184
 74
     0
 42
0.0000000001
 43
0.0000000001
 40
0.0
 40
0.0
 40
0.0
 40
0.0
 40
0.0212765957446809
 40
0.0212765957446809
 40
0.0212765957446809
 40
0.0212765957446809
 40
0.0425531914893617
 40
0.0425531914893617
 40
0.0425531914893617
 40
0.0425531914893617
 40
0.0638297872340425
 40
0.0638297872340425
 40
0.0638297872340425
 40
0.0638297872340425
 40
0.0851063829787234
 40
0.0851063829787234
 40
0.0851063829787234
 40
0.0851063829787234
 40
0.1063829787234043
 40
0.1063829787234043
 40
0.1063829787234043
 40
0.1063829787234043
 40
0.1276595744680851
 40
0.1276595744680851
 40
0.1276595744680851
 40
0.1276595744680851
 40
0.148936170212766
 40
0.148936170212766
 40
0.148936170212766
 40
0.148936170212766
 40
0.1702127659574468
 40
0.1702127659574468
 40
0.1702127659574468
 40
0.1702127659574468
 40
0.1914893617021277
 40
0.1914893617021277
 40
0.1914893617021277
 40
0.1914893617021277
 40
0.2127659574468085
 40
0.2127659574468085
 40
0.2127659574468085
 40
0.2127659574468085
 40
0.2340425531914894
 40
0.2340425531914894
 40
0.2340425531914894
 40
0.2340425531914894
 40
0.2553191489361702
 40
0.2553191489361702
 40
0.2553191489361702
 40
0.2553191489361702
 40
0.2765957446808511
 40
0.2765957446808511
 40
0.2765957446808511
 40
0.2765957446808511
 40
0.2978723404255319
 40
0.2978723404255319
 40
0.2978723404255319
 40
0.2978723404255319
 40
0.3191489361702128
 40
0.3191489361702128
 40
0.3191489361702128
 40
0.3191489361702128
 40
0.3404255319148936
 40
0.3404255319148936
 40
0.3404255319148936
 40
0.3404255319148936
 40
0.3617021276595745
 40
0.3617021276595745
 40
0.3617021276595745
 40
0.3617021276595745
 40
0.3829787234042553
 40
0.3829787234042553
 40
0.3829787234042553
 40
0.3829787234042553
 40
0.4042553191489361
 40
0.4042553191489361
 40
0.4042553191489361
 40
0.4042553191489361
 40
0.425531914893617
 40
0.425531914893617
 40
0.425531914893617
 40
0.425531914893617
 40
0.4468085106382979
 40
0.4468085106382979
 40
0.4468085106382979
 40
0.4468085106382979
 40
0.4680851063829787
 40
0.4680851063829787
 40
0.4680851063829787
 40
0.4680851063829787
 40
0.4893617021276596
 40
0.4893617021276596
 40
0.4893617021276596
 40
0.4893617021276596
 40
0.5106382978723404
 40
0.5106382978723404
 40
0.5106382978723404
 40
0.5106382978723404
 40
0.5319148936170213
 40
0.5319148936170213
 40
0.5319148936170213
 40
0.5319148936170213
 40
0.5531914893617021
 40
0.5531914893617021
 40
0.5531914893617021
 40
0.5531914893617021
 40
0.574468085106383
 40
0.574468085106383
 40
0.574468085106383
 40
0.574468085106383
 40
0.5957446808510638
 40
0.5957446808510638
 40
0.5957446808510638
 40
0.5957446808510638
 40
0.6170212765957447
 40
0.6170212765957447
 40
0.6170212765957447
 40
0.6170212765957447
 40
0.6382978723404256
 40
0.6382978723404256
 40
0.6382978723404256
 40
0.6382978723404256
 40
0.6595744680851063
 40
0.6595744680851063
 40
0.6595744680851063
 40
0.6595744680851063
 40
0.6808510638297872
 40
0.6808510638297872
 40
0.6808510638297872
 40
0.6808510638297872
 40
0.7021276595744681
 40
0.7021276595744681
 40
0.7021276595744681
 40
0.7021276595744681
 40
0.723404255319149
 40
0.723404255319149
 40
0.723404255319149
 40
0.723404255319149
 40
0.7446808510638298
 40
0.7446808510638298
 40
0.7446808510638298
 40
0.7446808510638298
 40
0.7659574468085106
 40
0.7659574468085106
 40
0.7659574468085106
 40
0.7659574468085106
 40
0.7872340425531915
 40
0.7872340425531915
 40
0.7872340425531915
 40
0.7872340425531915
 40
0.8085106382978723
 40
0.8085106382978723
 40
0.8085106382978723
 40
0.8085106382978723
 40
0.8297872340425532
 40
0.8297872340425532
 40
0.8297872340425532
 40
0.8297872340425532
 40
0.851063829787234
 40
0.851063829787234
 40
0.851063829787234
 40
0.851063829787234
 40
0.8723404255319149
 40
0.8723404255319149
 40
0.8723404255319149
 40
0.8723404255319149
 40
0.8936170212765957
 40
0.8936170212765957
 40
0.8936170212765957
 40
0.8936170212765957
 40
0.9148936170212766
 40
0.9148936170212766
 40
0.9148936170212766
 40
0.9148936170212766
 40
0.9361702127659575
 40
0.9361702127659575
 40
0.9361702127659575
 40
0.9361702127659575
 40
0.9574468085106383
 40
0.9574468085106383
 40
0.9574468085106383
 40
0.9574468085106383
 40
1.0
 40
1.0
 40
1.0
 40
1.0
 10
62.5482
 20
-14.3571
 30
0.0
 10
62.5482
 20
-14.3571
 30
0.0
 10
62.5482
 20
-14.8387
 30
0.0
 10
62.5482
 20
-14.8387
 30
0.0
 10
62.5482
 20
-14.8387
 30
0.0
 10
62.5482
 20
-14.8387
 30
0.0
 10
62.5482
 20
-16.3291
 30
0.0
 10
62.5482
 20
-16.3291
 30
0.0
 10
62.5482
 20
-16.3291
 30
0.0
 10
62.5482
 20
-16.3291
 30
0.0
 10
62.5482
 20
-16.8106
 30
0.0
 10
62.5482
 20
-16.8106
 30
0.0
 10
62.5482
 20
-16.8106
 30
0.0
 10
62.5557
 20
-17.1267
 30
0.0
 10
62.7596
 20
-17.3988
 30
0.0
 10
63.008
 20
-17.5728
 30
0.0
 10
63.008
 20
-17.5728
 30
0.0
 10
63.2724
 20
-17.7581
 30
0.0
 10
63.5943
 20
-17.7172
 30
0.0
 10
63.8983
 20
-17.7176
 30
0.0
 10
63.8983
 20
-17.7176
 30
0.0
 10
63.8983
 20
-17.7176
 30
0.0
 10
65.9492
 20
-17.7207
 30
0.0
 10
65.9492
 20
-17.7207
 30
0.0
 10
65.9492
 20
-17.7207
 30
0.0
 10
65.9492
 20
-17.7207
 30
0.0
 10
66.4308
 20
-17.7214
 30
0.0
 10
66.4308
 20
-17.7214
 30
0.0
 10
66.4308
 20
-17.7214
 30
0.0
 10
66.4308
 20
-17.7214
 30
0.0
 10
66.4866
 20
-17.7169
 30
0.0
 10
66.4866
 20
-17.7169
 30
0.0
 10
66.4866
 20
-17.7169
 30
0.0
 10
66.7236
 20
-17.6852
 30
0.0
 10
66.9437
 20
-17.5755
 30
0.0
 10
67.1042
 20
-17.3962
 30
0.0
 10
67.1042
 20
-17.3962
 30
0.0
 10
67.1776
 20
-17.3142
 30
0.0
 10
67.2079
 20
-17.2622
 30
0.0
 10
67.2575
 20
-17.1684
 30
0.0
 10
67.2575
 20
-17.1684
 30
0.0
 10
67.3054
 20
-17.0781
 30
0.0
 10
67.3486
 20
-16.956
 30
0.0
 10
67.3504
 20
-16.8526
 30
0.0
 10
67.3504
 20
-16.8526
 30
0.0
 10
67.3884
 20
-14.7146
 30
0.0
 10
67.355
 20
-12.5752
 30
0.0
 10
67.355
 20
-10.4367
 30
0.0
 10
67.355
 20
-10.4367
 30
0.0
 10
67.355
 20
-10.4367
 30
0.0
 10
67.355
 20
4.9482
 30
0.0
 10
67.355
 20
4.9482
 30
0.0
 10
67.355
 20
4.9482
 30
0.0
 10
67.355
 20
4.9482
 30
0.0
 10
67.355
 20
5.4298
 30
0.0
 10
67.355
 20
5.4298
 30
0.0
 10
67.355
 20
5.4298
 30
0.0
 10
67.3451
 20
5.8535
 30
0.0
 10
66.9995
 20
6.247
 30
0.0
 10
66.5887
 20
6.3312
 30
0.0
 10
66.5887
 20
6.3312
 30
0.0
 10
66.5887
 20
6.3312
 30
0.0
 10
66.4773
 20
6.3499
 30
0.0
 10
66.4773
 20
6.3499
 30
0.0
 10
66.4773
 20
6.3499
 30
0.0
 10
66.4773
 20
6.3499
 30
0.0
 10
65.9957
 20
6.3505
 30
0.0
 10
65.9957
 20
6.3505
 30
0.0
 10
65.9957
 20
6.3505
 30
0.0
 10
65.9957
 20
6.3505
 30
0.0
 10
63.9726
 20
6.3537
 30
0.0
 10
63.9726
 20
6.3537
 30
0.0
 10
63.9726
 20
6.3537
 30
0.0
 10
63.7481
 20
6.3541
 30
0.0
 10
63.5325
 20
6.376
 30
0.0
 10
63.3145
 20
6.3312
 30
0.0
 10
63.3145
 20
6.3312
 30
0.0
 10
62.9795
 20
6.2625
 30
0.0
 10
62.7314
 20
6.0114
 30
0.0
 10
62.604
 20
5.7039
 30
0.0
 10
62.604
 20
5.7039
 30
0.0
 10
62.5696
 20
5.6211
 30
0.0
 10
62.5597
 20
5.5316
 30
0.0
 10
62.5482
 20
5.4437
 30
0.0
 10
62.5482
 20
5.4437
 30
0.0
 10
62.5482
 20
5.4437
 30
0.0
 10
62.5482
 20
2.9855
 30
0.0
 10
62.5482
 20
2.9855
 30
0.0
 10
62.5482
 20
2.9855
 30
0.0
 10
62.5482
 20
2.9855
 30
0.0
 10
62.9058
 20
2.9855
 30
0.0
 10
62.9058
 20
2.9855
 30
0.0
 10
62.9058
 20
2.9855
 30
0.0
 10
62.9058
 20
2.9855
 30
0.0
 10
62.9068
 20
3.467
 30
0.0
 10
62.9068
 20
3.467
 30
0.0
 10
62.9068
 20
3.467
 30
0.0
 10
62.9068
 20
3.467
 30
0.0
 10
62.9096
 20
4.9667
 30
0.0
 10
62.9096
 20
4.9667
 30
0.0
 10
62.9096
 20
4.9667
 30
0.0
 10
62.9096
 20
4.9667
 30
0.0
 10
62.9105
 20
5.4483
 30
0.0
 10
62.9105
 20
5.4483
 30
0.0
 10
62.9105
 20
5.4483
 30
0.0
 10
62.9119
 20
5.4909
 30
0.0
 10
62.9385
 20
5.5802
 30
0.0
 10
62.957
 20
5.6202
 30
0.0
 10
62.957
 20
5.6202
 30
0.0
 10
62.9784
 20
5.6672
 30
0.0
 10
63.0135
 20
5.7285
 30
0.0
 10
63.0497
 20
5.769
 30
0.0
 10
63.0497
 20
5.769
 30
0.0
 10
63.1562
 20
5.8877
 30
0.0
 10
63.307
 20
5.988
 30
0.0
 10
63.4724
 20
5.9919
 30
0.0
 10
63.4724
 20
5.9919
 30
0.0
 10
63.4724
 20
5.9919
 30
0.0
 10
63.954
 20
5.9919
 30
0.0
 10
63.954
 20
5.9919
 30
0.0
 10
63.954
 20
5.9919
 30
0.0
 10
63.954
 20
5.9919
 30
0.0
 10
65.9492
 20
5.9919
 30
0.0
 10
65.9492
 20
5.9919
 30
0.0
 10
65.9492
 20
5.9919
 30
0.0
 10
66.2806
 20
5.9919
 30
0.0
 10
66.6095
 20
6.0508
 30
0.0
 10
66.8441
 20
5.7783
 30
0.0
 10
66.8441
 20
5.7783
 30
0.0
 10
66.871
 20
5.7471
 30
0.0
 10
66.9072
 20
5.6969
 30
0.0
 10
66.9278
 20
5.6574
 30
0.0
 10
66.9278
 20
5.6574
 30
0.0
 10
67.0387
 20
5.4457
 30
0.0
 10
66.9927
 20
5.1791
 30
0.0
 10
66.9927
 20
4.9574
 30
0.0
 10
66.9927
 20
4.9574
 30
0.0
 10
66.9927
 20
4.9574
 30
0.0
 10
66.9927
 20
-16.3244
 30
0.0
 10
66.9927
 20
-16.3244
 30
0.0
 10
66.9927
 20
-16.3244
 30
0.0
 10
66.9927
 20
-16.3244
 30
0.0
 10
66.9927
 20
-16.8061
 30
0.0
 10
66.9927
 20
-16.8061
 30
0.0
 10
66.9927
 20
-16.8061
 30
0.0
 10
66.9828
 20
-16.8714
 30
0.0
 10
66.9718
 20
-16.9364
 30
0.0
 10
66.9417
 20
-16.9966
 30
0.0
 10
66.9417
 20
-16.9966
 30
0.0
 10
66.8501
 20
-17.1798
 30
0.0
 10
66.6573
 20
-17.3553
 30
0.0
 10
66.44
 20
-17.359
 30
0.0
 10
66.44
 20
-17.359
 30
0.0
 10
66.44
 20
-17.359
 30
0.0
 10
65.9585
 20
-17.359
 30
0.0
 10
65.9585
 20
-17.359
 30
0.0
 10
65.9585
 20
-17.359
 30
0.0
 10
65.9585
 20
-17.359
 30
0.0
 10
63.9447
 20
-17.359
 30
0.0
 10
63.9447
 20
-17.359
 30
0.0
 10
63.9447
 20
-17.359
 30
0.0
 10
63.7273
 20
-17.359
 30
0.0
 10
63.3473
 20
-17.4193
 30
0.0
 10
63.1474
 20
-17.2336
 30
0.0
 10
63.1474
 20
-17.2336
 30
0.0
 10
63.046
 20
-17.1394
 30
0.0
 10
62.9194
 20
-16.9984
 30
0.0
 10
62.9151
 20
-16.8478
 30
0.0
 10
62.9151
 20
-16.8478
 30
0.0
 10
62.9151
 20
-16.8478
 30
0.0
 10
62.9133
 20
-16.3662
 30
0.0
 10
62.9133
 20
-16.3662
 30
0.0
 10
62.9133
 20
-16.3662
 30
0.0
 10
62.9133
 20
-16.3662
 30
0.0
 10
62.9076
 20
-14.8387
 30
0.0
 10
62.9076
 20
-14.8387
 30
0.0
 10
62.9076
 20
-14.8387
 30
0.0
 10
62.9076
 20
-14.8387
 30
0.0
 10
62.9058
 20
-14.3571
 30
0.0
 10
62.9058
 20
-14.3571
 30
0.0
 10
62.9058
 20
-14.3571
 30
0.0
 10
62.9058
 20
-14.3571
 30
0.0
 10
62.5482
 20
-14.3571
 30
0.0
 10
62.5482
 20
-14.3571
 30
0.0
  0
SPLINE
  5
7A
330
1F
100
AcDbEntity
  8
Ilustrace
 62
   250
370
    30
100
AcDbSpline
210
0.0
220
0.0
230
1.0
 70
    24
 71
     3
 72
     8
 73
     4
 74
     0
 42
0.0000000001
 43
0.0000000001
 40
0.0
 40
0.0
 40
0.0
 40
0.0
 40
1.0
 40
1.0
 40
1.0
 40
1.0
 10
62.5412
 20
2.9855
 30
0.0
 10
62.5412
 20
2.9855
 30
0.0
 10
62.9024
 20
2.9855
 30
0.0
 10
62.9024
 20
2.9855
 30
0.0
  0
SPLINE
  5
7B
330
1F
100
AcDbEntity
  8
Ilustrace
 62
   250
370
    30
100
AcDbSpline
210
0.0
220
0.0
230
1.0
 70
    24
 71
     3
 72
     8
 73
     4
 74
     0
 42
0.0000000001
 43
0.0000000001
 40
0.0
 40
0.0
 40
0.0
 40
0.0
 40
1.0
 40
1.0
 40
1.0
 40
1.0
 10
62.9024
 20
-14.3525
 30
0.0
 10
62.9024
 20
-14.3525
 30
0.0
 10
62.5412
 20
-14.3525
 30
0.0
 10
62.5412
 20
-14.3525
 30
0.0
  0
SPLINE
  5
7C
330
1F
100
AcDbEntity
  8
Ilustrace
 62
   250
370
    30
100
AcDbSpline
210
0.0
220
0.0
230
1.0
 70
    24
 71
     3
 72
     8
 73
     4
 74
     0
 42
0.0000000001
 43
0.0000000001
 40
0.0
 40
0.0
 40
0.0
 40
0.0
 40
1.0
 40
1.0
 40
1.0
 40
1.0
 10
62.9024
 20
-14.3525
 30
0.0
 10
62.9024
 20
-14.3525
 30
0.0
 10
62.9024
 20
-14.423
 30
0.0
 10
62.9024
 20
-14.423
 30
0.0
  0
SPLINE
  5
7D
330
1F
100
AcDbEntity
  8
Ilustrace
 62
   250
370
    30
100
AcDbSpline
210
0.0
220
0.0
230
1.0
 70
    24
 71
     3
 72
     8
 73
     4
 74
     0
 42
0.0000000001
 43
0.0000000001
 40
0.0
 40
0.0
 40
0.0
 40
0.0
 40
1.0
 40
1.0
 40
1.0
 40
1.0
 10
62.9024
 20
-14.3533
 30
0.0
 10
62.9024
 20
-14.3533
 30
0.0
 10
62.9024
 20
-14.4161
 30
0.0
 10
62.9024
 20
-14.4161
 30
0.0
  0
SPLINE
  5
7E
330
1F
100
AcDbEntity
  8
Ilustrace
 62
   250
370
    30
100
AcDbSpline
210
0.0
220
0.0
230
1.0
 70
     8
 71
     3
 72
    16
 73
    12
 74
     0
 42
0.0000000001
 43
0.0000000001
 40
0.0
 40
0.0
 40
0.0
 40
0.0
 40
0.25
 40
0.25
 40
0.25
 40
0.25
 40
0.5
 40
0.5
 40
0.5
 40
0.5
 40
1.0
 40
1.0
 40
1.0
 40
1.0
 10
64.0026
 20
-17.7238
 30
0.0
 10
63.8148
 20
-17.7238
 30
0.0
 10
63.5622
 20
-17.745
 30
0.0
 10
63.3572
 20
-17.7088
 30
0.0
 10
63.3572
 20
-17.7088
 30
0.0
 10
62.973
 20
-17.6412
 30
0.0
 10
62.6578
 20
-17.3436
 30
0.0
 10
62.5678
 20
-16.9642
 30
0.0
 10
62.5678
 20
-16.9642
 30
0.0
 10
62.5147
 20
-16.7398
 30
0.0
 10
62.5412
 20
-16.469
 30
0.0
 10
62.5412
 20
-16.2549
 30
0.0
  0
SPLINE
  5
7F
330
1F
100
AcDbEntity
  8
Ilustrace
 62
   250
370
    30
100
AcDbSpline
210
0.0
220
0.0
230
1.0
 70
    24
 71
     3
 72
    12
 73
     8
 74
     0
 42
0.0000000001
 43
0.0000000001
 40
0.0
 40
0.0
 40
0.0
 40
0.0
 40
0.3333333333333333
 40
0.3333333333333333
 40
0.3333333333333333
 40
0.3333333333333333
 40
1.0
 40
1.0
 40
1.0
 40
1.0
 10
62.5412
 20
-16.2549
 30
0.0
 10
62.5412
 20
-16.2549
 30
0.0
 10
62.5412
 20
-14.835
 30
0.0
 10
62.5412
 20
-14.835
 30
0.0
 10
62.5412
 20
-14.835
 30
0.0
 10
62.5412
 20
-14.835
 30
0.0
 10
62.5412
 20
-14.3533
 30
0.0
 10
62.5412
 20
-14.3533
 30
0.0
  0
SPLINE
  5
80
330
1F
100
AcDbEntity
  8
Ilustrace
 62
   250
370
    30
100
AcDbSpline
210
0.0
220
0.0
230
1.0
 70
    24
 71
     3
 72
     8
 73
     4
 74
     0
 42
0.0000000001
 43
0.0000000001
 40
0.0
 40
0.0
 40
0.0
 40
0.0
 40
1.0
 40
1.0
 40
1.0
 40
1.0
 10
64.9493
 20
-17.7238
 30
0.0
 10
64.9493
 20
-17.7238
 30
0.0
 10
64.0102
 20
-17.7238
 30
0.0
 10
64.0102
 20
-17.7238
 30
0.0
  0
SPLINE
  5
81
330
1F
100
AcDbEntity
  8
Ilustrace
 62
   250
370
    30
100
AcDbSpline
210
0.0
220
0.0
230
1.0
 70
     8
 71
     3
 72
     8
 73
     4
 74
     0
 42
0.0000000001
 43
0.0000000001
 40
0.0
 40
0.0
 40
0.0
 40
0.0
 40
1.0
 40
1.0
 40
1.0
 40
1.0
 10
64.0102
 20
-17.7238
 30
0.0
 10
63.9608
 20
-17.7238
 30
0.0
 10
63.4062
 20
-17.7455
 30
0.0
 10
63.2699
 20
-17.689
 30
0.0
  0
SPLINE
  5
82
330
1F
100
AcDbEntity
  8
Ilustrace
 62
   250
370
    30
100
AcDbSpline
210
0.0
220
0.0
230
1.0
 70
    24
 71
     3
 72
     8
 73
     4
 74
     0
 42
0.0000000001
 43
0.0000000001
 40
0.0
 40
0.0
 40
0.0
 40
0.0
 40
1.0
 40
1.0
 40
1.0
 40
1.0
 10
62.8284
 20
6.0652
 30
0.0
 10
62.8284
 20
6.0652
 30
0.0
 10
63.0349
 20
6.2246
 30
0.0
 10
63.0349
 20
6.2246
 30
0.0
  0
SPLINE
  5
83
330
1F
100
AcDbEntity
  8
Ilustrace
 62
   250
370
    30
100
AcDbSpline
210
0.0
220
0.0
230
1.0
 70
     8
 71
     3
 72
     8
 73
     4
 74
     0
 42
0.0000000001
 43
0.0000000001
 40
0.0
 40
0.0
 40
0.0
 40
0.0
 40
1.0
 40
1.0
 40
1.0
 40
1.0
 10
63.0349
 20
6.2246
 30
0.0
 10
63.2949
 20
6.4124
 30
0.0
 10
63.7332
 20
6.3568
 30
0.0
 10
64.0102
 20
6.3568
 30
0.0
  0
SPLINE
  5
84
330
1F
100
AcDbEntity
  8
Ilustrace
 62
   250
370
    30
100
AcDbSpline
210
0.0
220
0.0
230
1.0
 70
    24
 71
     3
 72
     8
 73
     4
 74
     0
 42
0.0000000001
 43
0.0000000001
 40
0.0
 40
0.0
 40
0.0
 40
0.0
 40
1.0
 40
1.0
 40
1.0
 40
1.0
 10
64.0102
 20
6.3568
 30
0.0
 10
64.0102
 20
6.3568
 30
0.0
 10
65.8884
 20
6.3568
 30
0.0
 10
65.8884
 20
6.3568
 30
0.0
  0
SPLINE
  5
85
330
1F
100
AcDbEntity
  8
Ilustrace
 62
   250
370
    30
100
AcDbSpline
210
0.0
220
0.0
230
1.0
 70
     8
 71
     3
 72
    16
 73
    12
 74
     0
 42
0.0000000001
 43
0.0000000001
 40
0.0
 40
0.0
 40
0.0
 40
0.0
 40
0.25
 40
0.25
 40
0.25
 40
0.25
 40
0.5
 40
0.5
 40
0.5
 40
0.5
 40
1.0
 40
1.0
 40
1.0
 40
1.0
 10
65.8884
 20
6.3568
 30
0.0
 10
66.0773
 20
6.3568
 30
0.0
 10
66.3343
 20
6.3783
 30
0.0
 10
66.5416
 20
6.3418
 30
0.0
 10
66.5416
 20
6.3418
 30
0.0
 10
66.9256
 20
6.2741
 30
0.0
 10
67.2409
 20
5.9767
 30
0.0
 10
67.3308
 20
5.5973
 30
0.0
 10
67.3308
 20
5.5973
 30
0.0
 10
67.3839
 20
5.3728
 30
0.0
 10
67.3574
 20
5.102
 30
0.0
 10
67.3574
 20
4.8879
 30
0.0
  0
SPLINE
  5
86
330
1F
100
AcDbEntity
  8
Ilustrace
 62
   250
370
    30
100
AcDbSpline
210
0.0
220
0.0
230
1.0
 70
    24
 71
     3
 72
    12
 73
     8
 74
     0
 42
0.0000000001
 43
0.0000000001
 40
0.0
 40
0.0
 40
0.0
 40
0.0
 40
0.3333333333333333
 40
0.3333333333333333
 40
0.3333333333333333
 40
0.3333333333333333
 40
1.0
 40
1.0
 40
1.0
 40
1.0
 10
67.3574
 20
4.8879
 30
0.0
 10
67.3574
 20
4.8879
 30
0.0
 10
67.3574
 20
-16.2548
 30
0.0
 10
67.3574
 20
-16.2548
 30
0.0
 10
67.3574
 20
-16.2548
 30
0.0
 10
67.3574
 20
-16.2548
 30
0.0
 10
67.3574
 20
-16.7365
 30
0.0
 10
67.3574
 20
-16.7365
 30
0.0
  0
SPLINE
  5
87
330
1F
100
AcDbEntity
  8
Ilustrace
 62
   250
370
    30
100
AcDbSpline
210
0.0
220
0.0
230
1.0
 70
     8
 71
     3
 72
    12
 73
     8
 74
     0
 42
0.0000000001
 43
0.0000000001
 40
0.0
 40
0.0
 40
0.0
 40
0.0
 40
0.3333333333333333
 40
0.3333333333333333
 40
0.3333333333333333
 40
0.3333333333333333
 40
1.0
 40
1.0
 40
1.0
 40
1.0
 10
67.3574
 20
-16.7365
 30
0.0
 10
67.3443
 20
-17.1795
 30
0.0
 10
67.0644
 20
-17.5726
 30
0.0
 10
66.6256
 20
-17.6902
 30
0.0
 10
66.6256
 20
-17.6902
 30
0.0
 10
66.4218
 20
-17.7447
 30
0.0
 10
66.0619
 20
-17.7238
 30
0.0
 10
65.8884
 20
-17.7238
 30
0.0
  0
SPLINE
  5
88
330
1F
100
AcDbEntity
  8
Ilustrace
 62
   250
370
    30
100
AcDbSpline
210
0.0
220
0.0
230
1.0
 70
    24
 71
     3
 72
    12
 73
     8
 74
     0
 42
0.0000000001
 43
0.0000000001
 40
0.0
 40
0.0
 40
0.0
 40
0.0
 40
0.3333333333333333
 40
0.3333333333333333
 40
0.3333333333333333
 40
0.3333333333333333
 40
1.0
 40
1.0
 40
1.0
 40
1.0
 10
65.8884
 20
-17.7238
 30
0.0
 10
65.8884
 20
-17.7238
 30
0.0
 10
65.0163
 20
-17.7238
 30
0.0
 10
65.0163
 20
-17.7238
 30
0.0
 10
65.0163
 20
-17.7238
 30
0.0
 10
65.0163
 20
-17.7238
 30
0.0
 10
64.5348
 20
-17.7238
 30
0.0
 10
64.5348
 20
-17.7238
 30
0.0
  0
SPLINE
  5
89
330
1F
100
AcDbEntity
  8
Ilustrace
 62
   250
370
    30
100
AcDbSpline
210
0.0
220
0.0
230
1.0
 70
     8
 71
     3
 72
    16
 73
    12
 74
     0
 42
0.0000000001
 43
0.0000000001
 40
0.0
 40
0.0
 40
0.0
 40
0.0
 40
0.25
 40
0.25
 40
0.25
 40
0.25
 40
0.5
 40
0.5
 40
0.5
 40
0.5
 40
1.0
 40
1.0
 40
1.0
 40
1.0
 10
66.9751
 20
-16.8965
 30
0.0
 10
66.9751
 20
-16.8965
 30
0.0
 10
66.9962
 20
-16.7365
 30
0.0
 10
66.9962
 20
-16.7365
 30
0.0
 10
66.9962
 20
-16.7365
 30
0.0
 10
66.9962
 20
-16.7365
 30
0.0
 10
66.9962
 20
-16.2548
 30
0.0
 10
66.9962
 20
-16.2548
 30
0.0
 10
66.9962
 20
-16.2548
 30
0.0
 10
66.9962
 20
-16.2548
 30
0.0
 10
66.9962
 20
4.8879
 30
0.0
 10
66.9962
 20
4.8879
 30
0.0
  0
SPLINE
  5
8A
330
1F
100
AcDbEntity
  8
Ilustrace
 62
   250
370
    30
100
AcDbSpline
210
0.0
220
0.0
230
1.0
 70
     8
 71
     3
 72
     8
 73
     4
 74
     0
 42
0.0000000001
 43
0.0000000001
 40
0.0
 40
0.0
 40
0.0
 40
0.0
 40
1.0
 40
1.0
 40
1.0
 40
1.0
 10
66.9962
 20
4.8879
 30
0.0
 10
66.9962
 20
5.0614
 30
0.0
 10
67.0552
 20
5.4845
 30
0.0
 10
66.9122
 20
5.6826
 30
0.0
  0
SPLINE
  5
8B
330
1F
100
AcDbEntity
  8
Ilustrace
 62
   250
370
    30
100
AcDbSpline
210
0.0
220
0.0
230
1.0
 70
    24
 71
     3
 72
     8
 73
     4
 74
     0
 42
0.0000000001
 43
0.0000000001
 40
0.0
 40
0.0
 40
0.0
 40
0.0
 40
1.0
 40
1.0
 40
1.0
 40
1.0
 10
66.9122
 20
5.6826
 30
0.0
 10
66.9122
 20
5.6826
 30
0.0
 10
66.8141
 20
5.8105
 30
0.0
 10
66.8141
 20
5.8105
 30
0.0
  0
SPLINE
  5
8C
330
1F
100
AcDbEntity
  8
Ilustrace
 62
   250
370
    30
100
AcDbSpline
210
0.0
220
0.0
230
1.0
 70
     8
 71
     3
 72
    12
 73
     8
 74
     0
 42
0.0000000001
 43
0.0000000001
 40
0.0
 40
0.0
 40
0.0
 40
0.0
 40
0.3333333333333333
 40
0.3333333333333333
 40
0.3333333333333333
 40
0.3333333333333333
 40
1.0
 40
1.0
 40
1.0
 40
1.0
 10
62.9235
 20
5.5295
 30
0.0
 10
62.9235
 20
5.5295
 30
0.0
 10
62.9024
 20
5.3695
 30
0.0
 10
62.9024
 20
5.3695
 30
0.0
 10
62.9024
 20
5.3695
 30
0.0
 10
62.9024
 20
5.3695
 30
0.0
 10
62.9024
 20
2.9855
 30
0.0
 10
62.9024
 20
2.9855
 30
0.0
  0
SPLINE
  5
8D
330
1F
100
AcDbEntity
  8
Ilustrace
 62
   250
370
    30
100
AcDbSpline
210
0.0
220
0.0
230
1.0
 70
     8
 71
     3
 72
    12
 73
     8
 74
     0
 42
0.0000000001
 43
0.0000000001
 40
0.0
 40
0.0
 40
0.0
 40
0.0
 40
0.3333333333333333
 40
0.3333333333333333
 40
0.3333333333333333
 40
0.3333333333333333
 40
1.0
 40
1.0
 40
1.0
 40
1.0
 10
66.974
 20
5.5335
 30
0.0
 10
66.9392
 20
5.6174
 30
0.0
 10
66.9221
 20
5.6765
 30
0.0
 10
66.8722
 20
5.7434
 30
0.0
 10
66.8722
 20
5.7434
 30
0.0
 10
66.6349
 20
6.0624
 30
0.0
 10
66.242
 20
5.9956
 30
0.0
 10
65.8884
 20
5.9956
 30
0.0
  0
SPLINE
  5
8E
330
1F
100
AcDbEntity
  8
Ilustrace
 62
   250
370
    30
100
AcDbSpline
210
0.0
220
0.0
230
1.0
 70
     8
 71
     3
 72
    16
 73
    12
 74
     0
 42
0.0000000001
 43
0.0000000001
 40
0.0
 40
0.0
 40
0.0
 40
0.0
 40
0.25
 40
0.25
 40
0.25
 40
0.25
 40
0.5
 40
0.5
 40
0.5
 40
0.5
 40
1.0
 40
1.0
 40
1.0
 40
1.0
 10
65.8884
 20
5.9956
 30
0.0
 10
65.8884
 20
5.9956
 30
0.0
 10
64.0102
 20
5.9956
 30
0.0
 10
64.0102
 20
5.9956
 30
0.0
 10
64.0102
 20
5.9956
 30
0.0
 10
64.0102
 20
5.9956
 30
0.0
 10
63.5285
 20
5.9956
 30
0.0
 10
63.5285
 20
5.9956
 30
0.0
 10
63.5285
 20
5.9956
 30
0.0
 10
63.5285
 20
5.9956
 30
0.0
 10
63.3684
 20
5.9745
 30
0.0
 10
63.3684
 20
5.9745
 30
0.0
  0
SPLINE
  5
8F
330
1F
100
AcDbEntity
  8
Ilustrace
 62
   250
370
    30
100
AcDbSpline
210
0.0
220
0.0
230
1.0
 70
     8
 71
     3
 72
     8
 73
     4
 74
     0
 42
0.0000000001
 43
0.0000000001
 40
0.0
 40
0.0
 40
0.0
 40
0.0
 40
1.0
 40
1.0
 40
1.0
 40
1.0
 10
62.8329
 20
6.0695
 30
0.0
 10
62.6319
 20
5.9152
 30
0.0
 10
62.5483
 20
5.6102
 30
0.0
 10
62.5412
 20
5.3695
 30
0.0
  0
SPLINE
  5
90
330
1F
100
AcDbEntity
  8
Ilustrace
 62
   250
370
    30
100
AcDbSpline
210
0.0
220
0.0
230
1.0
 70
    24
 71
     3
 72
     8
 73
     4
 74
     0
 42
0.0000000001
 43
0.0000000001
 40
0.0
 40
0.0
 40
0.0
 40
0.0
 40
1.0
 40
1.0
 40
1.0
 40
1.0
 10
62.5412
 20
5.3695
 30
0.0
 10
62.5412
 20
5.3695
 30
0.0
 10
62.5412
 20
2.9855
 30
0.0
 10
62.5412
 20
2.9855
 30
0.0
  0
SPLINE
  5
91
330
1F
100
AcDbEntity
  8
Ilustrace
 62
   250
370
    30
100
AcDbSpline
210
0.0
220
0.0
230
1.0
 70
    24
 71
     3
 72
     8
 73
     4
 74
     0
 42
0.0000000001
 43
0.0000000001
 40
0.0
 40
0.0
 40
0.0
 40
0.0
 40
1.0
 40
1.0
 40
1.0
 40
1.0
 10
62.5744
 20
5.6219
 30
0.0
 10
62.5744
 20
5.6219
 30
0.0
 10
62.6736
 20
5.8632
 30
0.0
 10
62.6736
 20
5.8632
 30
0.0
  0
SPLINE
  5
92
330
1F
100
AcDbEntity
  8
Ilustrace
 62
   250
370
    30
100
AcDbSpline
210
0.0
220
0.0
230
1.0
 70
     8
 71
     3
 72
     8
 73
     4
 74
     0
 42
0.0000000001
 43
0.0000000001
 40
0.0
 40
0.0
 40
0.0
 40
0.0
 40
1.0
 40
1.0
 40
1.0
 40
1.0
 10
62.6736
 20
5.8632
 30
0.0
 10
62.7357
 20
6.0017
 30
0.0
 10
62.8963
 20
6.1625
 30
0.0
 10
63.0349
 20
6.2246
 30
0.0
  0
SPLINE
  5
93
330
1F
100
AcDbEntity
  8
Ilustrace
 62
   250
370
    30
100
AcDbSpline
210
0.0
220
0.0
230
1.0
 70
    24
 71
     3
 72
     8
 73
     4
 74
     0
 42
0.0000000001
 43
0.0000000001
 40
0.0
 40
0.0
 40
0.0
 40
0.0
 40
1.0
 40
1.0
 40
1.0
 40
1.0
 10
63.0349
 20
6.2246
 30
0.0
 10
63.0349
 20
6.2246
 30
0.0
 10
63.2761
 20
6.3235
 30
0.0
 10
63.2761
 20
6.3235
 30
0.0
  0
SPLINE
  5
94
330
1F
100
AcDbEntity
  8
Ilustrace
 62
   250
370
    30
100
AcDbSpline
210
0.0
220
0.0
230
1.0
 70
    24
 71
     3
 72
     8
 73
     4
 74
     0
 42
0.0000000001
 43
0.0000000001
 40
0.0
 40
0.0
 40
0.0
 40
0.0
 40
1.0
 40
1.0
 40
1.0
 40
1.0
 10
62.9245
 20
5.5335
 30
0.0
 10
62.9245
 20
5.5335
 30
0.0
 10
62.9864
 20
5.6826
 30
0.0
 10
62.9864
 20
5.6826
 30
0.0
  0
SPLINE
  5
95
330
1F
100
AcDbEntity
  8
Ilustrace
 62
   250
370
    30
100
AcDbSpline
210
0.0
220
0.0
230
1.0
 70
     8
 71
     3
 72
     8
 73
     4
 74
     0
 42
0.0000000001
 43
0.0000000001
 40
0.0
 40
0.0
 40
0.0
 40
0.0
 40
1.0
 40
1.0
 40
1.0
 40
1.0
 10
62.9864
 20
5.6826
 30
0.0
 10
63.0559
 20
5.8377
 30
0.0
 10
63.2196
 20
5.9134
 30
0.0
 10
63.3647
 20
5.9734
 30
0.0
  0
SPLINE
  5
96
330
1F
100
AcDbEntity
  8
Ilustrace
 62
   250
370
    30
100
AcDbSpline
210
0.0
220
0.0
230
1.0
 70
    24
 71
     3
 72
     8
 73
     4
 74
     0
 42
0.0000000001
 43
0.0000000001
 40
0.0
 40
0.0
 40
0.0
 40
0.0
 40
1.0
 40
1.0
 40
1.0
 40
1.0
 10
63.0874
 20
5.8134
 30
0.0
 10
63.0874
 20
5.8134
 30
0.0
 10
63.2156
 20
5.9118
 30
0.0
 10
63.2156
 20
5.9118
 30
0.0
  0
SPLINE
  5
97
330
1F
100
AcDbEntity
  8
Ilustrace
 62
   250
370
    30
100
AcDbSpline
210
0.0
220
0.0
230
1.0
 70
     8
 71
     3
 72
     8
 73
     4
 74
     0
 42
0.0000000001
 43
0.0000000001
 40
0.0
 40
0.0
 40
0.0
 40
0.0
 40
1.0
 40
1.0
 40
1.0
 40
1.0
 10
63.2156
 20
5.9118
 30
0.0
 10
63.3964
 20
6.0423
 30
0.0
 10
63.7367
 20
5.9956
 30
0.0
 10
63.9157
 20
5.9955
 30
0.0
  0
SPLINE
  5
98
330
1F
100
AcDbEntity
  8
Ilustrace
 62
   250
370
    30
100
AcDbSpline
210
0.0
220
0.0
230
1.0
 70
    24
 71
     3
 72
     8
 73
     4
 74
     0
 42
0.0000000001
 43
0.0000000001
 40
0.0
 40
0.0
 40
0.0
 40
0.0
 40
1.0
 40
1.0
 40
1.0
 40
1.0
 10
63.9157
 20
5.9955
 30
0.0
 10
63.9157
 20
5.9955
 30
0.0
 10
64.303
 20
5.9955
 30
0.0
 10
64.303
 20
5.9955
 30
0.0
  0
SPLINE
  5
99
330
1F
100
AcDbEntity
  8
Ilustrace
 62
   250
370
    30
100
AcDbSpline
210
0.0
220
0.0
230
1.0
 70
    24
 71
     3
 72
     8
 73
     4
 74
     0
 42
0.0000000001
 43
0.0000000001
 40
0.0
 40
0.0
 40
0.0
 40
0.0
 40
1.0
 40
1.0
 40
1.0
 40
1.0
 10
66.8141
 20
-17.1775
 30
0.0
 10
66.8141
 20
-17.1775
 30
0.0
 10
66.9122
 20
-17.0496
 30
0.0
 10
66.9122
 20
-17.0496
 30
0.0
  0
SPLINE
  5
9A
330
1F
100
AcDbEntity
  8
Ilustrace
 62
   250
370
    30
100
AcDbSpline
210
0.0
220
0.0
230
1.0
 70
     8
 71
     3
 72
     8
 73
     4
 74
     0
 42
0.0000000001
 43
0.0000000001
 40
0.0
 40
0.0
 40
0.0
 40
0.0
 40
1.0
 40
1.0
 40
1.0
 40
1.0
 10
66.9122
 20
-17.0496
 30
0.0
 10
67.0552
 20
-16.8514
 30
0.0
 10
66.9962
 20
-16.4282
 30
0.0
 10
66.9962
 20
-16.2548
 30
0.0
  0
SPLINE
  5
9B
330
1F
100
AcDbEntity
  8
Ilustrace
 62
   250
370
    30
100
AcDbSpline
210
0.0
220
0.0
230
1.0
 70
     8
 71
     3
 72
    12
 73
     8
 74
     0
 42
0.0000000001
 43
0.0000000001
 40
0.0
 40
0.0
 40
0.0
 40
0.0
 40
0.3333333333333333
 40
0.3333333333333333
 40
0.3333333333333333
 40
0.3333333333333333
 40
1.0
 40
1.0
 40
1.0
 40
1.0
 10
66.9962
 20
-16.2548
 30
0.0
 10
66.9962
 20
-16.2548
 30
0.0
 10
66.9961
 20
-11.4628
 30
0.0
 10
66.9961
 20
-11.4628
 30
0.0
 10
66.9961
 20
-11.4628
 30
0.0
 10
66.9961
 20
-11.4628
 30
0.0
 10
66.9961
 20
-10.9813
 30
0.0
 10
66.9961
 20
-10.9813
 30
0.0
  0
SPLINE
  5
9C
330
1F
100
AcDbEntity
  8
Ilustrace
 62
   250
370
    30
100
AcDbSpline
210
0.0
220
0.0
230
1.0
 70
     8
 71
     3
 72
     8
 73
     4
 74
     0
 42
0.0000000001
 43
0.0000000001
 40
0.0
 40
0.0
 40
0.0
 40
0.0
 40
1.0
 40
1.0
 40
1.0
 40
1.0
 10
63.3647
 20
-17.3404
 30
0.0
 10
63.2196
 20
-17.2803
 30
0.0
 10
63.0559
 20
-17.2047
 30
0.0
 10
62.9864
 20
-17.0496
 30
0.0
  0
SPLINE
  5
9D
330
1F
100
AcDbEntity
  8
Ilustrace
 62
   250
370
    30
100
AcDbSpline
210
0.0
220
0.0
230
1.0
 70
    24
 71
     3
 72
     8
 73
     4
 74
     0
 42
0.0000000001
 43
0.0000000001
 40
0.0
 40
0.0
 40
0.0
 40
0.0
 40
1.0
 40
1.0
 40
1.0
 40
1.0
 10
62.9864
 20
-17.0496
 30
0.0
 10
62.9864
 20
-17.0496
 30
0.0
 10
62.9245
 20
-16.9004
 30
0.0
 10
62.9245
 20
-16.9004
 30
0.0
  0
SPLINE
  5
9E
330
1F
100
AcDbEntity
  8
Ilustrace
 62
   250
370
    30
100
AcDbSpline
210
0.0
220
0.0
230
1.0
 70
     8
 71
     3
 72
     8
 73
     4
 74
     0
 42
0.0000000001
 43
0.0000000001
 40
0.0
 40
0.0
 40
0.0
 40
0.0
 40
1.0
 40
1.0
 40
1.0
 40
1.0
 10
66.8112
 20
-17.1805
 30
0.0
 10
66.6676
 20
-17.2906
 30
0.0
 10
66.552
 20
-17.3573
 30
0.0
 10
66.3701
 20
-17.3625
 30
0.0
  0
SPLINE
  5
9F
330
1F
100
AcDbEntity
  8
Ilustrace
 62
   250
370
    30
100
AcDbSpline
210
0.0
220
0.0
230
1.0
 70
    24
 71
     3
 72
     8
 73
     4
 74
     0
 42
0.0000000001
 43
0.0000000001
 40
0.0
 40
0.0
 40
0.0
 40
0.0
 40
1.0
 40
1.0
 40
1.0
 40
1.0
 10
66.974
 20
-16.9004
 30
0.0
 10
66.974
 20
-16.9004
 30
0.0
 10
66.9122
 20
-17.0496
 30
0.0
 10
66.9122
 20
-17.0496
 30
0.0
  0
SPLINE
  5
A0
330
1F
100
AcDbEntity
  8
Ilustrace
 62
   250
370
    30
100
AcDbSpline
210
0.0
220
0.0
230
1.0
 70
     8
 71
     3
 72
     8
 73
     4
 74
     0
 42
0.0000000001
 43
0.0000000001
 40
0.0
 40
0.0
 40
0.0
 40
0.0
 40
1.0
 40
1.0
 40
1.0
 40
1.0
 10
66.9122
 20
-17.0496
 30
0.0
 10
66.8426
 20
-17.2047
 30
0.0
 10
66.6791
 20
-17.2803
 30
0.0
 10
66.5339
 20
-17.3404
 30
0.0
  0
SPLINE
  5
A1
330
1F
100
AcDbEntity
  8
Ilustrace
 62
   250
370
    30
100
AcDbSpline
210
0.0
220
0.0
230
1.0
 70
    24
 71
     3
 72
     8
 73
     4
 74
     0
 42
0.0000000001
 43
0.0000000001
 40
0.0
 40
0.0
 40
0.0
 40
0.0
 40
1.0
 40
1.0
 40
1.0
 40
1.0
 10
63.0846
 20
-17.1777
 30
0.0
 10
63.0846
 20
-17.1777
 30
0.0
 10
62.9864
 20
-17.0496
 30
0.0
 10
62.9864
 20
-17.0496
 30
0.0
  0
SPLINE
  5
A2
330
1F
100
AcDbEntity
  8
Ilustrace
 62
   250
370
    30
100
AcDbSpline
210
0.0
220
0.0
230
1.0
 70
     8
 71
     3
 72
     8
 73
     4
 74
     0
 42
0.0000000001
 43
0.0000000001
 40
0.0
 40
0.0
 40
0.0
 40
0.0
 40
1.0
 40
1.0
 40
1.0
 40
1.0
 10
62.9864
 20
-17.0496
 30
0.0
 10
62.8434
 20
-16.8515
 30
0.0
 10
62.9024
 20
-16.4282
 30
0.0
 10
62.9024
 20
-16.2549
 30
0.0
  0
SPLINE
  5
A3
330
1F
100
AcDbEntity
  8
Ilustrace
 62
   250
370
    30
100
AcDbSpline
210
0.0
220
0.0
230
1.0
 70
    24
 71
     3
 72
    12
 73
     8
 74
     0
 42
0.0000000001
 43
0.0000000001
 40
0.0
 40
0.0
 40
0.0
 40
0.0
 40
0.3333333333333333
 40
0.3333333333333333
 40
0.3333333333333333
 40
0.3333333333333333
 40
1.0
 40
1.0
 40
1.0
 40
1.0
 10
62.9024
 20
-16.2549
 30
0.0
 10
62.9024
 20
-16.2549
 30
0.0
 10
62.9024
 20
-14.835
 30
0.0
 10
62.9024
 20
-14.835
 30
0.0
 10
62.9024
 20
-14.835
 30
0.0
 10
62.9024
 20
-14.835
 30
0.0
 10
62.9024
 20
-14.3533
 30
0.0
 10
62.9024
 20
-14.3533
 30
0.0
  0
SPLINE
  5
A4
330
1F
100
AcDbEntity
  8
Ilustrace
 62
   250
370
    30
100
AcDbSpline
210
0.0
220
0.0
230
1.0
 70
     8
 71
     3
 72
    16
 73
    12
 74
     0
 42
0.0000000001
 43
0.0000000001
 40
0.0
 40
0.0
 40
0.0
 40
0.0
 40
0.25
 40
0.25
 40
0.25
 40
0.25
 40
0.5
 40
0.5
 40
0.5
 40
0.5
 40
1.0
 40
1.0
 40
1.0
 40
1.0
 10
66.53
 20
-17.3415
 30
0.0
 10
66.53
 20
-17.3415
 30
0.0
 10
66.3701
 20
-17.3625
 30
0.0
 10
66.3701
 20
-17.3625
 30
0.0
 10
66.3701
 20
-17.3625
 30
0.0
 10
66.3701
 20
-17.3625
 30
0.0
 10
65.8884
 20
-17.3625
 30
0.0
 10
65.8884
 20
-17.3625
 30
0.0
 10
65.8884
 20
-17.3625
 30
0.0
 10
65.8884
 20
-17.3625
 30
0.0
 10
64.0102
 20
-17.3625
 30
0.0
 10
64.0102
 20
-17.3625
 30
0.0
  0
SPLINE
  5
A5
330
1F
100
AcDbEntity
  8
Ilustrace
 62
   250
370
    30
100
AcDbSpline
210
0.0
220
0.0
230
1.0
 70
     8
 71
     3
 72
     8
 73
     4
 74
     0
 42
0.0000000001
 43
0.0000000001
 40
0.0
 40
0.0
 40
0.0
 40
0.0
 40
1.0
 40
1.0
 40
1.0
 40
1.0
 10
64.0102
 20
-17.3625
 30
0.0
 10
63.8368
 20
-17.3625
 30
0.0
 10
63.4137
 20
-17.4217
 30
0.0
 10
63.2156
 20
-17.2787
 30
0.0
  0
SPLINE
  5
A6
330
1F
100
AcDbEntity
  8
Ilustrace
 62
   250
370
    30
100
AcDbSpline
210
0.0
220
0.0
230
1.0
 70
    24
 71
     3
 72
     8
 73
     4
 74
     0
 42
0.0000000001
 43
0.0000000001
 40
0.0
 40
0.0
 40
0.0
 40
0.0
 40
1.0
 40
1.0
 40
1.0
 40
1.0
 10
63.2156
 20
-17.2787
 30
0.0
 10
63.2156
 20
-17.2787
 30
0.0
 10
63.0874
 20
-17.1805
 30
0.0
 10
63.0874
 20
-17.1805
 30
0.0
  0
SPLINE
  5
A7
330
1F
100
AcDbEntity
  8
Ilustrace
 62
   250
370
    30
100
AcDbSpline
210
0.0
220
0.0
230
1.0
 70
    24
 71
     3
 72
    12
 73
     8
 74
     0
 42
0.0000000001
 43
0.0000000001
 40
0.0
 40
0.0
 40
0.0
 40
0.0
 40
0.3333333333333333
 40
0.3333333333333333
 40
0.3333333333333333
 40
0.3333333333333333
 40
1.0
 40
1.0
 40
1.0
 40
1.0
 10
63.5285
 20
-17.7238
 30
0.0
 10
63.5285
 20
-17.7238
 30
0.0
 10
64.0102
 20
-17.7238
 30
0.0
 10
64.0102
 20
-17.7238
 30
0.0
 10
64.0102
 20
-17.7238
 30
0.0
 10
64.0102
 20
-17.7238
 30
0.0
 10
65.8884
 20
-17.7238
 30
0.0
 10
65.8884
 20
-17.7238
 30
0.0
  0
SPLINE
  5
A8
330
1F
100
AcDbEntity
  8
Ilustrace
 62
   250
370
    30
100
AcDbSpline
210
0.0
220
0.0
230
1.0
 70
     8
 71
     3
 72
     8
 73
     4
 74
     0
 42
0.0000000001
 43
0.0000000001
 40
0.0
 40
0.0
 40
0.0
 40
0.0
 40
1.0
 40
1.0
 40
1.0
 40
1.0
 10
65.8884
 20
-17.7238
 30
0.0
 10
66.1655
 20
-17.7238
 30
0.0
 10
66.6037
 20
-17.7794
 30
0.0
 10
66.8637
 20
-17.5915
 30
0.0
  0
SPLINE
  5
A9
330
1F
100
AcDbEntity
  8
Ilustrace
 62
   250
370
    30
100
AcDbSpline
210
0.0
220
0.0
230
1.0
 70
     8
 71
     3
 72
    12
 73
     8
 74
     0
 42
0.0000000001
 43
0.0000000001
 40
0.0
 40
0.0
 40
0.0
 40
0.0
 40
0.3333333333333333
 40
0.3333333333333333
 40
0.3333333333333333
 40
0.3333333333333333
 40
1.0
 40
1.0
 40
1.0
 40
1.0
 10
66.8637
 20
-17.5915
 30
0.0
 10
66.8637
 20
-17.5915
 30
0.0
 10
67.0682
 20
-17.4347
 30
0.0
 10
67.0682
 20
-17.4347
 30
0.0
 10
67.0682
 20
-17.4347
 30
0.0
 10
67.0682
 20
-17.4347
 30
0.0
 10
67.225
 20
-17.2301
 30
0.0
 10
67.225
 20
-17.2301
 30
0.0
  0
SPLINE
  5
AA
330
1F
100
AcDbEntity
  8
Ilustrace
 62
   250
370
    30
100
AcDbSpline
210
0.0
220
0.0
230
1.0
 70
     8
 71
     3
 72
     8
 73
     4
 74
     0
 42
0.0000000001
 43
0.0000000001
 40
0.0
 40
0.0
 40
0.0
 40
0.0
 40
1.0
 40
1.0
 40
1.0
 40
1.0
 10
67.225
 20
-17.2301
 30
0.0
 10
67.3414
 20
-17.0289
 30
0.0
 10
67.3279
 20
-16.961
 30
0.0
 10
67.3574
 20
-16.7365
 30
0.0
  0
SPLINE
  5
AB
330
1F
100
AcDbEntity
  8
Ilustrace
 62
   250
370
    30
100
AcDbSpline
210
0.0
220
0.0
230
1.0
 70
     8
 71
     3
 72
     8
 73
     4
 74
     0
 42
0.0000000001
 43
0.0000000001
 40
0.0
 40
0.0
 40
0.0
 40
0.0
 40
1.0
 40
1.0
 40
1.0
 40
1.0
 10
62.9024
 20
5.3695
 30
0.0
 10
62.9077
 20
5.5516
 30
0.0
 10
62.9743
 20
5.6671
 30
0.0
 10
63.0846
 20
5.8106
 30
0.0
  0
SPLINE
  5
AC
330
1F
100
AcDbEntity
  8
Ilustrace
 62
   254
100
AcDbSpline
210
0.0
220
0.0
230
1.0
 70
    11
 71
     3
 72
    64
 73
    60
 74
     0
 42
0.0000000001
 43
0.0000000001
 40
0.0
 40
0.0
 40
0.0
 40
0.0
 40
0.0625
 40
0.0625
 40
0.0625
 40
0.0625
 40
0.125
 40
0.125
 40
0.125
 40
0.125
 40
0.1875
 40
0.1875
 40
0.1875
 40
0.1875
 40
0.25
 40
0.25
 40
0.25
 40
0.25
 40
0.3125
 40
0.3125
 40
0.3125
 40
0.3125
 40
0.375
 40
0.375
 40
0.375
 40
0.375
 40
0.4375
 40
0.4375
 40
0.4375
 40
0.4375
 40
0.5
 40
0.5
 40
0.5
 40
0.5
 40
0.5625
 40
0.5625
 40
0.5625
 40
0.5625
 40
0.625
 40
0.625
 40
0.625
 40
0.625
 40
0.6875
 40
0.6875
 40
0.6875
 40
0.6875
 40
0.75
 40
0.75
 40
0.75
 40
0.75
 40
0.8125
 40
0.8125
 40
0.8125
 40
0.8125
 40
0.875
 40
0.875
 40
0.875
 40
0.875
 40
1.0
 40
1.0
 40
1.0
 40
1.0
 10
-34.228
 20
6.3488
 30
0.0
 10
-34.228
 20
6.3488
 30
0.0
 10
-34.228
 20
6.2181
 30
0.0
 10
-34.228
 20
6.2181
 30
0.0
 10
-34.228
 20
6.2181
 30
0.0
 10
-34.228
 20
5.4519
 30
0.0
 10
-34.4639
 20
4.9313
 30
0.0
 10
-34.4639
 20
4.2136
 30
0.0
 10
-34.4639
 20
4.2136
 30
0.0
 10
-34.4639
 20
4.2136
 30
0.0
 10
-34.4639
 20
3.7993
 30
0.0
 10
-34.4639
 20
3.7993
 30
0.0
 10
-34.4639
 20
3.7993
 30
0.0
 10
-34.464
 20
1.9946
 30
0.0
 10
-34.5338
 20
0.1673
 30
0.0
 10
-34.5429
 20
-1.5662
 30
0.0
 10
-34.5429
 20
-1.5662
 30
0.0
 10
-34.5429
 20
-1.5662
 30
0.0
 10
-34.55
 20
-2.9001
 30
0.0
 10
-34.55
 20
-2.9001
 30
0.0
 10
-34.55
 20
-2.9001
 30
0.0
 10
-34.6779
 20
-4.1435
 30
0.0
 10
-34.5862
 20
-4.6446
 30
0.0
 10
-34.7063
 20
-5.886
 30
0.0
 10
-34.7063
 20
-5.886
 30
0.0
 10
-34.7718
 20
-6.5633
 30
0.0
 10
-34.6963
 20
-8.109
 30
0.0
 10
-34.8494
 20
-8.7661
 30
0.0
 10
-34.8494
 20
-8.7661
 30
0.0
 10
-34.9284
 20
-9.1056
 30
0.0
 10
-34.8948
 20
-11.1886
 30
0.0
 10
-35.2041
 20
-13.2439
 30
0.0
 10
-35.2041
 20
-13.2439
 30
0.0
 10
-35.4613
 20
-14.9526
 30
0.0
 10
-35.4963
 20
-15.7182
 30
0.0
 10
-35.5973
 20
-15.8933
 30
0.0
 10
-35.5973
 20
-15.8933
 30
0.0
 10
-35.6369
 20
-15.9621
 30
0.0
 10
-35.8001
 20
-16.3108
 30
0.0
 10
-35.8001
 20
-16.4699
 30
0.0
 10
-35.8001
 20
-16.4699
 30
0.0
 10
-35.8001
 20
-16.481
 30
0.0
 10
-35.9145
 20
-17.6604
 30
0.0
 10
-35.9253
 20
-17.6604
 30
0.0
 10
-35.9253
 20
-17.6604
 30
0.0
 10
-35.9253
 20
-17.6604
 30
0.0
 10
-72.8513
 20
-17.6494
 30
0.0
 10
-72.8513
 20
-17.6494
 30
0.0
 10
-72.8513
 20
-17.6494
 30
0.0
 10
-72.8513
 20
-17.6494
 30
0.0
 10
-72.8733
 20
6.3506
 30
0.0
 10
-72.8733
 20
6.3506
 30
0.0
 10
-72.8733
 20
6.3506
 30
0.0
 10
-72.8733
 20
6.3506
 30
0.0
 10
-34.2717
 20
6.3506
 30
0.0
 10
-34.2717
 20
6.3506
 30
0.0
 10
-34.2717
 20
6.3506
 30
0.0
 10
-34.2571
 20
6.3506
 30
0.0
 10
-34.228
 20
6.3634
 30
0.0
 10
-34.228
 20
6.3488
 30
0.0
  0
SPLINE
  5
AD
330
1F
100
AcDbEntity
  8
Ilustrace
 62
   254
100
AcDbSpline
210
0.0
220
0.0
230
1.0
 70
    11
 71
     3
 72
    20
 73
    16
 74
     0
 42
0.0000000001
 43
0.0000000001
 40
0.0
 40
0.0
 40
0.0
 40
0.0
 40
0.2
 40
0.2
 40
0.2
 40
0.2
 40
0.4
 40
0.4
 40
0.4
 40
0.4
 40
0.6
 40
0.6
 40
0.6
 40
0.6
 40
1.0
 40
1.0
 40
1.0
 40
1.0
 10
-67.3281
 20
-13.5418
 30
0.0
 10
-67.3281
 20
-13.5418
 30
0.0
 10
-54.3414
 20
-13.5418
 30
0.0
 10
-54.3414
 20
-13.5418
 30
0.0
 10
-54.3414
 20
-13.5418
 30
0.0
 10
-54.3414
 20
-13.5418
 30
0.0
 10
-54.3414
 20
-14.3683
 30
0.0
 10
-54.3414
 20
-14.3683
 30
0.0
 10
-54.3414
 20
-14.3683
 30
0.0
 10
-54.3414
 20
-14.3683
 30
0.0
 10
-67.3281
 20
-14.3683
 30
0.0
 10
-67.3281
 20
-14.3683
 30
0.0
 10
-67.3281
 20
-14.3683
 30
0.0
 10
-67.3281
 20
-14.3683
 30
0.0
 10
-67.3281
 20
-13.5418
 30
0.0
 10
-67.3281
 20
-13.5418
 30
0.0
  0
SPLINE
  5
AE
330
1F
100
AcDbEntity
  8
Ilustrace
 62
   254
100
AcDbSpline
210
0.0
220
0.0
230
1.0
 70
    11
 71
     3
 72
    20
 73
    16
 74
     0
 42
0.0000000001
 43
0.0000000001
 40
0.0
 40
0.0
 40
0.0
 40
0.0
 40
0.2
 40
0.2
 40
0.2
 40
0.2
 40
0.4
 40
0.4
 40
0.4
 40
0.4
 40
0.6
 40
0.6
 40
0.6
 40
0.6
 40
1.0
 40
1.0
 40
1.0
 40
1.0
 10
-50.8577
 20
-9.2864
 30
0.0
 10
-50.8577
 20
-9.2864
 30
0.0
 10
-37.871
 20
-9.2864
 30
0.0
 10
-37.871
 20
-9.2864
 30
0.0
 10
-37.871
 20
-9.2864
 30
0.0
 10
-37.871
 20
-9.2864
 30
0.0
 10
-37.871
 20
-10.7195
 30
0.0
 10
-37.871
 20
-10.7195
 30
0.0
 10
-37.871
 20
-10.7195
 30
0.0
 10
-37.871
 20
-10.7195
 30
0.0
 10
-50.8577
 20
-10.7195
 30
0.0
 10
-50.8577
 20
-10.7195
 30
0.0
 10
-50.8577
 20
-10.7195
 30
0.0
 10
-50.8577
 20
-10.7195
 30
0.0
 10
-50.8577
 20
-9.2864
 30
0.0
 10
-50.8577
 20
-9.2864
 30
0.0
  0
SPLINE
  5
AF
330
1F
100
AcDbEntity
  8
Ilustrace
 62
   254
100
AcDbSpline
210
0.0
220
0.0
230
1.0
 70
    11
 71
     3
 72
    20
 73
    16
 74
     0
 42
0.0000000001
 43
0.0000000001
 40
0.0
 40
0.0
 40
0.0
 40
0.0
 40
0.2
 40
0.2
 40
0.2
 40
0.2
 40
0.4
 40
0.4
 40
0.4
 40
0.4
 40
0.6
 40
0.6
 40
0.6
 40
0.6
 40
1.0
 40
1.0
 40
1.0
 40
1.0
 10
-67.3942
 20
-9.3305
 30
0.0
 10
-67.3942
 20
-9.3305
 30
0.0
 10
-54.4075
 20
-9.3305
 30
0.0
 10
-54.4075
 20
-9.3305
 30
0.0
 10
-54.4075
 20
-9.3305
 30
0.0
 10
-54.4075
 20
-9.3305
 30
0.0
 10
-54.4075
 20
-10.7636
 30
0.0
 10
-54.4075
 20
-10.7636
 30
0.0
 10
-54.4075
 20
-10.7636
 30
0.0
 10
-54.4075
 20
-10.7636
 30
0.0
 10
-67.3942
 20
-10.7636
 30
0.0
 10
-67.3942
 20
-10.7636
 30
0.0
 10
-67.3942
 20
-10.7636
 30
0.0
 10
-67.3942
 20
-10.7636
 30
0.0
 10
-67.3942
 20
-9.3305
 30
0.0
 10
-67.3942
 20
-9.3305
 30
0.0
  0
SPLINE
  5
B0
330
1F
100
AcDbEntity
  8
Ilustrace
 62
   254
100
AcDbSpline
210
0.0
220
0.0
230
1.0
 70
    11
 71
     3
 72
    20
 73
    16
 74
     0
 42
0.0000000001
 43
0.0000000001
 40
0.0
 40
0.0
 40
0.0
 40
0.0
 40
0.2
 40
0.2
 40
0.2
 40
0.2
 40
0.4
 40
0.4
 40
0.4
 40
0.4
 40
0.6
 40
0.6
 40
0.6
 40
0.6
 40
1.0
 40
1.0
 40
1.0
 40
1.0
 10
-50.9019
 20
-4.9295
 30
0.0
 10
-50.9019
 20
-4.9295
 30
0.0
 10
-37.9152
 20
-4.9295
 30
0.0
 10
-37.9152
 20
-4.9295
 30
0.0
 10
-37.9152
 20
-4.9295
 30
0.0
 10
-37.9152
 20
-4.9295
 30
0.0
 10
-37.9152
 20
-6.3626
 30
0.0
 10
-37.9152
 20
-6.3626
 30
0.0
 10
-37.9152
 20
-6.3626
 30
0.0
 10
-37.9152
 20
-6.3626
 30
0.0
 10
-50.9019
 20
-6.3626
 30
0.0
 10
-50.9019
 20
-6.3626
 30
0.0
 10
-50.9019
 20
-6.3626
 30
0.0
 10
-50.9019
 20
-6.3626
 30
0.0
 10
-50.9019
 20
-4.9295
 30
0.0
 10
-50.9019
 20
-4.9295
 30
0.0
  0
SPLINE
  5
B1
330
1F
100
AcDbEntity
  8
Ilustrace
 62
   254
100
AcDbSpline
210
0.0
220
0.0
230
1.0
 70
    11
 71
     3
 72
    20
 73
    16
 74
     0
 42
0.0000000001
 43
0.0000000001
 40
0.0
 40
0.0
 40
0.0
 40
0.0
 40
0.2
 40
0.2
 40
0.2
 40
0.2
 40
0.4
 40
0.4
 40
0.4
 40
0.4
 40
0.6
 40
0.6
 40
0.6
 40
0.6
 40
1.0
 40
1.0
 40
1.0
 40
1.0
 10
-67.4384
 20
-4.9736
 30
0.0
 10
-67.4384
 20
-4.9736
 30
0.0
 10
-54.4517
 20
-4.9736
 30
0.0
 10
-54.4517
 20
-4.9736
 30
0.0
 10
-54.4517
 20
-4.9736
 30
0.0
 10
-54.4517
 20
-4.9736
 30
0.0
 10
-54.4517
 20
-6.4067
 30
0.0
 10
-54.4517
 20
-6.4067
 30
0.0
 10
-54.4517
 20
-6.4067
 30
0.0
 10
-54.4517
 20
-6.4067
 30
0.0
 10
-67.4384
 20
-6.4067
 30
0.0
 10
-67.4384
 20
-6.4067
 30
0.0
 10
-67.4384
 20
-6.4067
 30
0.0
 10
-67.4384
 20
-6.4067
 30
0.0
 10
-67.4384
 20
-4.9736
 30
0.0
 10
-67.4384
 20
-4.9736
 30
0.0
  0
SPLINE
  5
B2
330
1F
100
AcDbEntity
  8
Ilustrace
 62
   254
100
AcDbSpline
210
0.0
220
0.0
230
1.0
 70
    11
 71
     3
 72
    20
 73
    16
 74
     0
 42
0.0000000001
 43
0.0000000001
 40
0.0
 40
0.0
 40
0.0
 40
0.0
 40
0.2
 40
0.2
 40
0.2
 40
0.2
 40
0.4
 40
0.4
 40
0.4
 40
0.4
 40
0.6
 40
0.6
 40
0.6
 40
0.6
 40
1.0
 40
1.0
 40
1.0
 40
1.0
 10
-50.7916
 20
-0.4977
 30
0.0
 10
-50.7916
 20
-0.4977
 30
0.0
 10
-37.8049
 20
-0.4977
 30
0.0
 10
-37.8049
 20
-0.4977
 30
0.0
 10
-37.8049
 20
-0.4977
 30
0.0
 10
-37.8049
 20
-0.4977
 30
0.0
 10
-37.8049
 20
-1.9308
 30
0.0
 10
-37.8049
 20
-1.9308
 30
0.0
 10
-37.8049
 20
-1.9308
 30
0.0
 10
-37.8049
 20
-1.9308
 30
0.0
 10
-50.7916
 20
-1.9308
 30
0.0
 10
-50.7916
 20
-1.9308
 30
0.0
 10
-50.7916
 20
-1.9308
 30
0.0
 10
-50.7916
 20
-1.9308
 30
0.0
 10
-50.7916
 20
-0.4977
 30
0.0
 10
-50.7916
 20
-0.4977
 30
0.0
  0
SPLINE
  5
B3
330
1F
100
AcDbEntity
  8
Ilustrace
 62
   254
100
AcDbSpline
210
0.0
220
0.0
230
1.0
 70
    11
 71
     3
 72
    20
 73
    16
 74
     0
 42
0.0000000001
 43
0.0000000001
 40
0.0
 40
0.0
 40
0.0
 40
0.0
 40
0.2
 40
0.2
 40
0.2
 40
0.2
 40
0.4
 40
0.4
 40
0.4
 40
0.4
 40
0.6
 40
0.6
 40
0.6
 40
0.6
 40
1.0
 40
1.0
 40
1.0
 40
1.0
 10
-67.3281
 20
-0.5418
 30
0.0
 10
-67.3281
 20
-0.5418
 30
0.0
 10
-54.3414
 20
-0.5418
 30
0.0
 10
-54.3414
 20
-0.5418
 30
0.0
 10
-54.3414
 20
-0.5418
 30
0.0
 10
-54.3414
 20
-0.5418
 30
0.0
 10
-54.3414
 20
-1.9749
 30
0.0
 10
-54.3414
 20
-1.9749
 30
0.0
 10
-54.3414
 20
-1.9749
 30
0.0
 10
-54.3414
 20
-1.9749
 30
0.0
 10
-67.3281
 20
-1.9749
 30
0.0
 10
-67.3281
 20
-1.9749
 30
0.0
 10
-67.3281
 20
-1.9749
 30
0.0
 10
-67.3281
 20
-1.9749
 30
0.0
 10
-67.3281
 20
-0.5418
 30
0.0
 10
-67.3281
 20
-0.5418
 30
0.0
  0
SPLINE
  5
B4
330
1F
100
AcDbEntity
  8
Ilustrace
 62
   254
100
AcDbSpline
210
0.0
220
0.0
230
1.0
 70
    11
 71
     3
 72
    20
 73
    16
 74
     0
 42
0.0000000001
 43
0.0000000001
 40
0.0
 40
0.0
 40
0.0
 40
0.0
 40
0.2
 40
0.2
 40
0.2
 40
0.2
 40
0.4
 40
0.4
 40
0.4
 40
0.4
 40
0.6
 40
0.6
 40
0.6
 40
0.6
 40
1.0
 40
1.0
 40
1.0
 40
1.0
 10
-67.3942
 20
2.9614
 30
0.0
 10
-67.3942
 20
2.9614
 30
0.0
 10
-54.4075
 20
2.9614
 30
0.0
 10
-54.4075
 20
2.9614
 30
0.0
 10
-54.4075
 20
2.9614
 30
0.0
 10
-54.4075
 20
2.9614
 30
0.0
 10
-54.4075
 20
2.2364
 30
0.0
 10
-54.4075
 20
2.2364
 30
0.0
 10
-54.4075
 20
2.2364
 30
0.0
 10
-54.4075
 20
2.2364
 30
0.0
 10
-67.3942
 20
2.2364
 30
0.0
 10
-67.3942
 20
2.2364
 30
0.0
 10
-67.3942
 20
2.2364
 30
0.0
 10
-67.3942
 20
2.2364
 30
0.0
 10
-67.3942
 20
2.9614
 30
0.0
 10
-67.3942
 20
2.9614
 30
0.0
  0
SPLINE
  5
B5
330
1F
100
AcDbEntity
  8
Ilustrace
 62
   254
100
AcDbSpline
210
0.0
220
0.0
230
1.0
 70
    11
 71
     3
 72
    40
 73
    36
 74
     0
 42
0.0000000001
 43
0.0000000001
 40
0.0
 40
0.0
 40
0.0
 40
0.0
 40
0.1
 40
0.1
 40
0.1
 40
0.1
 40
0.2
 40
0.2
 40
0.2
 40
0.2
 40
0.3
 40
0.3
 40
0.3
 40
0.3
 40
0.4
 40
0.4
 40
0.4
 40
0.4
 40
0.5
 40
0.5
 40
0.5
 40
0.5
 40
0.6
 40
0.6
 40
0.6
 40
0.6
 40
0.7
 40
0.7
 40
0.7
 40
0.7
 40
0.8
 40
0.8
 40
0.8
 40
0.8
 40
1.0
 40
1.0
 40
1.0
 40
1.0
 10
-50.8499
 20
3.6787
 30
0.0
 10
-50.8499
 20
3.6787
 30
0.0
 10
-50.8609
 20
2.2346
 30
0.0
 10
-50.8609
 20
2.2346
 30
0.0
 10
-50.8609
 20
2.2346
 30
0.0
 10
-50.8609
 20
2.2346
 30
0.0
 10
-37.8742
 20
2.2234
 30
0.0
 10
-37.8742
 20
2.2234
 30
0.0
 10
-37.8742
 20
2.2234
 30
0.0
 10
-37.8742
 20
2.2234
 30
0.0
 10
-37.9073
 20
2.9621
 30
0.0
 10
-37.9073
 20
2.9621
 30
0.0
 10
-37.9073
 20
2.9621
 30
0.0
 10
-37.9073
 20
2.9621
 30
0.0
 10
-46.6607
 20
2.8959
 30
0.0
 10
-46.6607
 20
2.8959
 30
0.0
 10
-46.6607
 20
2.8959
 30
0.0
 10
-46.6607
 20
2.8959
 30
0.0
 10
-46.8867
 20
2.9869
 30
0.0
 10
-46.8867
 20
2.9869
 30
0.0
 10
-46.8867
 20
2.9869
 30
0.0
 10
-46.8867
 20
2.9869
 30
0.0
 10
-46.9941
 20
3.0806
 30
0.0
 10
-46.9941
 20
3.0806
 30
0.0
 10
-46.9941
 20
3.0806
 30
0.0
 10
-46.9941
 20
3.0806
 30
0.0
 10
-47.0052
 20
3.2405
 30
0.0
 10
-47.0052
 20
3.2405
 30
0.0
 10
-47.0052
 20
3.2405
 30
0.0
 10
-47.0052
 20
3.2405
 30
0.0
 10
-47.0107
 20
3.6787
 30
0.0
 10
-47.0107
 20
3.6787
 30
0.0
 10
-47.0107
 20
3.6787
 30
0.0
 10
-47.0107
 20
3.6787
 30
0.0
 10
-50.8499
 20
3.6787
 30
0.0
 10
-50.8499
 20
3.6787
 30
0.0
  0
SPLINE
  5
B6
330
1F
100
AcDbEntity
  8
Ilustrace
 62
   254
100
AcDbSpline
210
0.0
220
0.0
230
1.0
 70
    11
 71
     3
 72
    40
 73
    36
 74
     0
 42
0.0000000001
 43
0.0000000001
 40
0.0
 40
0.0
 40
0.0
 40
0.0
 40
0.1
 40
0.1
 40
0.1
 40
0.1
 40
0.2
 40
0.2
 40
0.2
 40
0.2
 40
0.3
 40
0.3
 40
0.3
 40
0.3
 40
0.4
 40
0.4
 40
0.4
 40
0.4
 40
0.5
 40
0.5
 40
0.5
 40
0.5
 40
0.6
 40
0.6
 40
0.6
 40
0.6
 40
0.7
 40
0.7
 40
0.7
 40
0.7
 40
0.8
 40
0.8
 40
0.8
 40
0.8
 40
1.0
 40
1.0
 40
1.0
 40
1.0
 10
-50.894
 20
-15.0075
 30
0.0
 10
-50.894
 20
-15.0075
 30
0.0
 10
-50.905
 20
-13.5634
 30
0.0
 10
-50.905
 20
-13.5634
 30
0.0
 10
-50.905
 20
-13.5634
 30
0.0
 10
-50.905
 20
-13.5634
 30
0.0
 10
-37.9183
 20
-13.5522
 30
0.0
 10
-37.9183
 20
-13.5522
 30
0.0
 10
-37.9183
 20
-13.5522
 30
0.0
 10
-37.9183
 20
-13.5522
 30
0.0
 10
-37.9514
 20
-14.2909
 30
0.0
 10
-37.9514
 20
-14.2909
 30
0.0
 10
-37.9514
 20
-14.2909
 30
0.0
 10
-37.9514
 20
-14.2909
 30
0.0
 10
-46.7048
 20
-14.2247
 30
0.0
 10
-46.7048
 20
-14.2247
 30
0.0
 10
-46.7048
 20
-14.2247
 30
0.0
 10
-46.7048
 20
-14.2247
 30
0.0
 10
-46.9308
 20
-14.3157
 30
0.0
 10
-46.9308
 20
-14.3157
 30
0.0
 10
-46.9308
 20
-14.3157
 30
0.0
 10
-46.9308
 20
-14.3157
 30
0.0
 10
-47.0382
 20
-14.4094
 30
0.0
 10
-47.0382
 20
-14.4094
 30
0.0
 10
-47.0382
 20
-14.4094
 30
0.0
 10
-47.0382
 20
-14.4094
 30
0.0
 10
-47.0493
 20
-14.5693
 30
0.0
 10
-47.0493
 20
-14.5693
 30
0.0
 10
-47.0493
 20
-14.5693
 30
0.0
 10
-47.0493
 20
-14.5693
 30
0.0
 10
-47.0548
 20
-15.0075
 30
0.0
 10
-47.0548
 20
-15.0075
 30
0.0
 10
-47.0548
 20
-15.0075
 30
0.0
 10
-47.0548
 20
-15.0075
 30
0.0
 10
-50.894
 20
-15.0075
 30
0.0
 10
-50.894
 20
-15.0075
 30
0.0
  0
SPLINE
  5
B7
330
1F
100
AcDbEntity
  8
Ilustrace
 62
   250
370
    15
100
AcDbSpline
210
0.0
220
0.0
230
1.0
 70
     8
 71
     3
 72
    40
 73
    36
 74
     0
 42
0.0000000001
 43
0.0000000001
 40
0.0
 40
0.0
 40
0.0
 40
0.0
 40
0.1
 40
0.1
 40
0.1
 40
0.1
 40
0.2
 40
0.2
 40
0.2
 40
0.2
 40
0.3
 40
0.3
 40
0.3
 40
0.3
 40
0.4
 40
0.4
 40
0.4
 40
0.4
 40
0.5
 40
0.5
 40
0.5
 40
0.5
 40
0.6
 40
0.6
 40
0.6
 40
0.6
 40
0.7
 40
0.7
 40
0.7
 40
0.7
 40
0.8
 40
0.8
 40
0.8
 40
0.8
 40
1.0
 40
1.0
 40
1.0
 40
1.0
 10
-34.228
 20
6.3488
 30
0.0
 10
-34.228
 20
6.3488
 30
0.0
 10
-34.228
 20
6.1755
 30
0.0
 10
-34.228
 20
6.1755
 30
0.0
 10
-34.228
 20
6.1755
 30
0.0
 10
-34.228
 20
5.1595
 30
0.0
 10
-34.4639
 20
4.469
 30
0.0
 10
-34.4639
 20
3.5172
 30
0.0
 10
-34.4639
 20
3.5172
 30
0.0
 10
-34.4639
 20
3.5172
 30
0.0
 10
-34.4639
 20
2.9679
 30
0.0
 10
-34.4639
 20
2.9679
 30
0.0
 10
-34.4639
 20
2.9679
 30
0.0
 10
-34.464
 20
0.5747
 30
0.0
 10
-34.4869
 20
-2.8252
 30
0.0
 10
-34.6642
 20
-5.1123
 30
0.0
 10
-34.6642
 20
-5.1123
 30
0.0
 10
-34.6642
 20
-5.1123
 30
0.0
 10
-34.6823
 20
-5.3462
 30
0.0
 10
-34.6823
 20
-5.3462
 30
0.0
 10
-34.6823
 20
-5.3462
 30
0.0
 10
-34.8102
 20
-6.9952
 30
0.0
 10
-34.7624
 20
-7.9079
 30
0.0
 10
-34.8827
 20
-9.5543
 30
0.0
 10
-34.8827
 20
-9.5543
 30
0.0
 10
-34.9483
 20
-10.4527
 30
0.0
 10
-34.9607
 20
-11.4056
 30
0.0
 10
-35.114
 20
-12.2773
 30
0.0
 10
-35.114
 20
-12.2773
 30
0.0
 10
-35.2592
 20
-13.1033
 30
0.0
 10
-35.4631
 20
-15.6474
 30
0.0
 10
-35.6855
 20
-16.1587
 30
0.0
 10
-35.6855
 20
-16.1587
 30
0.0
 10
-35.7253
 20
-16.2502
 30
0.0
 10
-35.9214
 20
-17.3117
 30
0.0
 10
-35.9214
 20
-17.5227
 30
0.0
  0
SPLINE
  5
B8
330
1F
100
AcDbEntity
  8
Ilustrace
 62
   250
370
    30
100
AcDbSpline
210
0.0
220
0.0
230
1.0
 70
    24
 71
     3
 72
     8
 73
     4
 74
     0
 42
0.0000000001
 43
0.0000000001
 40
0.0
 40
0.0
 40
0.0
 40
0.0
 40
1.0
 40
1.0
 40
1.0
 40
1.0
 10
-72.8749
 20
-17.6426
 30
0.0
 10
-72.8749
 20
-17.6426
 30
0.0
 10
-35.899
 20
-17.6426
 30
0.0
 10
-35.899
 20
-17.6426
 30
0.0
  0
SPLINE
  5
B9
330
1F
100
AcDbEntity
  8
Ilustrace
 62
   250
370
    30
100
AcDbSpline
210
0.0
220
0.0
230
1.0
 70
    24
 71
     3
 72
     8
 73
     4
 74
     0
 42
0.0000000001
 43
0.0000000001
 40
0.0
 40
0.0
 40
0.0
 40
0.0
 40
1.0
 40
1.0
 40
1.0
 40
1.0
 10
-72.8749
 20
6.3573
 30
0.0
 10
-72.8749
 20
6.3573
 30
0.0
 10
-34.2565
 20
6.3573
 30
0.0
 10
-34.2565
 20
6.3573
 30
0.0
  0
SPLINE
  5
BA
330
1F
100
AcDbEntity
  8
Ilustrace
 62
   250
370
    15
100
AcDbSpline
210
0.0
220
0.0
230
1.0
 70
    24
 71
     3
 72
     8
 73
     4
 74
     0
 42
0.0000000001
 43
0.0000000001
 40
0.0
 40
0.0
 40
0.0
 40
0.0
 40
1.0
 40
1.0
 40
1.0
 40
1.0
 10
-72.8749
 20
-16.9134
 30
0.0
 10
-72.8749
 20
-16.9134
 30
0.0
 10
-35.7666
 20
-16.9134
 30
0.0
 10
-35.7666
 20
-16.9134
 30
0.0
  0
SPLINE
  5
BB
330
1F
100
AcDbEntity
  8
Ilustrace
 62
   250
370
    15
100
AcDbSpline
210
0.0
220
0.0
230
1.0
 70
    24
 71
     3
 72
     8
 73
     4
 74
     0
 42
0.0000000001
 43
0.0000000001
 40
0.0
 40
0.0
 40
0.0
 40
0.0
 40
1.0
 40
1.0
 40
1.0
 40
1.0
 10
-72.8749
 20
5.628
 30
0.0
 10
-72.8749
 20
5.628
 30
0.0
 10
-34.3006
 20
5.628
 30
0.0
 10
-34.3006
 20
5.628
 30
0.0
  0
SPLINE
  5
BC
330
1F
100
AcDbEntity
  8
Ilustrace
 62
   250
370
    30
100
AcDbSpline
210
0.0
220
0.0
230
1.0
 70
    24
 71
     3
 72
     8
 73
     4
 74
     0
 42
0.0000000001
 43
0.0000000001
 40
0.0
 40
0.0
 40
0.0
 40
0.0
 40
1.0
 40
1.0
 40
1.0
 40
1.0
 10
-72.8702
 20
6.3237
 30
0.0
 10
-72.8702
 20
6.3237
 30
0.0
 10
-72.8702
 20
6.3556
 30
0.0
 10
-72.8702
 20
6.3556
 30
0.0
  0
SPLINE
  5
BD
330
1F
100
AcDbEntity
  8
Ilustrace
 62
   250
370
    30
100
AcDbSpline
210
0.0
220
0.0
230
1.0
 70
    24
 71
     3
 72
     8
 73
     4
 74
     0
 42
0.0000000001
 43
0.0000000001
 40
0.0
 40
0.0
 40
0.0
 40
0.0
 40
1.0
 40
1.0
 40
1.0
 40
1.0
 10
-72.8702
 20
6.3237
 30
0.0
 10
-72.8702
 20
6.3237
 30
0.0
 10
-72.8702
 20
6.3423
 30
0.0
 10
-72.8702
 20
6.3423
 30
0.0
  0
SPLINE
  5
BE
330
1F
100
AcDbEntity
  8
Ilustrace
 62
   250
370
    30
100
AcDbSpline
210
0.0
220
0.0
230
1.0
 70
    24
 71
     3
 72
     8
 73
     4
 74
     0
 42
0.0000000001
 43
0.0000000001
 40
0.0
 40
0.0
 40
0.0
 40
0.0
 40
1.0
 40
1.0
 40
1.0
 40
1.0
 10
-72.8702
 20
6.3237
 30
0.0
 10
-72.8702
 20
6.3237
 30
0.0
 10
-72.8702
 20
6.3307
 30
0.0
 10
-72.8702
 20
6.3307
 30
0.0
  0
SPLINE
  5
BF
330
1F
100
AcDbEntity
  8
Ilustrace
 62
   250
370
    30
100
AcDbSpline
210
0.0
220
0.0
230
1.0
 70
    24
 71
     3
 72
     8
 73
     4
 74
     0
 42
0.0000000001
 43
0.0000000001
 40
0.0
 40
0.0
 40
0.0
 40
0.0
 40
1.0
 40
1.0
 40
1.0
 40
1.0
 10
-72.8702
 20
6.3237
 30
0.0
 10
-72.8702
 20
6.3237
 30
0.0
 10
-72.8702
 20
6.3505
 30
0.0
 10
-72.8702
 20
6.3505
 30
0.0
  0
SPLINE
  5
C0
330
1F
100
AcDbEntity
  8
Ilustrace
 62
   250
370
    30
100
AcDbSpline
210
0.0
220
0.0
230
1.0
 70
    24
 71
     3
 72
     8
 73
     4
 74
     0
 42
0.0000000001
 43
0.0000000001
 40
0.0
 40
0.0
 40
0.0
 40
0.0
 40
1.0
 40
1.0
 40
1.0
 40
1.0
 10
-72.8702
 20
6.2254
 30
0.0
 10
-72.8702
 20
6.2254
 30
0.0
 10
-72.8702
 20
6.2527
 30
0.0
 10
-72.8702
 20
6.2527
 30
0.0
  0
SPLINE
  5
C1
330
1F
100
AcDbEntity
  8
Ilustrace
 62
   250
370
    30
100
AcDbSpline
210
0.0
220
0.0
230
1.0
 70
    24
 71
     3
 72
     8
 73
     4
 74
     0
 42
0.0000000001
 43
0.0000000001
 40
0.0
 40
0.0
 40
0.0
 40
0.0
 40
1.0
 40
1.0
 40
1.0
 40
1.0
 10
-72.8702
 20
6.2254
 30
0.0
 10
-72.8702
 20
6.2254
 30
0.0
 10
-72.8702
 20
6.2768
 30
0.0
 10
-72.8702
 20
6.2768
 30
0.0
  0
SPLINE
  5
C2
330
1F
100
AcDbEntity
  8
Ilustrace
 62
   250
370
    30
100
AcDbSpline
210
0.0
220
0.0
230
1.0
 70
    24
 71
     3
 72
     8
 73
     4
 74
     0
 42
0.0000000001
 43
0.0000000001
 40
0.0
 40
0.0
 40
0.0
 40
0.0
 40
1.0
 40
1.0
 40
1.0
 40
1.0
 10
-72.8702
 20
-17.4786
 30
0.0
 10
-72.8702
 20
-17.4786
 30
0.0
 10
-72.8702
 20
6.3574
 30
0.0
 10
-72.8702
 20
6.3574
 30
0.0
  0
SPLINE
  5
C3
330
1F
100
AcDbEntity
  8
Ilustrace
 62
   250
370
    30
100
AcDbSpline
210
0.0
220
0.0
230
1.0
 70
    24
 71
     3
 72
     8
 73
     4
 74
     0
 42
0.0000000001
 43
0.0000000001
 40
0.0
 40
0.0
 40
0.0
 40
0.0
 40
1.0
 40
1.0
 40
1.0
 40
1.0
 10
-72.8702
 20
-17.6091
 30
0.0
 10
-72.8702
 20
-17.6091
 30
0.0
 10
-72.8702
 20
-17.641
 30
0.0
 10
-72.8702
 20
-17.641
 30
0.0
  0
SPLINE
  5
C4
330
1F
100
AcDbEntity
  8
Ilustrace
 62
   250
370
    30
100
AcDbSpline
210
0.0
220
0.0
230
1.0
 70
    24
 71
     3
 72
     8
 73
     4
 74
     0
 42
0.0000000001
 43
0.0000000001
 40
0.0
 40
0.0
 40
0.0
 40
0.0
 40
1.0
 40
1.0
 40
1.0
 40
1.0
 10
-72.8702
 20
-17.6091
 30
0.0
 10
-72.8702
 20
-17.6091
 30
0.0
 10
-72.8702
 20
-17.636
 30
0.0
 10
-72.8702
 20
-17.636
 30
0.0
  0
SPLINE
  5
C5
330
1F
100
AcDbEntity
  8
Ilustrace
 62
   250
370
    30
100
AcDbSpline
210
0.0
220
0.0
230
1.0
 70
    24
 71
     3
 72
     8
 73
     4
 74
     0
 42
0.0000000001
 43
0.0000000001
 40
0.0
 40
0.0
 40
0.0
 40
0.0
 40
1.0
 40
1.0
 40
1.0
 40
1.0
 10
-72.8702
 20
-17.6091
 30
0.0
 10
-72.8702
 20
-17.6091
 30
0.0
 10
-72.8702
 20
-17.6277
 30
0.0
 10
-72.8702
 20
-17.6277
 30
0.0
  0
SPLINE
  5
C6
330
1F
100
AcDbEntity
  8
Ilustrace
 62
   250
370
    30
100
AcDbSpline
210
0.0
220
0.0
230
1.0
 70
    24
 71
     3
 72
     8
 73
     4
 74
     0
 42
0.0000000001
 43
0.0000000001
 40
0.0
 40
0.0
 40
0.0
 40
0.0
 40
1.0
 40
1.0
 40
1.0
 40
1.0
 10
-72.8702
 20
-17.5108
 30
0.0
 10
-72.8702
 20
-17.5108
 30
0.0
 10
-72.8702
 20
-17.6161
 30
0.0
 10
-72.8702
 20
-17.6161
 30
0.0
  0
SPLINE
  5
C7
330
1F
100
AcDbEntity
  8
Ilustrace
 62
   250
370
    30
100
AcDbSpline
210
0.0
220
0.0
230
1.0
 70
    24
 71
     3
 72
     8
 73
     4
 74
     0
 42
0.0000000001
 43
0.0000000001
 40
0.0
 40
0.0
 40
0.0
 40
0.0
 40
1.0
 40
1.0
 40
1.0
 40
1.0
 10
-72.8702
 20
-17.5108
 30
0.0
 10
-72.8702
 20
-17.5108
 30
0.0
 10
-72.8702
 20
-17.5622
 30
0.0
 10
-72.8702
 20
-17.5622
 30
0.0
  0
SPLINE
  5
C8
330
1F
100
AcDbEntity
  8
Ilustrace
 62
   250
370
    30
100
AcDbSpline
210
0.0
220
0.0
230
1.0
 70
    24
 71
     3
 72
     8
 73
     4
 74
     0
 42
0.0000000001
 43
0.0000000001
 40
0.0
 40
0.0
 40
0.0
 40
0.0
 40
1.0
 40
1.0
 40
1.0
 40
1.0
 10
-72.8702
 20
-16.6587
 30
0.0
 10
-72.8702
 20
-16.6587
 30
0.0
 10
-72.8702
 20
-17.5379
 30
0.0
 10
-72.8702
 20
-17.5379
 30
0.0
  0
SPLINE
  5
C9
330
1F
100
AcDbEntity
  8
Ilustrace
 62
   250
370
    30
100
AcDbSpline
210
0.0
220
0.0
230
1.0
 70
    24
 71
     3
 72
     8
 73
     4
 74
     0
 42
0.0000000001
 43
0.0000000001
 40
0.0
 40
0.0
 40
0.0
 40
0.0
 40
1.0
 40
1.0
 40
1.0
 40
1.0
 10
-67.3503
 20
-4.9426
 30
0.0
 10
-67.3503
 20
-4.9426
 30
0.0
 10
-67.3503
 20
-6.3827
 30
0.0
 10
-67.3503
 20
-6.3827
 30
0.0
  0
SPLINE
  5
CA
330
1F
100
AcDbEntity
  8
Ilustrace
 62
   250
370
    30
100
AcDbSpline
210
0.0
220
0.0
230
1.0
 70
    24
 71
     3
 72
     8
 73
     4
 74
     0
 42
0.0000000001
 43
0.0000000001
 40
0.0
 40
0.0
 40
0.0
 40
0.0
 40
1.0
 40
1.0
 40
1.0
 40
1.0
 10
-54.3903
 20
-6.3827
 30
0.0
 10
-54.3903
 20
-6.3827
 30
0.0
 10
-67.3503
 20
-6.3827
 30
0.0
 10
-67.3503
 20
-6.3827
 30
0.0
  0
SPLINE
  5
CB
330
1F
100
AcDbEntity
  8
Ilustrace
 62
   250
370
    30
100
AcDbSpline
210
0.0
220
0.0
230
1.0
 70
    24
 71
     3
 72
     8
 73
     4
 74
     0
 42
0.0000000001
 43
0.0000000001
 40
0.0
 40
0.0
 40
0.0
 40
0.0
 40
1.0
 40
1.0
 40
1.0
 40
1.0
 10
-67.3503
 20
-4.9426
 30
0.0
 10
-67.3503
 20
-4.9426
 30
0.0
 10
-54.3903
 20
-4.9426
 30
0.0
 10
-54.3903
 20
-4.9426
 30
0.0
  0
SPLINE
  5
CC
330
1F
100
AcDbEntity
  8
Ilustrace
 62
   250
370
    30
100
AcDbSpline
210
0.0
220
0.0
230
1.0
 70
    24
 71
     3
 72
     8
 73
     4
 74
     0
 42
0.0000000001
 43
0.0000000001
 40
0.0
 40
0.0
 40
0.0
 40
0.0
 40
1.0
 40
1.0
 40
1.0
 40
1.0
 10
-54.3903
 20
-6.3827
 30
0.0
 10
-54.3903
 20
-6.3827
 30
0.0
 10
-54.3903
 20
-4.9426
 30
0.0
 10
-54.3903
 20
-4.9426
 30
0.0
  0
SPLINE
  5
CD
330
1F
100
AcDbEntity
  8
Ilustrace
 62
   250
370
    30
100
AcDbSpline
210
0.0
220
0.0
230
1.0
 70
    24
 71
     3
 72
     8
 73
     4
 74
     0
 42
0.0000000001
 43
0.0000000001
 40
0.0
 40
0.0
 40
0.0
 40
0.0
 40
1.0
 40
1.0
 40
1.0
 40
1.0
 10
-50.7903
 20
-6.3827
 30
0.0
 10
-50.7903
 20
-6.3827
 30
0.0
 10
-37.8303
 20
-6.3827
 30
0.0
 10
-37.8303
 20
-6.3827
 30
0.0
  0
SPLINE
  5
CE
330
1F
100
AcDbEntity
  8
Ilustrace
 62
   250
370
    30
100
AcDbSpline
210
0.0
220
0.0
230
1.0
 70
    24
 71
     3
 72
     8
 73
     4
 74
     0
 42
0.0000000001
 43
0.0000000001
 40
0.0
 40
0.0
 40
0.0
 40
0.0
 40
1.0
 40
1.0
 40
1.0
 40
1.0
 10
-37.8303
 20
-4.9426
 30
0.0
 10
-37.8303
 20
-4.9426
 30
0.0
 10
-37.8303
 20
-6.3827
 30
0.0
 10
-37.8303
 20
-6.3827
 30
0.0
  0
SPLINE
  5
CF
330
1F
100
AcDbEntity
  8
Ilustrace
 62
   250
370
    30
100
AcDbSpline
210
0.0
220
0.0
230
1.0
 70
    24
 71
     3
 72
     8
 73
     4
 74
     0
 42
0.0000000001
 43
0.0000000001
 40
0.0
 40
0.0
 40
0.0
 40
0.0
 40
1.0
 40
1.0
 40
1.0
 40
1.0
 10
-37.8303
 20
-4.9426
 30
0.0
 10
-37.8303
 20
-4.9426
 30
0.0
 10
-50.7903
 20
-4.9426
 30
0.0
 10
-50.7903
 20
-4.9426
 30
0.0
  0
SPLINE
  5
D0
330
1F
100
AcDbEntity
  8
Ilustrace
 62
   250
370
    30
100
AcDbSpline
210
0.0
220
0.0
230
1.0
 70
    24
 71
     3
 72
     8
 73
     4
 74
     0
 42
0.0000000001
 43
0.0000000001
 40
0.0
 40
0.0
 40
0.0
 40
0.0
 40
1.0
 40
1.0
 40
1.0
 40
1.0
 10
-50.7903
 20
-6.3827
 30
0.0
 10
-50.7903
 20
-6.3827
 30
0.0
 10
-50.7903
 20
-4.9426
 30
0.0
 10
-50.7903
 20
-4.9426
 30
0.0
  0
SPLINE
  5
D1
330
1F
100
AcDbEntity
  8
Ilustrace
 62
   250
370
    30
100
AcDbSpline
210
0.0
220
0.0
230
1.0
 70
    24
 71
     3
 72
     8
 73
     4
 74
     0
 42
0.0000000001
 43
0.0000000001
 40
0.0
 40
0.0
 40
0.0
 40
0.0
 40
1.0
 40
1.0
 40
1.0
 40
1.0
 10
-67.3503
 20
-0.6228
 30
0.0
 10
-67.3503
 20
-0.6228
 30
0.0
 10
-67.3503
 20
-2.0626
 30
0.0
 10
-67.3503
 20
-2.0626
 30
0.0
  0
SPLINE
  5
D2
330
1F
100
AcDbEntity
  8
Ilustrace
 62
   250
370
    30
100
AcDbSpline
210
0.0
220
0.0
230
1.0
 70
    24
 71
     3
 72
     8
 73
     4
 74
     0
 42
0.0000000001
 43
0.0000000001
 40
0.0
 40
0.0
 40
0.0
 40
0.0
 40
1.0
 40
1.0
 40
1.0
 40
1.0
 10
-54.3903
 20
-2.0626
 30
0.0
 10
-54.3903
 20
-2.0626
 30
0.0
 10
-67.3503
 20
-2.0626
 30
0.0
 10
-67.3503
 20
-2.0626
 30
0.0
  0
SPLINE
  5
D3
330
1F
100
AcDbEntity
  8
Ilustrace
 62
   250
370
    30
100
AcDbSpline
210
0.0
220
0.0
230
1.0
 70
    24
 71
     3
 72
     8
 73
     4
 74
     0
 42
0.0000000001
 43
0.0000000001
 40
0.0
 40
0.0
 40
0.0
 40
0.0
 40
1.0
 40
1.0
 40
1.0
 40
1.0
 10
-67.3503
 20
-0.6228
 30
0.0
 10
-67.3503
 20
-0.6228
 30
0.0
 10
-54.3903
 20
-0.6228
 30
0.0
 10
-54.3903
 20
-0.6228
 30
0.0
  0
SPLINE
  5
D4
330
1F
100
AcDbEntity
  8
Ilustrace
 62
   250
370
    30
100
AcDbSpline
210
0.0
220
0.0
230
1.0
 70
    24
 71
     3
 72
     8
 73
     4
 74
     0
 42
0.0000000001
 43
0.0000000001
 40
0.0
 40
0.0
 40
0.0
 40
0.0
 40
1.0
 40
1.0
 40
1.0
 40
1.0
 10
-54.3903
 20
-2.0626
 30
0.0
 10
-54.3903
 20
-2.0626
 30
0.0
 10
-54.3903
 20
-0.6228
 30
0.0
 10
-54.3903
 20
-0.6228
 30
0.0
  0
SPLINE
  5
D5
330
1F
100
AcDbEntity
  8
Ilustrace
 62
   250
370
    30
100
AcDbSpline
210
0.0
220
0.0
230
1.0
 70
    24
 71
     3
 72
     8
 73
     4
 74
     0
 42
0.0000000001
 43
0.0000000001
 40
0.0
 40
0.0
 40
0.0
 40
0.0
 40
1.0
 40
1.0
 40
1.0
 40
1.0
 10
-50.7903
 20
-2.0626
 30
0.0
 10
-50.7903
 20
-2.0626
 30
0.0
 10
-37.8303
 20
-2.0626
 30
0.0
 10
-37.8303
 20
-2.0626
 30
0.0
  0
SPLINE
  5
D6
330
1F
100
AcDbEntity
  8
Ilustrace
 62
   250
370
    30
100
AcDbSpline
210
0.0
220
0.0
230
1.0
 70
    24
 71
     3
 72
     8
 73
     4
 74
     0
 42
0.0000000001
 43
0.0000000001
 40
0.0
 40
0.0
 40
0.0
 40
0.0
 40
1.0
 40
1.0
 40
1.0
 40
1.0
 10
-37.8303
 20
-0.6228
 30
0.0
 10
-37.8303
 20
-0.6228
 30
0.0
 10
-37.8303
 20
-2.0626
 30
0.0
 10
-37.8303
 20
-2.0626
 30
0.0
  0
SPLINE
  5
D7
330
1F
100
AcDbEntity
  8
Ilustrace
 62
   250
370
    30
100
AcDbSpline
210
0.0
220
0.0
230
1.0
 70
    24
 71
     3
 72
     8
 73
     4
 74
     0
 42
0.0000000001
 43
0.0000000001
 40
0.0
 40
0.0
 40
0.0
 40
0.0
 40
1.0
 40
1.0
 40
1.0
 40
1.0
 10
-37.8303
 20
-0.6228
 30
0.0
 10
-37.8303
 20
-0.6228
 30
0.0
 10
-50.7903
 20
-0.6228
 30
0.0
 10
-50.7903
 20
-0.6228
 30
0.0
  0
SPLINE
  5
D8
330
1F
100
AcDbEntity
  8
Ilustrace
 62
   250
370
    30
100
AcDbSpline
210
0.0
220
0.0
230
1.0
 70
    24
 71
     3
 72
     8
 73
     4
 74
     0
 42
0.0000000001
 43
0.0000000001
 40
0.0
 40
0.0
 40
0.0
 40
0.0
 40
1.0
 40
1.0
 40
1.0
 40
1.0
 10
-50.7903
 20
-2.0626
 30
0.0
 10
-50.7903
 20
-2.0626
 30
0.0
 10
-50.7903
 20
-0.6228
 30
0.0
 10
-50.7903
 20
-0.6228
 30
0.0
  0
SPLINE
  5
D9
330
1F
100
AcDbEntity
  8
Ilustrace
 62
   250
370
    30
100
AcDbSpline
210
0.0
220
0.0
230
1.0
 70
    24
 71
     3
 72
     8
 73
     4
 74
     0
 42
0.0000000001
 43
0.0000000001
 40
0.0
 40
0.0
 40
0.0
 40
0.0
 40
1.0
 40
1.0
 40
1.0
 40
1.0
 10
-67.3503
 20
3.6973
 30
0.0
 10
-67.3503
 20
3.6973
 30
0.0
 10
-67.3503
 20
2.2572
 30
0.0
 10
-67.3503
 20
2.2572
 30
0.0
  0
SPLINE
  5
DA
330
1F
100
AcDbEntity
  8
Ilustrace
 62
   250
370
    30
100
AcDbSpline
210
0.0
220
0.0
230
1.0
 70
    24
 71
     3
 72
     8
 73
     4
 74
     0
 42
0.0000000001
 43
0.0000000001
 40
0.0
 40
0.0
 40
0.0
 40
0.0
 40
1.0
 40
1.0
 40
1.0
 40
1.0
 10
-54.3903
 20
2.2572
 30
0.0
 10
-54.3903
 20
2.2572
 30
0.0
 10
-67.3503
 20
2.2572
 30
0.0
 10
-67.3503
 20
2.2572
 30
0.0
  0
SPLINE
  5
DB
330
1F
100
AcDbEntity
  8
Ilustrace
 62
   250
370
    30
100
AcDbSpline
210
0.0
220
0.0
230
1.0
 70
    24
 71
     3
 72
     8
 73
     4
 74
     0
 42
0.0000000001
 43
0.0000000001
 40
0.0
 40
0.0
 40
0.0
 40
0.0
 40
1.0
 40
1.0
 40
1.0
 40
1.0
 10
-67.3503
 20
3.6973
 30
0.0
 10
-67.3503
 20
3.6973
 30
0.0
 10
-54.3903
 20
3.6973
 30
0.0
 10
-54.3903
 20
3.6973
 30
0.0
  0
SPLINE
  5
DC
330
1F
100
AcDbEntity
  8
Ilustrace
 62
   250
370
    30
100
AcDbSpline
210
0.0
220
0.0
230
1.0
 70
    24
 71
     3
 72
     8
 73
     4
 74
     0
 42
0.0000000001
 43
0.0000000001
 40
0.0
 40
0.0
 40
0.0
 40
0.0
 40
1.0
 40
1.0
 40
1.0
 40
1.0
 10
-54.3903
 20
2.2572
 30
0.0
 10
-54.3903
 20
2.2572
 30
0.0
 10
-54.3903
 20
3.6973
 30
0.0
 10
-54.3903
 20
3.6973
 30
0.0
  0
SPLINE
  5
DD
330
1F
100
AcDbEntity
  8
Ilustrace
 62
   250
370
    30
100
AcDbSpline
210
0.0
220
0.0
230
1.0
 70
    24
 71
     3
 72
     8
 73
     4
 74
     0
 42
0.0000000001
 43
0.0000000001
 40
0.0
 40
0.0
 40
0.0
 40
0.0
 40
1.0
 40
1.0
 40
1.0
 40
1.0
 10
-67.3503
 20
-13.6228
 30
0.0
 10
-67.3503
 20
-13.6228
 30
0.0
 10
-67.3503
 20
-15.0626
 30
0.0
 10
-67.3503
 20
-15.0626
 30
0.0
  0
SPLINE
  5
DE
330
1F
100
AcDbEntity
  8
Ilustrace
 62
   250
370
    30
100
AcDbSpline
210
0.0
220
0.0
230
1.0
 70
    24
 71
     3
 72
     8
 73
     4
 74
     0
 42
0.0000000001
 43
0.0000000001
 40
0.0
 40
0.0
 40
0.0
 40
0.0
 40
1.0
 40
1.0
 40
1.0
 40
1.0
 10
-54.3903
 20
-15.0626
 30
0.0
 10
-54.3903
 20
-15.0626
 30
0.0
 10
-67.3503
 20
-15.0626
 30
0.0
 10
-67.3503
 20
-15.0626
 30
0.0
  0
SPLINE
  5
DF
330
1F
100
AcDbEntity
  8
Ilustrace
 62
   250
370
    30
100
AcDbSpline
210
0.0
220
0.0
230
1.0
 70
    24
 71
     3
 72
     8
 73
     4
 74
     0
 42
0.0000000001
 43
0.0000000001
 40
0.0
 40
0.0
 40
0.0
 40
0.0
 40
1.0
 40
1.0
 40
1.0
 40
1.0
 10
-67.3503
 20
-13.6228
 30
0.0
 10
-67.3503
 20
-13.6228
 30
0.0
 10
-54.3903
 20
-13.6228
 30
0.0
 10
-54.3903
 20
-13.6228
 30
0.0
  0
SPLINE
  5
E0
330
1F
100
AcDbEntity
  8
Ilustrace
 62
   250
370
    30
100
AcDbSpline
210
0.0
220
0.0
230
1.0
 70
    24
 71
     3
 72
     8
 73
     4
 74
     0
 42
0.0000000001
 43
0.0000000001
 40
0.0
 40
0.0
 40
0.0
 40
0.0
 40
1.0
 40
1.0
 40
1.0
 40
1.0
 10
-54.3903
 20
-15.0626
 30
0.0
 10
-54.3903
 20
-15.0626
 30
0.0
 10
-54.3903
 20
-13.6228
 30
0.0
 10
-54.3903
 20
-13.6228
 30
0.0
  0
SPLINE
  5
E1
330
1F
100
AcDbEntity
  8
Ilustrace
 62
   250
370
    30
100
AcDbSpline
210
0.0
220
0.0
230
1.0
 70
    24
 71
     3
 72
     8
 73
     4
 74
     0
 42
0.0000000001
 43
0.0000000001
 40
0.0
 40
0.0
 40
0.0
 40
0.0
 40
1.0
 40
1.0
 40
1.0
 40
1.0
 10
-50.7903
 20
-15.0626
 30
0.0
 10
-50.7903
 20
-15.0626
 30
0.0
 10
-37.8303
 20
-15.0626
 30
0.0
 10
-37.8303
 20
-15.0626
 30
0.0
  0
SPLINE
  5
E2
330
1F
100
AcDbEntity
  8
Ilustrace
 62
   250
370
    30
100
AcDbSpline
210
0.0
220
0.0
230
1.0
 70
    24
 71
     3
 72
     8
 73
     4
 74
     0
 42
0.0000000001
 43
0.0000000001
 40
0.0
 40
0.0
 40
0.0
 40
0.0
 40
1.0
 40
1.0
 40
1.0
 40
1.0
 10
-50.7462
 20
3.7338
 30
0.0
 10
-50.7462
 20
3.7338
 30
0.0
 10
-37.7862
 20
3.7338
 30
0.0
 10
-37.7862
 20
3.7338
 30
0.0
  0
SPLINE
  5
E3
330
1F
100
AcDbEntity
  8
Ilustrace
 62
   250
370
    30
100
AcDbSpline
210
0.0
220
0.0
230
1.0
 70
    24
 71
     3
 72
     8
 73
     4
 74
     0
 42
0.0000000001
 43
0.0000000001
 40
0.0
 40
0.0
 40
0.0
 40
0.0
 40
1.0
 40
1.0
 40
1.0
 40
1.0
 10
-37.8303
 20
-13.6228
 30
0.0
 10
-37.8303
 20
-13.6228
 30
0.0
 10
-37.8303
 20
-15.0626
 30
0.0
 10
-37.8303
 20
-15.0626
 30
0.0
  0
SPLINE
  5
E4
330
1F
100
AcDbEntity
  8
Ilustrace
 62
   250
370
    30
100
AcDbSpline
210
0.0
220
0.0
230
1.0
 70
    24
 71
     3
 72
     8
 73
     4
 74
     0
 42
0.0000000001
 43
0.0000000001
 40
0.0
 40
0.0
 40
0.0
 40
0.0
 40
1.0
 40
1.0
 40
1.0
 40
1.0
 10
-37.7862
 20
2.294
 30
0.0
 10
-37.7862
 20
2.294
 30
0.0
 10
-37.7862
 20
3.7338
 30
0.0
 10
-37.7862
 20
3.7338
 30
0.0
  0
SPLINE
  5
E5
330
1F
100
AcDbEntity
  8
Ilustrace
 62
   250
370
    30
100
AcDbSpline
210
0.0
220
0.0
230
1.0
 70
    24
 71
     3
 72
     8
 73
     4
 74
     0
 42
0.0000000001
 43
0.0000000001
 40
0.0
 40
0.0
 40
0.0
 40
0.0
 40
1.0
 40
1.0
 40
1.0
 40
1.0
 10
-37.8303
 20
-13.6228
 30
0.0
 10
-37.8303
 20
-13.6228
 30
0.0
 10
-50.7903
 20
-13.6228
 30
0.0
 10
-50.7903
 20
-13.6228
 30
0.0
  0
SPLINE
  5
E6
330
1F
100
AcDbEntity
  8
Ilustrace
 62
   250
370
    30
100
AcDbSpline
210
0.0
220
0.0
230
1.0
 70
    24
 71
     3
 72
     8
 73
     4
 74
     0
 42
0.0000000001
 43
0.0000000001
 40
0.0
 40
0.0
 40
0.0
 40
0.0
 40
1.0
 40
1.0
 40
1.0
 40
1.0
 10
-37.7862
 20
2.294
 30
0.0
 10
-37.7862
 20
2.294
 30
0.0
 10
-50.7462
 20
2.294
 30
0.0
 10
-50.7462
 20
2.294
 30
0.0
  0
SPLINE
  5
E7
330
1F
100
AcDbEntity
  8
Ilustrace
 62
   250
370
    30
100
AcDbSpline
210
0.0
220
0.0
230
1.0
 70
    24
 71
     3
 72
     8
 73
     4
 74
     0
 42
0.0000000001
 43
0.0000000001
 40
0.0
 40
0.0
 40
0.0
 40
0.0
 40
1.0
 40
1.0
 40
1.0
 40
1.0
 10
-50.7903
 20
-15.0626
 30
0.0
 10
-50.7903
 20
-15.0626
 30
0.0
 10
-50.7903
 20
-13.6228
 30
0.0
 10
-50.7903
 20
-13.6228
 30
0.0
  0
SPLINE
  5
E8
330
1F
100
AcDbEntity
  8
Ilustrace
 62
   250
370
    30
100
AcDbSpline
210
0.0
220
0.0
230
1.0
 70
    24
 71
     3
 72
     8
 73
     4
 74
     0
 42
0.0000000001
 43
0.0000000001
 40
0.0
 40
0.0
 40
0.0
 40
0.0
 40
1.0
 40
1.0
 40
1.0
 40
1.0
 10
-50.7462
 20
3.7338
 30
0.0
 10
-50.7462
 20
3.7338
 30
0.0
 10
-50.7462
 20
2.294
 30
0.0
 10
-50.7462
 20
2.294
 30
0.0
  0
SPLINE
  5
E9
330
1F
100
AcDbEntity
  8
Ilustrace
 62
   250
370
    30
100
AcDbSpline
210
0.0
220
0.0
230
1.0
 70
    24
 71
     3
 72
     8
 73
     4
 74
     0
 42
0.0000000001
 43
0.0000000001
 40
0.0
 40
0.0
 40
0.0
 40
0.0
 40
1.0
 40
1.0
 40
1.0
 40
1.0
 10
-67.3503
 20
-9.3027
 30
0.0
 10
-67.3503
 20
-9.3027
 30
0.0
 10
-67.3503
 20
-10.7428
 30
0.0
 10
-67.3503
 20
-10.7428
 30
0.0
  0
SPLINE
  5
EA
330
1F
100
AcDbEntity
  8
Ilustrace
 62
   250
370
    30
100
AcDbSpline
210
0.0
220
0.0
230
1.0
 70
    24
 71
     3
 72
     8
 73
     4
 74
     0
 42
0.0000000001
 43
0.0000000001
 40
0.0
 40
0.0
 40
0.0
 40
0.0
 40
1.0
 40
1.0
 40
1.0
 40
1.0
 10
-54.3903
 20
-10.7428
 30
0.0
 10
-54.3903
 20
-10.7428
 30
0.0
 10
-67.3503
 20
-10.7428
 30
0.0
 10
-67.3503
 20
-10.7428
 30
0.0
  0
SPLINE
  5
EB
330
1F
100
AcDbEntity
  8
Ilustrace
 62
   250
370
    30
100
AcDbSpline
210
0.0
220
0.0
230
1.0
 70
    24
 71
     3
 72
     8
 73
     4
 74
     0
 42
0.0000000001
 43
0.0000000001
 40
0.0
 40
0.0
 40
0.0
 40
0.0
 40
1.0
 40
1.0
 40
1.0
 40
1.0
 10
-67.3503
 20
-9.3027
 30
0.0
 10
-67.3503
 20
-9.3027
 30
0.0
 10
-54.3903
 20
-9.3027
 30
0.0
 10
-54.3903
 20
-9.3027
 30
0.0
  0
SPLINE
  5
EC
330
1F
100
AcDbEntity
  8
Ilustrace
 62
   250
370
    30
100
AcDbSpline
210
0.0
220
0.0
230
1.0
 70
    24
 71
     3
 72
     8
 73
     4
 74
     0
 42
0.0000000001
 43
0.0000000001
 40
0.0
 40
0.0
 40
0.0
 40
0.0
 40
1.0
 40
1.0
 40
1.0
 40
1.0
 10
-54.3903
 20
-10.7428
 30
0.0
 10
-54.3903
 20
-10.7428
 30
0.0
 10
-54.3903
 20
-9.3027
 30
0.0
 10
-54.3903
 20
-9.3027
 30
0.0
  0
SPLINE
  5
ED
330
1F
100
AcDbEntity
  8
Ilustrace
 62
   250
370
    30
100
AcDbSpline
210
0.0
220
0.0
230
1.0
 70
    24
 71
     3
 72
     8
 73
     4
 74
     0
 42
0.0000000001
 43
0.0000000001
 40
0.0
 40
0.0
 40
0.0
 40
0.0
 40
1.0
 40
1.0
 40
1.0
 40
1.0
 10
-50.7903
 20
-9.3027
 30
0.0
 10
-50.7903
 20
-9.3027
 30
0.0
 10
-50.7903
 20
-10.7428
 30
0.0
 10
-50.7903
 20
-10.7428
 30
0.0
  0
SPLINE
  5
EE
330
1F
100
AcDbEntity
  8
Ilustrace
 62
   250
370
    30
100
AcDbSpline
210
0.0
220
0.0
230
1.0
 70
    24
 71
     3
 72
     8
 73
     4
 74
     0
 42
0.0000000001
 43
0.0000000001
 40
0.0
 40
0.0
 40
0.0
 40
0.0
 40
1.0
 40
1.0
 40
1.0
 40
1.0
 10
-37.8303
 20
-10.7428
 30
0.0
 10
-37.8303
 20
-10.7428
 30
0.0
 10
-50.7903
 20
-10.7428
 30
0.0
 10
-50.7903
 20
-10.7428
 30
0.0
  0
SPLINE
  5
EF
330
1F
100
AcDbEntity
  8
Ilustrace
 62
   250
370
    30
100
AcDbSpline
210
0.0
220
0.0
230
1.0
 70
    24
 71
     3
 72
     8
 73
     4
 74
     0
 42
0.0000000001
 43
0.0000000001
 40
0.0
 40
0.0
 40
0.0
 40
0.0
 40
1.0
 40
1.0
 40
1.0
 40
1.0
 10
-50.7903
 20
-9.3027
 30
0.0
 10
-50.7903
 20
-9.3027
 30
0.0
 10
-37.8303
 20
-9.3027
 30
0.0
 10
-37.8303
 20
-9.3027
 30
0.0
  0
SPLINE
  5
F0
330
1F
100
AcDbEntity
  8
Ilustrace
 62
   250
370
    30
100
AcDbSpline
210
0.0
220
0.0
230
1.0
 70
    24
 71
     3
 72
     8
 73
     4
 74
     0
 42
0.0000000001
 43
0.0000000001
 40
0.0
 40
0.0
 40
0.0
 40
0.0
 40
1.0
 40
1.0
 40
1.0
 40
1.0
 10
-37.8303
 20
-10.7428
 30
0.0
 10
-37.8303
 20
-10.7428
 30
0.0
 10
-37.8303
 20
-9.3027
 30
0.0
 10
-37.8303
 20
-9.3027
 30
0.0
  0
SPLINE
  5
F1
330
1F
100
AcDbEntity
  8
Ilustrace
 62
   250
370
    30
100
AcDbSpline
210
0.0
220
0.0
230
1.0
 70
    24
 71
     3
 72
     8
 73
     4
 74
     0
 42
0.0000000001
 43
0.0000000001
 40
0.0
 40
0.0
 40
0.0
 40
0.0
 40
1.0
 40
1.0
 40
1.0
 40
1.0
 10
-67.3503
 20
2.9973
 30
0.0
 10
-67.3503
 20
2.9973
 30
0.0
 10
-54.3903
 20
2.9973
 30
0.0
 10
-54.3903
 20
2.9973
 30
0.0
  0
SPLINE
  5
F2
330
1F
100
AcDbEntity
  8
Ilustrace
 62
   250
370
    30
100
AcDbSpline
210
0.0
220
0.0
230
1.0
 70
    24
 71
     3
 72
     8
 73
     4
 74
     0
 42
0.0000000001
 43
0.0000000001
 40
0.0
 40
0.0
 40
0.0
 40
0.0
 40
1.0
 40
1.0
 40
1.0
 40
1.0
 10
-54.3903
 20
-14.4626
 30
0.0
 10
-54.3903
 20
-14.4626
 30
0.0
 10
-67.3503
 20
-14.4626
 30
0.0
 10
-67.3503
 20
-14.4626
 30
0.0
  0
SPLINE
  5
F3
330
1F
100
AcDbEntity
  8
Ilustrace
 62
   250
370
    30
100
AcDbSpline
210
0.0
220
0.0
230
1.0
 70
     8
 71
     3
 72
    24
 73
    20
 74
     0
 42
0.0000000001
 43
0.0000000001
 40
0.0
 40
0.0
 40
0.0
 40
0.0
 40
0.1666666666666667
 40
0.1666666666666667
 40
0.1666666666666667
 40
0.1666666666666667
 40
0.3333333333333333
 40
0.3333333333333333
 40
0.3333333333333333
 40
0.3333333333333333
 40
0.5
 40
0.5
 40
0.5
 40
0.5
 40
0.6666666666666666
 40
0.6666666666666666
 40
0.6666666666666666
 40
0.6666666666666666
 40
1.0
 40
1.0
 40
1.0
 40
1.0
 10
-37.9295
 20
-14.3131
 30
0.0
 10
-37.9295
 20
-14.3131
 30
0.0
 10
-46.6829
 20
-14.2469
 30
0.0
 10
-46.6829
 20
-14.2469
 30
0.0
 10
-46.6829
 20
-14.2469
 30
0.0
 10
-46.6829
 20
-14.2469
 30
0.0
 10
-46.9089
 20
-14.3379
 30
0.0
 10
-46.9089
 20
-14.3379
 30
0.0
 10
-46.9089
 20
-14.3379
 30
0.0
 10
-46.9089
 20
-14.3379
 30
0.0
 10
-47.0163
 20
-14.4316
 30
0.0
 10
-47.0163
 20
-14.4316
 30
0.0
 10
-47.0163
 20
-14.4316
 30
0.0
 10
-47.0163
 20
-14.4316
 30
0.0
 10
-47.0274
 20
-14.5915
 30
0.0
 10
-47.0274
 20
-14.5915
 30
0.0
 10
-47.0274
 20
-14.5915
 30
0.0
 10
-47.0274
 20
-14.5915
 30
0.0
 10
-47.0329
 20
-15.0297
 30
0.0
 10
-47.0329
 20
-15.0297
 30
0.0
  0
SPLINE
  5
F4
330
1F
100
AcDbEntity
  8
Ilustrace
 62
   250
370
    30
100
AcDbSpline
210
0.0
220
0.0
230
1.0
 70
     8
 71
     3
 72
    24
 73
    20
 74
     0
 42
0.0000000001
 43
0.0000000001
 40
0.0
 40
0.0
 40
0.0
 40
0.0
 40
0.1666666666666667
 40
0.1666666666666667
 40
0.1666666666666667
 40
0.1666666666666667
 40
0.3333333333333333
 40
0.3333333333333333
 40
0.3333333333333333
 40
0.3333333333333333
 40
0.5
 40
0.5
 40
0.5
 40
0.5
 40
0.6666666666666666
 40
0.6666666666666666
 40
0.6666666666666666
 40
0.6666666666666666
 40
1.0
 40
1.0
 40
1.0
 40
1.0
 10
-37.8854
 20
2.9843
 30
0.0
 10
-37.8854
 20
2.9843
 30
0.0
 10
-46.6388
 20
2.9181
 30
0.0
 10
-46.6388
 20
2.9181
 30
0.0
 10
-46.6388
 20
2.9181
 30
0.0
 10
-46.6388
 20
2.9181
 30
0.0
 10
-46.8648
 20
3.0091
 30
0.0
 10
-46.8648
 20
3.0091
 30
0.0
 10
-46.8648
 20
3.0091
 30
0.0
 10
-46.8648
 20
3.0091
 30
0.0
 10
-46.9722
 20
3.1028
 30
0.0
 10
-46.9722
 20
3.1028
 30
0.0
 10
-46.9722
 20
3.1028
 30
0.0
 10
-46.9722
 20
3.1028
 30
0.0
 10
-46.9833
 20
3.2627
 30
0.0
 10
-46.9833
 20
3.2627
 30
0.0
 10
-46.9833
 20
3.2627
 30
0.0
 10
-46.9833
 20
3.2627
 30
0.0
 10
-46.9888
 20
3.7009
 30
0.0
 10
-46.9888
 20
3.7009
 30
0.0
  0
SPLINE
  5
F5
330
1F
100
AcDbEntity
  8
Ilustrace
 62
   250
370
    30
100
AcDbSpline
210
0.0
220
0.0
230
1.0
 70
     8
 71
     3
 72
    24
 73
    20
 74
     0
 42
0.0000000001
 43
0.0000000001
 40
0.0
 40
0.0
 40
0.0
 40
0.0
 40
0.1666666666666667
 40
0.1666666666666667
 40
0.1666666666666667
 40
0.1666666666666667
 40
0.3333333333333333
 40
0.3333333333333333
 40
0.3333333333333333
 40
0.3333333333333333
 40
0.5
 40
0.5
 40
0.5
 40
0.5
 40
0.6666666666666666
 40
0.6666666666666666
 40
0.6666666666666666
 40
0.6666666666666666
 40
1.0
 40
1.0
 40
1.0
 40
1.0
 10
20.1208
 20
-14.2909
 30
0.0
 10
20.1208
 20
-14.2909
 30
0.0
 10
28.7308
 20
-14.2137
 30
0.0
 10
28.7308
 20
-14.2137
 30
0.0
 10
28.7308
 20
-14.2137
 30
0.0
 10
28.7308
 20
-14.2137
 30
0.0
 10
28.9568
 20
-14.3047
 30
0.0
 10
28.9568
 20
-14.3047
 30
0.0
 10
28.9568
 20
-14.3047
 30
0.0
 10
28.9568
 20
-14.3047
 30
0.0
 10
29.0642
 20
-14.3984
 30
0.0
 10
29.0642
 20
-14.3984
 30
0.0
 10
29.0642
 20
-14.3984
 30
0.0
 10
29.0642
 20
-14.3984
 30
0.0
 10
29.0753
 20
-14.5583
 30
0.0
 10
29.0753
 20
-14.5583
 30
0.0
 10
29.0753
 20
-14.5583
 30
0.0
 10
29.0753
 20
-14.5583
 30
0.0
 10
29.0808
 20
-14.9965
 30
0.0
 10
29.0808
 20
-14.9965
 30
0.0
  0
SPLINE
  5
F6
330
1F
100
AcDbEntity
  8
Ilustrace
 62
   250
370
    30
100
AcDbSpline
210
0.0
220
0.0
230
1.0
 70
     8
 71
     3
 72
    24
 73
    20
 74
     0
 42
0.0000000001
 43
0.0000000001
 40
0.0
 40
0.0
 40
0.0
 40
0.0
 40
0.1666666666666667
 40
0.1666666666666667
 40
0.1666666666666667
 40
0.1666666666666667
 40
0.3333333333333333
 40
0.3333333333333333
 40
0.3333333333333333
 40
0.3333333333333333
 40
0.5
 40
0.5
 40
0.5
 40
0.5
 40
0.6666666666666666
 40
0.6666666666666666
 40
0.6666666666666666
 40
0.6666666666666666
 40
1.0
 40
1.0
 40
1.0
 40
1.0
 10
20.1208
 20
2.8649
 30
0.0
 10
20.1208
 20
2.8649
 30
0.0
 10
28.7308
 20
2.7877
 30
0.0
 10
28.7308
 20
2.7877
 30
0.0
 10
28.7308
 20
2.7877
 30
0.0
 10
28.7308
 20
2.7877
 30
0.0
 10
28.9568
 20
2.8787
 30
0.0
 10
28.9568
 20
2.8787
 30
0.0
 10
28.9568
 20
2.8787
 30
0.0
 10
28.9568
 20
2.8787
 30
0.0
 10
29.0642
 20
2.9724
 30
0.0
 10
29.0642
 20
2.9724
 30
0.0
 10
29.0642
 20
2.9724
 30
0.0
 10
29.0642
 20
2.9724
 30
0.0
 10
29.0753
 20
3.1323
 30
0.0
 10
29.0753
 20
3.1323
 30
0.0
 10
29.0753
 20
3.1323
 30
0.0
 10
29.0753
 20
3.1323
 30
0.0
 10
29.0808
 20
3.5705
 30
0.0
 10
29.0808
 20
3.5705
 30
0.0
  0
SPLINE
  5
F7
330
1F
100
AcDbEntity
  8
Ilustrace
 62
   250
370
    15
100
AcDbSpline
210
0.0
220
0.0
230
1.0
 70
     8
 71
     3
 72
    40
 73
    36
 74
     0
 42
0.0000000001
 43
0.0000000001
 40
0.0
 40
0.0
 40
0.0
 40
0.0
 40
0.1
 40
0.1
 40
0.1
 40
0.1
 40
0.2
 40
0.2
 40
0.2
 40
0.2
 40
0.3
 40
0.3
 40
0.3
 40
0.3
 40
0.4
 40
0.4
 40
0.4
 40
0.4
 40
0.5
 40
0.5
 40
0.5
 40
0.5
 40
0.6
 40
0.6
 40
0.6
 40
0.6
 40
0.7
 40
0.7
 40
0.7
 40
0.7
 40
0.8
 40
0.8
 40
0.8
 40
0.8
 40
1.0
 40
1.0
 40
1.0
 40
1.0
 10
-32.228
 20
6.3488
 30
0.0
 10
-32.228
 20
6.3488
 30
0.0
 10
-32.228
 20
6.1752
 30
0.0
 10
-32.228
 20
6.1752
 30
0.0
 10
-32.228
 20
6.1752
 30
0.0
 10
-32.228
 20
5.1569
 30
0.0
 10
-32.4639
 20
4.465
 30
0.0
 10
-32.4639
 20
3.5111
 30
0.0
 10
-32.4639
 20
3.5111
 30
0.0
 10
-32.4639
 20
3.5111
 30
0.0
 10
-32.4639
 20
2.9605
 30
0.0
 10
-32.4639
 20
2.9605
 30
0.0
 10
-32.4639
 20
2.9605
 30
0.0
 10
-32.464
 20
0.5621
 30
0.0
 10
-32.4869
 20
-2.8451
 30
0.0
 10
-32.6642
 20
-5.1371
 30
0.0
 10
-32.6642
 20
-5.1371
 30
0.0
 10
-32.6642
 20
-5.1371
 30
0.0
 10
-32.6823
 20
-5.3716
 30
0.0
 10
-32.6823
 20
-5.3716
 30
0.0
 10
-32.6823
 20
-5.3716
 30
0.0
 10
-32.8102
 20
-7.0242
 30
0.0
 10
-32.7624
 20
-7.9389
 30
0.0
 10
-32.8827
 20
-9.5889
 30
0.0
 10
-32.8827
 20
-9.5889
 30
0.0
 10
-32.9483
 20
-10.4892
 30
0.0
 10
-32.9607
 20
-11.4442
 30
0.0
 10
-33.114
 20
-12.3178
 30
0.0
 10
-33.114
 20
-12.3178
 30
0.0
 10
-33.2592
 20
-13.1455
 30
0.0
 10
-33.4631
 20
-15.6951
 30
0.0
 10
-33.6855
 20
-16.2076
 30
0.0
 10
-33.6855
 20
-16.2076
 30
0.0
 10
-33.7253
 20
-16.2992
 30
0.0
 10
-33.9214
 20
-17.3631
 30
0.0
 10
-33.9214
 20
-17.5745
 30
0.0
  0
SPLINE
  5
F8
330
1F
100
AcDbEntity
  8
Ilustrace
 62
   250
370
    30
100
AcDbSpline
210
0.0
220
0.0
230
1.0
 70
    24
 71
     3
 72
     8
 73
     4
 74
     0
 42
0.0000000001
 43
0.0000000001
 40
0.0
 40
0.0
 40
0.0
 40
0.0
 40
1.0
 40
1.0
 40
1.0
 40
1.0
 10
55.3486
 20
-17.3543
 30
0.0
 10
55.3486
 20
-17.3543
 30
0.0
 10
55.3486
 20
-17.6426
 30
0.0
 10
55.3486
 20
-17.6426
 30
0.0
  0
SPLINE
  5
F9
330
1F
100
AcDbEntity
  8
Ilustrace
 62
   250
370
    30
100
AcDbSpline
210
0.0
220
0.0
230
1.0
 70
    24
 71
     3
 72
     8
 73
     4
 74
     0
 42
0.0000000001
 43
0.0000000001
 40
0.0
 40
0.0
 40
0.0
 40
0.0
 40
1.0
 40
1.0
 40
1.0
 40
1.0
 10
-33.9035
 20
-17.6426
 30
0.0
 10
-33.9035
 20
-17.6426
 30
0.0
 10
55.3486
 20
-17.6426
 30
0.0
 10
55.3486
 20
-17.6426
 30
0.0
  0
SPLINE
  5
FA
330
1F
100
AcDbEntity
  8
Ilustrace
 62
   250
370
    30
100
AcDbSpline
210
0.0
220
0.0
230
1.0
 70
    24
 71
     3
 72
     8
 73
     4
 74
     0
 42
0.0000000001
 43
0.0000000001
 40
0.0
 40
0.0
 40
0.0
 40
0.0
 40
1.0
 40
1.0
 40
1.0
 40
1.0
 10
55.3486
 20
-17.3744
 30
0.0
 10
55.3486
 20
-17.3744
 30
0.0
 10
55.3486
 20
-16.6587
 30
0.0
 10
55.3486
 20
-16.6587
 30
0.0
  0
SPLINE
  5
FB
330
1F
100
AcDbEntity
  8
Ilustrace
 62
   250
370
    30
100
AcDbSpline
210
0.0
220
0.0
230
1.0
 70
    24
 71
     3
 72
     8
 73
     4
 74
     0
 42
0.0000000001
 43
0.0000000001
 40
0.0
 40
0.0
 40
0.0
 40
0.0
 40
1.0
 40
1.0
 40
1.0
 40
1.0
 10
55.3486
 20
-17.5379
 30
0.0
 10
55.3486
 20
-17.5379
 30
0.0
 10
55.3486
 20
-17.5108
 30
0.0
 10
55.3486
 20
-17.5108
 30
0.0
  0
SPLINE
  5
FC
330
1F
100
AcDbEntity
  8
Ilustrace
 62
   250
370
    30
100
AcDbSpline
210
0.0
220
0.0
230
1.0
 70
    24
 71
     3
 72
     8
 73
     4
 74
     0
 42
0.0000000001
 43
0.0000000001
 40
0.0
 40
0.0
 40
0.0
 40
0.0
 40
1.0
 40
1.0
 40
1.0
 40
1.0
 10
55.3486
 20
-17.5622
 30
0.0
 10
55.3486
 20
-17.5622
 30
0.0
 10
55.3486
 20
-17.5108
 30
0.0
 10
55.3486
 20
-17.5108
 30
0.0
  0
SPLINE
  5
FD
330
1F
100
AcDbEntity
  8
Ilustrace
 62
   250
370
    30
100
AcDbSpline
210
0.0
220
0.0
230
1.0
 70
    24
 71
     3
 72
     8
 73
     4
 74
     0
 42
0.0000000001
 43
0.0000000001
 40
0.0
 40
0.0
 40
0.0
 40
0.0
 40
1.0
 40
1.0
 40
1.0
 40
1.0
 10
55.3486
 20
-17.6161
 30
0.0
 10
55.3486
 20
-17.6161
 30
0.0
 10
55.3486
 20
-17.6091
 30
0.0
 10
55.3486
 20
-17.6091
 30
0.0
  0
SPLINE
  5
FE
330
1F
100
AcDbEntity
  8
Ilustrace
 62
   250
370
    30
100
AcDbSpline
210
0.0
220
0.0
230
1.0
 70
    24
 71
     3
 72
     8
 73
     4
 74
     0
 42
0.0000000001
 43
0.0000000001
 40
0.0
 40
0.0
 40
0.0
 40
0.0
 40
1.0
 40
1.0
 40
1.0
 40
1.0
 10
55.3486
 20
-17.6277
 30
0.0
 10
55.3486
 20
-17.6277
 30
0.0
 10
55.3486
 20
-17.6091
 30
0.0
 10
55.3486
 20
-17.6091
 30
0.0
  0
SPLINE
  5
FF
330
1F
100
AcDbEntity
  8
Ilustrace
 62
   250
370
    30
100
AcDbSpline
210
0.0
220
0.0
230
1.0
 70
    24
 71
     3
 72
     8
 73
     4
 74
     0
 42
0.0000000001
 43
0.0000000001
 40
0.0
 40
0.0
 40
0.0
 40
0.0
 40
1.0
 40
1.0
 40
1.0
 40
1.0
 10
55.3486
 20
-17.2645
 30
0.0
 10
55.3486
 20
-17.2645
 30
0.0
 10
55.3486
 20
6.3574
 30
0.0
 10
55.3486
 20
6.3574
 30
0.0
  0
SPLINE
  5
100
330
1F
100
AcDbEntity
  8
Ilustrace
 62
   250
370
    30
100
AcDbSpline
210
0.0
220
0.0
230
1.0
 70
    24
 71
     3
 72
     8
 73
     4
 74
     0
 42
0.0000000001
 43
0.0000000001
 40
0.0
 40
0.0
 40
0.0
 40
0.0
 40
1.0
 40
1.0
 40
1.0
 40
1.0
 10
-32.206
 20
6.3573
 30
0.0
 10
-32.206
 20
6.3573
 30
0.0
 10
55.3486
 20
6.3573
 30
0.0
 10
55.3486
 20
6.3573
 30
0.0
  0
SPLINE
  5
101
330
1F
100
AcDbEntity
  8
Ilustrace
 62
   250
370
    30
100
AcDbSpline
210
0.0
220
0.0
230
1.0
 70
    24
 71
     3
 72
     8
 73
     4
 74
     0
 42
0.0000000001
 43
0.0000000001
 40
0.0
 40
0.0
 40
0.0
 40
0.0
 40
1.0
 40
1.0
 40
1.0
 40
1.0
 10
55.3486
 20
6.2768
 30
0.0
 10
55.3486
 20
6.2768
 30
0.0
 10
55.3486
 20
6.2254
 30
0.0
 10
55.3486
 20
6.2254
 30
0.0
  0
SPLINE
  5
102
330
1F
100
AcDbEntity
  8
Ilustrace
 62
   250
370
    30
100
AcDbSpline
210
0.0
220
0.0
230
1.0
 70
    24
 71
     3
 72
     8
 73
     4
 74
     0
 42
0.0000000001
 43
0.0000000001
 40
0.0
 40
0.0
 40
0.0
 40
0.0
 40
1.0
 40
1.0
 40
1.0
 40
1.0
 10
55.3486
 20
6.2527
 30
0.0
 10
55.3486
 20
6.2527
 30
0.0
 10
55.3486
 20
6.2254
 30
0.0
 10
55.3486
 20
6.2254
 30
0.0
  0
SPLINE
  5
103
330
1F
100
AcDbEntity
  8
Ilustrace
 62
   250
370
    30
100
AcDbSpline
210
0.0
220
0.0
230
1.0
 70
    24
 71
     3
 72
     8
 73
     4
 74
     0
 42
0.0000000001
 43
0.0000000001
 40
0.0
 40
0.0
 40
0.0
 40
0.0
 40
1.0
 40
1.0
 40
1.0
 40
1.0
 10
55.3486
 20
6.3307
 30
0.0
 10
55.3486
 20
6.3307
 30
0.0
 10
55.3486
 20
6.3237
 30
0.0
 10
55.3486
 20
6.3237
 30
0.0
  0
SPLINE
  5
104
330
1F
100
AcDbEntity
  8
Ilustrace
 62
   250
370
    30
100
AcDbSpline
210
0.0
220
0.0
230
1.0
 70
    24
 71
     3
 72
     8
 73
     4
 74
     0
 42
0.0000000001
 43
0.0000000001
 40
0.0
 40
0.0
 40
0.0
 40
0.0
 40
1.0
 40
1.0
 40
1.0
 40
1.0
 10
55.3486
 20
6.3423
 30
0.0
 10
55.3486
 20
6.3423
 30
0.0
 10
55.3486
 20
6.3237
 30
0.0
 10
55.3486
 20
6.3237
 30
0.0
  0
SPLINE
  5
105
330
1F
100
AcDbEntity
  8
Ilustrace
 62
   250
370
    30
100
AcDbSpline
210
0.0
220
0.0
230
1.0
 70
    24
 71
     3
 72
     8
 73
     4
 74
     0
 42
0.0000000001
 43
0.0000000001
 40
0.0
 40
0.0
 40
0.0
 40
0.0
 40
1.0
 40
1.0
 40
1.0
 40
1.0
 10
55.3486
 20
6.3505
 30
0.0
 10
55.3486
 20
6.3505
 30
0.0
 10
55.3486
 20
6.3237
 30
0.0
 10
55.3486
 20
6.3237
 30
0.0
  0
SPLINE
  5
106
330
1F
100
AcDbEntity
  8
Ilustrace
 62
   250
370
    30
100
AcDbSpline
210
0.0
220
0.0
230
1.0
 70
    24
 71
     3
 72
     8
 73
     4
 74
     0
 42
0.0000000001
 43
0.0000000001
 40
0.0
 40
0.0
 40
0.0
 40
0.0
 40
1.0
 40
1.0
 40
1.0
 40
1.0
 10
55.3486
 20
6.3556
 30
0.0
 10
55.3486
 20
6.3556
 30
0.0
 10
55.3486
 20
6.3237
 30
0.0
 10
55.3486
 20
6.3237
 30
0.0
  0
SPLINE
  5
107
330
1F
100
AcDbEntity
  8
Ilustrace
 62
   250
370
    30
100
AcDbSpline
210
0.0
220
0.0
230
1.0
 70
    24
 71
     3
 72
     8
 73
     4
 74
     0
 42
0.0000000001
 43
0.0000000001
 40
0.0
 40
0.0
 40
0.0
 40
0.0
 40
1.0
 40
1.0
 40
1.0
 40
1.0
 10
55.3486
 20
-17.6091
 30
0.0
 10
55.3486
 20
-17.6091
 30
0.0
 10
55.3486
 20
-17.641
 30
0.0
 10
55.3486
 20
-17.641
 30
0.0
  0
SPLINE
  5
108
330
1F
100
AcDbEntity
  8
Ilustrace
 62
   250
370
    15
100
AcDbSpline
210
0.0
220
0.0
230
1.0
 70
    24
 71
     3
 72
     8
 73
     4
 74
     0
 42
0.0000000001
 43
0.0000000001
 40
0.0
 40
0.0
 40
0.0
 40
0.0
 40
1.0
 40
1.0
 40
1.0
 40
1.0
 10
-33.7712
 20
-16.9134
 30
0.0
 10
-33.7712
 20
-16.9134
 30
0.0
 10
55.3486
 20
-16.9134
 30
0.0
 10
55.3486
 20
-16.9134
 30
0.0
  0
SPLINE
  5
109
330
1F
100
AcDbEntity
  8
Ilustrace
 62
   250
370
    30
100
AcDbSpline
210
0.0
220
0.0
230
1.0
 70
    24
 71
     3
 72
     8
 73
     4
 74
     0
 42
0.0000000001
 43
0.0000000001
 40
0.0
 40
0.0
 40
0.0
 40
0.0
 40
1.0
 40
1.0
 40
1.0
 40
1.0
 10
20.0689
 20
-6.3827
 30
0.0
 10
20.0689
 20
-6.3827
 30
0.0
 10
33.0288
 20
-6.3827
 30
0.0
 10
33.0288
 20
-6.3827
 30
0.0
  0
SPLINE
  5
10A
330
1F
100
AcDbEntity
  8
Ilustrace
 62
   250
370
    30
100
AcDbSpline
210
0.0
220
0.0
230
1.0
 70
    24
 71
     3
 72
     8
 73
     4
 74
     0
 42
0.0000000001
 43
0.0000000001
 40
0.0
 40
0.0
 40
0.0
 40
0.0
 40
1.0
 40
1.0
 40
1.0
 40
1.0
 10
33.0288
 20
-4.9426
 30
0.0
 10
33.0288
 20
-4.9426
 30
0.0
 10
33.0288
 20
-6.3827
 30
0.0
 10
33.0288
 20
-6.3827
 30
0.0
  0
SPLINE
  5
10B
330
1F
100
AcDbEntity
  8
Ilustrace
 62
   250
370
    30
100
AcDbSpline
210
0.0
220
0.0
230
1.0
 70
    24
 71
     3
 72
     8
 73
     4
 74
     0
 42
0.0000000001
 43
0.0000000001
 40
0.0
 40
0.0
 40
0.0
 40
0.0
 40
1.0
 40
1.0
 40
1.0
 40
1.0
 10
33.0288
 20
-4.9426
 30
0.0
 10
33.0288
 20
-4.9426
 30
0.0
 10
20.0689
 20
-4.9426
 30
0.0
 10
20.0689
 20
-4.9426
 30
0.0
  0
SPLINE
  5
10C
330
1F
100
AcDbEntity
  8
Ilustrace
 62
   250
370
    30
100
AcDbSpline
210
0.0
220
0.0
230
1.0
 70
    24
 71
     3
 72
     8
 73
     4
 74
     0
 42
0.0000000001
 43
0.0000000001
 40
0.0
 40
0.0
 40
0.0
 40
0.0
 40
1.0
 40
1.0
 40
1.0
 40
1.0
 10
20.0689
 20
-6.3827
 30
0.0
 10
20.0689
 20
-6.3827
 30
0.0
 10
20.0689
 20
-4.9426
 30
0.0
 10
20.0689
 20
-4.9426
 30
0.0
  0
SPLINE
  5
10D
330
1F
100
AcDbEntity
  8
Ilustrace
 62
   250
370
    30
100
AcDbSpline
210
0.0
220
0.0
230
1.0
 70
    24
 71
     3
 72
     8
 73
     4
 74
     0
 42
0.0000000001
 43
0.0000000001
 40
0.0
 40
0.0
 40
0.0
 40
0.0
 40
1.0
 40
1.0
 40
1.0
 40
1.0
 10
36.6287
 20
-6.3827
 30
0.0
 10
36.6287
 20
-6.3827
 30
0.0
 10
49.5887
 20
-6.3827
 30
0.0
 10
49.5887
 20
-6.3827
 30
0.0
  0
SPLINE
  5
10E
330
1F
100
AcDbEntity
  8
Ilustrace
 62
   250
370
    30
100
AcDbSpline
210
0.0
220
0.0
230
1.0
 70
    24
 71
     3
 72
     8
 73
     4
 74
     0
 42
0.0000000001
 43
0.0000000001
 40
0.0
 40
0.0
 40
0.0
 40
0.0
 40
1.0
 40
1.0
 40
1.0
 40
1.0
 10
49.5887
 20
-4.9426
 30
0.0
 10
49.5887
 20
-4.9426
 30
0.0
 10
49.5887
 20
-6.3827
 30
0.0
 10
49.5887
 20
-6.3827
 30
0.0
  0
SPLINE
  5
10F
330
1F
100
AcDbEntity
  8
Ilustrace
 62
   250
370
    30
100
AcDbSpline
210
0.0
220
0.0
230
1.0
 70
    24
 71
     3
 72
     8
 73
     4
 74
     0
 42
0.0000000001
 43
0.0000000001
 40
0.0
 40
0.0
 40
0.0
 40
0.0
 40
1.0
 40
1.0
 40
1.0
 40
1.0
 10
49.5887
 20
-4.9426
 30
0.0
 10
49.5887
 20
-4.9426
 30
0.0
 10
36.6287
 20
-4.9426
 30
0.0
 10
36.6287
 20
-4.9426
 30
0.0
  0
SPLINE
  5
110
330
1F
100
AcDbEntity
  8
Ilustrace
 62
   250
370
    30
100
AcDbSpline
210
0.0
220
0.0
230
1.0
 70
    24
 71
     3
 72
     8
 73
     4
 74
     0
 42
0.0000000001
 43
0.0000000001
 40
0.0
 40
0.0
 40
0.0
 40
0.0
 40
1.0
 40
1.0
 40
1.0
 40
1.0
 10
36.6287
 20
-6.3827
 30
0.0
 10
36.6287
 20
-6.3827
 30
0.0
 10
36.6287
 20
-4.9426
 30
0.0
 10
36.6287
 20
-4.9426
 30
0.0
  0
SPLINE
  5
111
330
1F
100
AcDbEntity
  8
Ilustrace
 62
   250
370
    30
100
AcDbSpline
210
0.0
220
0.0
230
1.0
 70
    24
 71
     3
 72
     8
 73
     4
 74
     0
 42
0.0000000001
 43
0.0000000001
 40
0.0
 40
0.0
 40
0.0
 40
0.0
 40
1.0
 40
1.0
 40
1.0
 40
1.0
 10
-13.0511
 20
-6.3827
 30
0.0
 10
-13.0511
 20
-6.3827
 30
0.0
 10
-0.091
 20
-6.3827
 30
0.0
 10
-0.091
 20
-6.3827
 30
0.0
  0
SPLINE
  5
112
330
1F
100
AcDbEntity
  8
Ilustrace
 62
   250
370
    30
100
AcDbSpline
210
0.0
220
0.0
230
1.0
 70
    24
 71
     3
 72
     8
 73
     4
 74
     0
 42
0.0000000001
 43
0.0000000001
 40
0.0
 40
0.0
 40
0.0
 40
0.0
 40
1.0
 40
1.0
 40
1.0
 40
1.0
 10
-0.091
 20
-4.9426
 30
0.0
 10
-0.091
 20
-4.9426
 30
0.0
 10
-0.091
 20
-6.3827
 30
0.0
 10
-0.091
 20
-6.3827
 30
0.0
  0
SPLINE
  5
113
330
1F
100
AcDbEntity
  8
Ilustrace
 62
   250
370
    30
100
AcDbSpline
210
0.0
220
0.0
230
1.0
 70
    24
 71
     3
 72
     8
 73
     4
 74
     0
 42
0.0000000001
 43
0.0000000001
 40
0.0
 40
0.0
 40
0.0
 40
0.0
 40
1.0
 40
1.0
 40
1.0
 40
1.0
 10
-0.091
 20
-4.9426
 30
0.0
 10
-0.091
 20
-4.9426
 30
0.0
 10
-13.0511
 20
-4.9426
 30
0.0
 10
-13.0511
 20
-4.9426
 30
0.0
  0
SPLINE
  5
114
330
1F
100
AcDbEntity
  8
Ilustrace
 62
   250
370
    30
100
AcDbSpline
210
0.0
220
0.0
230
1.0
 70
    24
 71
     3
 72
     8
 73
     4
 74
     0
 42
0.0000000001
 43
0.0000000001
 40
0.0
 40
0.0
 40
0.0
 40
0.0
 40
1.0
 40
1.0
 40
1.0
 40
1.0
 10
-13.0511
 20
-6.3827
 30
0.0
 10
-13.0511
 20
-6.3827
 30
0.0
 10
-13.0511
 20
-4.9426
 30
0.0
 10
-13.0511
 20
-4.9426
 30
0.0
  0
SPLINE
  5
115
330
1F
100
AcDbEntity
  8
Ilustrace
 62
   250
370
    30
100
AcDbSpline
210
0.0
220
0.0
230
1.0
 70
    24
 71
     3
 72
     8
 73
     4
 74
     0
 42
0.0000000001
 43
0.0000000001
 40
0.0
 40
0.0
 40
0.0
 40
0.0
 40
1.0
 40
1.0
 40
1.0
 40
1.0
 10
-29.611
 20
-4.9426
 30
0.0
 10
-29.611
 20
-4.9426
 30
0.0
 10
-29.611
 20
-6.3827
 30
0.0
 10
-29.611
 20
-6.3827
 30
0.0
  0
SPLINE
  5
116
330
1F
100
AcDbEntity
  8
Ilustrace
 62
   250
370
    30
100
AcDbSpline
210
0.0
220
0.0
230
1.0
 70
    24
 71
     3
 72
     8
 73
     4
 74
     0
 42
0.0000000001
 43
0.0000000001
 40
0.0
 40
0.0
 40
0.0
 40
0.0
 40
1.0
 40
1.0
 40
1.0
 40
1.0
 10
-16.651
 20
-6.3827
 30
0.0
 10
-16.651
 20
-6.3827
 30
0.0
 10
-29.611
 20
-6.3827
 30
0.0
 10
-29.611
 20
-6.3827
 30
0.0
  0
SPLINE
  5
117
330
1F
100
AcDbEntity
  8
Ilustrace
 62
   250
370
    30
100
AcDbSpline
210
0.0
220
0.0
230
1.0
 70
    24
 71
     3
 72
     8
 73
     4
 74
     0
 42
0.0000000001
 43
0.0000000001
 40
0.0
 40
0.0
 40
0.0
 40
0.0
 40
1.0
 40
1.0
 40
1.0
 40
1.0
 10
-29.611
 20
-4.9426
 30
0.0
 10
-29.611
 20
-4.9426
 30
0.0
 10
-16.651
 20
-4.9426
 30
0.0
 10
-16.651
 20
-4.9426
 30
0.0
  0
SPLINE
  5
118
330
1F
100
AcDbEntity
  8
Ilustrace
 62
   250
370
    30
100
AcDbSpline
210
0.0
220
0.0
230
1.0
 70
    24
 71
     3
 72
     8
 73
     4
 74
     0
 42
0.0000000001
 43
0.0000000001
 40
0.0
 40
0.0
 40
0.0
 40
0.0
 40
1.0
 40
1.0
 40
1.0
 40
1.0
 10
-16.651
 20
-6.3827
 30
0.0
 10
-16.651
 20
-6.3827
 30
0.0
 10
-16.651
 20
-4.9426
 30
0.0
 10
-16.651
 20
-4.9426
 30
0.0
  0
SPLINE
  5
119
330
1F
100
AcDbEntity
  8
Ilustrace
 62
   250
370
    30
100
AcDbSpline
210
0.0
220
0.0
230
1.0
 70
    24
 71
     3
 72
     8
 73
     4
 74
     0
 42
0.0000000001
 43
0.0000000001
 40
0.0
 40
0.0
 40
0.0
 40
0.0
 40
1.0
 40
1.0
 40
1.0
 40
1.0
 10
3.5089
 20
-6.3827
 30
0.0
 10
3.5089
 20
-6.3827
 30
0.0
 10
16.4688
 20
-6.3827
 30
0.0
 10
16.4688
 20
-6.3827
 30
0.0
  0
SPLINE
  5
11A
330
1F
100
AcDbEntity
  8
Ilustrace
 62
   250
370
    30
100
AcDbSpline
210
0.0
220
0.0
230
1.0
 70
    24
 71
     3
 72
     8
 73
     4
 74
     0
 42
0.0000000001
 43
0.0000000001
 40
0.0
 40
0.0
 40
0.0
 40
0.0
 40
1.0
 40
1.0
 40
1.0
 40
1.0
 10
16.4688
 20
-4.9426
 30
0.0
 10
16.4688
 20
-4.9426
 30
0.0
 10
16.4688
 20
-6.3827
 30
0.0
 10
16.4688
 20
-6.3827
 30
0.0
  0
SPLINE
  5
11B
330
1F
100
AcDbEntity
  8
Ilustrace
 62
   250
370
    30
100
AcDbSpline
210
0.0
220
0.0
230
1.0
 70
    24
 71
     3
 72
     8
 73
     4
 74
     0
 42
0.0000000001
 43
0.0000000001
 40
0.0
 40
0.0
 40
0.0
 40
0.0
 40
1.0
 40
1.0
 40
1.0
 40
1.0
 10
16.4688
 20
-4.9426
 30
0.0
 10
16.4688
 20
-4.9426
 30
0.0
 10
3.5089
 20
-4.9426
 30
0.0
 10
3.5089
 20
-4.9426
 30
0.0
  0
SPLINE
  5
11C
330
1F
100
AcDbEntity
  8
Ilustrace
 62
   250
370
    30
100
AcDbSpline
210
0.0
220
0.0
230
1.0
 70
    24
 71
     3
 72
     8
 73
     4
 74
     0
 42
0.0000000001
 43
0.0000000001
 40
0.0
 40
0.0
 40
0.0
 40
0.0
 40
1.0
 40
1.0
 40
1.0
 40
1.0
 10
3.5089
 20
-6.3827
 30
0.0
 10
3.5089
 20
-6.3827
 30
0.0
 10
3.5089
 20
-4.9426
 30
0.0
 10
3.5089
 20
-4.9426
 30
0.0
  0
SPLINE
  5
11D
330
1F
100
AcDbEntity
  8
Ilustrace
 62
   250
370
    30
100
AcDbSpline
210
0.0
220
0.0
230
1.0
 70
    24
 71
     3
 72
     8
 73
     4
 74
     0
 42
0.0000000001
 43
0.0000000001
 40
0.0
 40
0.0
 40
0.0
 40
0.0
 40
1.0
 40
1.0
 40
1.0
 40
1.0
 10
20.0689
 20
-2.0626
 30
0.0
 10
20.0689
 20
-2.0626
 30
0.0
 10
33.0288
 20
-2.0626
 30
0.0
 10
33.0288
 20
-2.0626
 30
0.0
  0
SPLINE
  5
11E
330
1F
100
AcDbEntity
  8
Ilustrace
 62
   250
370
    30
100
AcDbSpline
210
0.0
220
0.0
230
1.0
 70
    24
 71
     3
 72
     8
 73
     4
 74
     0
 42
0.0000000001
 43
0.0000000001
 40
0.0
 40
0.0
 40
0.0
 40
0.0
 40
1.0
 40
1.0
 40
1.0
 40
1.0
 10
20.0469
 20
-15.0713
 30
0.0
 10
20.0469
 20
-15.0713
 30
0.0
 10
33.0068
 20
-15.0713
 30
0.0
 10
33.0068
 20
-15.0713
 30
0.0
  0
SPLINE
  5
11F
330
1F
100
AcDbEntity
  8
Ilustrace
 62
   250
370
    30
100
AcDbSpline
210
0.0
220
0.0
230
1.0
 70
    24
 71
     3
 72
     8
 73
     4
 74
     0
 42
0.0000000001
 43
0.0000000001
 40
0.0
 40
0.0
 40
0.0
 40
0.0
 40
1.0
 40
1.0
 40
1.0
 40
1.0
 10
20.0469
 20
3.6453
 30
0.0
 10
20.0469
 20
3.6453
 30
0.0
 10
33.0068
 20
3.6453
 30
0.0
 10
33.0068
 20
3.6453
 30
0.0
  0
SPLINE
  5
120
330
1F
100
AcDbEntity
  8
Ilustrace
 62
   250
370
    30
100
AcDbSpline
210
0.0
220
0.0
230
1.0
 70
    24
 71
     3
 72
     8
 73
     4
 74
     0
 42
0.0000000001
 43
0.0000000001
 40
0.0
 40
0.0
 40
0.0
 40
0.0
 40
1.0
 40
1.0
 40
1.0
 40
1.0
 10
33.0288
 20
-0.6228
 30
0.0
 10
33.0288
 20
-0.6228
 30
0.0
 10
33.0288
 20
-2.0626
 30
0.0
 10
33.0288
 20
-2.0626
 30
0.0
  0
SPLINE
  5
121
330
1F
100
AcDbEntity
  8
Ilustrace
 62
   250
370
    30
100
AcDbSpline
210
0.0
220
0.0
230
1.0
 70
    24
 71
     3
 72
     8
 73
     4
 74
     0
 42
0.0000000001
 43
0.0000000001
 40
0.0
 40
0.0
 40
0.0
 40
0.0
 40
1.0
 40
1.0
 40
1.0
 40
1.0
 10
33.0068
 20
-13.6315
 30
0.0
 10
33.0068
 20
-13.6315
 30
0.0
 10
33.0068
 20
-15.0713
 30
0.0
 10
33.0068
 20
-15.0713
 30
0.0
  0
SPLINE
  5
122
330
1F
100
AcDbEntity
  8
Ilustrace
 62
   250
370
    30
100
AcDbSpline
210
0.0
220
0.0
230
1.0
 70
    24
 71
     3
 72
     8
 73
     4
 74
     0
 42
0.0000000001
 43
0.0000000001
 40
0.0
 40
0.0
 40
0.0
 40
0.0
 40
1.0
 40
1.0
 40
1.0
 40
1.0
 10
33.0068
 20
2.2055
 30
0.0
 10
33.0068
 20
2.2055
 30
0.0
 10
33.0068
 20
3.6453
 30
0.0
 10
33.0068
 20
3.6453
 30
0.0
  0
SPLINE
  5
123
330
1F
100
AcDbEntity
  8
Ilustrace
 62
   250
370
    30
100
AcDbSpline
210
0.0
220
0.0
230
1.0
 70
    24
 71
     3
 72
     8
 73
     4
 74
     0
 42
0.0000000001
 43
0.0000000001
 40
0.0
 40
0.0
 40
0.0
 40
0.0
 40
1.0
 40
1.0
 40
1.0
 40
1.0
 10
33.0288
 20
-0.6228
 30
0.0
 10
33.0288
 20
-0.6228
 30
0.0
 10
20.0689
 20
-0.6228
 30
0.0
 10
20.0689
 20
-0.6228
 30
0.0
  0
SPLINE
  5
124
330
1F
100
AcDbEntity
  8
Ilustrace
 62
   250
370
    30
100
AcDbSpline
210
0.0
220
0.0
230
1.0
 70
    24
 71
     3
 72
     8
 73
     4
 74
     0
 42
0.0000000001
 43
0.0000000001
 40
0.0
 40
0.0
 40
0.0
 40
0.0
 40
1.0
 40
1.0
 40
1.0
 40
1.0
 10
33.0068
 20
-13.6315
 30
0.0
 10
33.0068
 20
-13.6315
 30
0.0
 10
20.0469
 20
-13.6315
 30
0.0
 10
20.0469
 20
-13.6315
 30
0.0
  0
SPLINE
  5
125
330
1F
100
AcDbEntity
  8
Ilustrace
 62
   250
370
    30
100
AcDbSpline
210
0.0
220
0.0
230
1.0
 70
    24
 71
     3
 72
     8
 73
     4
 74
     0
 42
0.0000000001
 43
0.0000000001
 40
0.0
 40
0.0
 40
0.0
 40
0.0
 40
1.0
 40
1.0
 40
1.0
 40
1.0
 10
33.0068
 20
2.2055
 30
0.0
 10
33.0068
 20
2.2055
 30
0.0
 10
20.0469
 20
2.2055
 30
0.0
 10
20.0469
 20
2.2055
 30
0.0
  0
SPLINE
  5
126
330
1F
100
AcDbEntity
  8
Ilustrace
 62
   250
370
    30
100
AcDbSpline
210
0.0
220
0.0
230
1.0
 70
    24
 71
     3
 72
     8
 73
     4
 74
     0
 42
0.0000000001
 43
0.0000000001
 40
0.0
 40
0.0
 40
0.0
 40
0.0
 40
1.0
 40
1.0
 40
1.0
 40
1.0
 10
20.0689
 20
-2.0626
 30
0.0
 10
20.0689
 20
-2.0626
 30
0.0
 10
20.0689
 20
-0.6228
 30
0.0
 10
20.0689
 20
-0.6228
 30
0.0
  0
SPLINE
  5
127
330
1F
100
AcDbEntity
  8
Ilustrace
 62
   250
370
    30
100
AcDbSpline
210
0.0
220
0.0
230
1.0
 70
    24
 71
     3
 72
     8
 73
     4
 74
     0
 42
0.0000000001
 43
0.0000000001
 40
0.0
 40
0.0
 40
0.0
 40
0.0
 40
1.0
 40
1.0
 40
1.0
 40
1.0
 10
20.0469
 20
-15.0713
 30
0.0
 10
20.0469
 20
-15.0713
 30
0.0
 10
20.0469
 20
-13.6315
 30
0.0
 10
20.0469
 20
-13.6315
 30
0.0
  0
SPLINE
  5
128
330
1F
100
AcDbEntity
  8
Ilustrace
 62
   250
370
    30
100
AcDbSpline
210
0.0
220
0.0
230
1.0
 70
    24
 71
     3
 72
     8
 73
     4
 74
     0
 42
0.0000000001
 43
0.0000000001
 40
0.0
 40
0.0
 40
0.0
 40
0.0
 40
1.0
 40
1.0
 40
1.0
 40
1.0
 10
20.0469
 20
3.6453
 30
0.0
 10
20.0469
 20
3.6453
 30
0.0
 10
20.0469
 20
2.2055
 30
0.0
 10
20.0469
 20
2.2055
 30
0.0
  0
SPLINE
  5
129
330
1F
100
AcDbEntity
  8
Ilustrace
 62
   250
370
    30
100
AcDbSpline
210
0.0
220
0.0
230
1.0
 70
    24
 71
     3
 72
     8
 73
     4
 74
     0
 42
0.0000000001
 43
0.0000000001
 40
0.0
 40
0.0
 40
0.0
 40
0.0
 40
1.0
 40
1.0
 40
1.0
 40
1.0
 10
36.6287
 20
-2.0626
 30
0.0
 10
36.6287
 20
-2.0626
 30
0.0
 10
49.5887
 20
-2.0626
 30
0.0
 10
49.5887
 20
-2.0626
 30
0.0
  0
SPLINE
  5
12A
330
1F
100
AcDbEntity
  8
Ilustrace
 62
   250
370
    30
100
AcDbSpline
210
0.0
220
0.0
230
1.0
 70
    24
 71
     3
 72
     8
 73
     4
 74
     0
 42
0.0000000001
 43
0.0000000001
 40
0.0
 40
0.0
 40
0.0
 40
0.0
 40
1.0
 40
1.0
 40
1.0
 40
1.0
 10
36.6067
 20
-15.0713
 30
0.0
 10
36.6067
 20
-15.0713
 30
0.0
 10
49.5667
 20
-15.0713
 30
0.0
 10
49.5667
 20
-15.0713
 30
0.0
  0
SPLINE
  5
12B
330
1F
100
AcDbEntity
  8
Ilustrace
 62
   250
370
    30
100
AcDbSpline
210
0.0
220
0.0
230
1.0
 70
    24
 71
     3
 72
     8
 73
     4
 74
     0
 42
0.0000000001
 43
0.0000000001
 40
0.0
 40
0.0
 40
0.0
 40
0.0
 40
1.0
 40
1.0
 40
1.0
 40
1.0
 10
49.5887
 20
-0.6228
 30
0.0
 10
49.5887
 20
-0.6228
 30
0.0
 10
49.5887
 20
-2.0626
 30
0.0
 10
49.5887
 20
-2.0626
 30
0.0
  0
SPLINE
  5
12C
330
1F
100
AcDbEntity
  8
Ilustrace
 62
   250
370
    30
100
AcDbSpline
210
0.0
220
0.0
230
1.0
 70
    24
 71
     3
 72
     8
 73
     4
 74
     0
 42
0.0000000001
 43
0.0000000001
 40
0.0
 40
0.0
 40
0.0
 40
0.0
 40
1.0
 40
1.0
 40
1.0
 40
1.0
 10
49.5667
 20
-13.6315
 30
0.0
 10
49.5667
 20
-13.6315
 30
0.0
 10
49.5667
 20
-15.0713
 30
0.0
 10
49.5667
 20
-15.0713
 30
0.0
  0
SPLINE
  5
12D
330
1F
100
AcDbEntity
  8
Ilustrace
 62
   250
370
    30
100
AcDbSpline
210
0.0
220
0.0
230
1.0
 70
    24
 71
     3
 72
     8
 73
     4
 74
     0
 42
0.0000000001
 43
0.0000000001
 40
0.0
 40
0.0
 40
0.0
 40
0.0
 40
1.0
 40
1.0
 40
1.0
 40
1.0
 10
49.5887
 20
-0.6228
 30
0.0
 10
49.5887
 20
-0.6228
 30
0.0
 10
36.6287
 20
-0.6228
 30
0.0
 10
36.6287
 20
-0.6228
 30
0.0
  0
SPLINE
  5
12E
330
1F
100
AcDbEntity
  8
Ilustrace
 62
   250
370
    30
100
AcDbSpline
210
0.0
220
0.0
230
1.0
 70
    24
 71
     3
 72
     8
 73
     4
 74
     0
 42
0.0000000001
 43
0.0000000001
 40
0.0
 40
0.0
 40
0.0
 40
0.0
 40
1.0
 40
1.0
 40
1.0
 40
1.0
 10
49.5667
 20
-13.6315
 30
0.0
 10
49.5667
 20
-13.6315
 30
0.0
 10
36.6067
 20
-13.6315
 30
0.0
 10
36.6067
 20
-13.6315
 30
0.0
  0
SPLINE
  5
12F
330
1F
100
AcDbEntity
  8
Ilustrace
 62
   250
370
    30
100
AcDbSpline
210
0.0
220
0.0
230
1.0
 70
    24
 71
     3
 72
     8
 73
     4
 74
     0
 42
0.0000000001
 43
0.0000000001
 40
0.0
 40
0.0
 40
0.0
 40
0.0
 40
1.0
 40
1.0
 40
1.0
 40
1.0
 10
36.6287
 20
-2.0626
 30
0.0
 10
36.6287
 20
-2.0626
 30
0.0
 10
36.6287
 20
-0.6228
 30
0.0
 10
36.6287
 20
-0.6228
 30
0.0
  0
SPLINE
  5
130
330
1F
100
AcDbEntity
  8
Ilustrace
 62
   250
370
    30
100
AcDbSpline
210
0.0
220
0.0
230
1.0
 70
    24
 71
     3
 72
     8
 73
     4
 74
     0
 42
0.0000000001
 43
0.0000000001
 40
0.0
 40
0.0
 40
0.0
 40
0.0
 40
1.0
 40
1.0
 40
1.0
 40
1.0
 10
36.6067
 20
-15.0713
 30
0.0
 10
36.6067
 20
-15.0713
 30
0.0
 10
36.6067
 20
-13.6315
 30
0.0
 10
36.6067
 20
-13.6315
 30
0.0
  0
SPLINE
  5
131
330
1F
100
AcDbEntity
  8
Ilustrace
 62
   250
370
    30
100
AcDbSpline
210
0.0
220
0.0
230
1.0
 70
    24
 71
     3
 72
     8
 73
     4
 74
     0
 42
0.0000000001
 43
0.0000000001
 40
0.0
 40
0.0
 40
0.0
 40
0.0
 40
1.0
 40
1.0
 40
1.0
 40
1.0
 10
3.5089
 20
-2.0626
 30
0.0
 10
3.5089
 20
-2.0626
 30
0.0
 10
16.4688
 20
-2.0626
 30
0.0
 10
16.4688
 20
-2.0626
 30
0.0
  0
SPLINE
  5
132
330
1F
100
AcDbEntity
  8
Ilustrace
 62
   250
370
    30
100
AcDbSpline
210
0.0
220
0.0
230
1.0
 70
    24
 71
     3
 72
     8
 73
     4
 74
     0
 42
0.0000000001
 43
0.0000000001
 40
0.0
 40
0.0
 40
0.0
 40
0.0
 40
1.0
 40
1.0
 40
1.0
 40
1.0
 10
3.4869
 20
-15.0713
 30
0.0
 10
3.4869
 20
-15.0713
 30
0.0
 10
16.4468
 20
-15.0713
 30
0.0
 10
16.4468
 20
-15.0713
 30
0.0
  0
SPLINE
  5
133
330
1F
100
AcDbEntity
  8
Ilustrace
 62
   250
370
    30
100
AcDbSpline
210
0.0
220
0.0
230
1.0
 70
    24
 71
     3
 72
     8
 73
     4
 74
     0
 42
0.0000000001
 43
0.0000000001
 40
0.0
 40
0.0
 40
0.0
 40
0.0
 40
1.0
 40
1.0
 40
1.0
 40
1.0
 10
16.4688
 20
-0.6228
 30
0.0
 10
16.4688
 20
-0.6228
 30
0.0
 10
16.4688
 20
-2.0626
 30
0.0
 10
16.4688
 20
-2.0626
 30
0.0
  0
SPLINE
  5
134
330
1F
100
AcDbEntity
  8
Ilustrace
 62
   250
370
    30
100
AcDbSpline
210
0.0
220
0.0
230
1.0
 70
    24
 71
     3
 72
     8
 73
     4
 74
     0
 42
0.0000000001
 43
0.0000000001
 40
0.0
 40
0.0
 40
0.0
 40
0.0
 40
1.0
 40
1.0
 40
1.0
 40
1.0
 10
16.4468
 20
-13.6315
 30
0.0
 10
16.4468
 20
-13.6315
 30
0.0
 10
16.4468
 20
-15.0713
 30
0.0
 10
16.4468
 20
-15.0713
 30
0.0
  0
SPLINE
  5
135
330
1F
100
AcDbEntity
  8
Ilustrace
 62
   250
370
    30
100
AcDbSpline
210
0.0
220
0.0
230
1.0
 70
    24
 71
     3
 72
     8
 73
     4
 74
     0
 42
0.0000000001
 43
0.0000000001
 40
0.0
 40
0.0
 40
0.0
 40
0.0
 40
1.0
 40
1.0
 40
1.0
 40
1.0
 10
16.4688
 20
-0.6228
 30
0.0
 10
16.4688
 20
-0.6228
 30
0.0
 10
3.5089
 20
-0.6228
 30
0.0
 10
3.5089
 20
-0.6228
 30
0.0
  0
SPLINE
  5
136
330
1F
100
AcDbEntity
  8
Ilustrace
 62
   250
370
    30
100
AcDbSpline
210
0.0
220
0.0
230
1.0
 70
    24
 71
     3
 72
     8
 73
     4
 74
     0
 42
0.0000000001
 43
0.0000000001
 40
0.0
 40
0.0
 40
0.0
 40
0.0
 40
1.0
 40
1.0
 40
1.0
 40
1.0
 10
16.4468
 20
-13.6315
 30
0.0
 10
16.4468
 20
-13.6315
 30
0.0
 10
3.4869
 20
-13.6315
 30
0.0
 10
3.4869
 20
-13.6315
 30
0.0
  0
SPLINE
  5
137
330
1F
100
AcDbEntity
  8
Ilustrace
 62
   250
370
    30
100
AcDbSpline
210
0.0
220
0.0
230
1.0
 70
    24
 71
     3
 72
     8
 73
     4
 74
     0
 42
0.0000000001
 43
0.0000000001
 40
0.0
 40
0.0
 40
0.0
 40
0.0
 40
1.0
 40
1.0
 40
1.0
 40
1.0
 10
3.5089
 20
-2.0626
 30
0.0
 10
3.5089
 20
-2.0626
 30
0.0
 10
3.5089
 20
-0.6228
 30
0.0
 10
3.5089
 20
-0.6228
 30
0.0
  0
SPLINE
  5
138
330
1F
100
AcDbEntity
  8
Ilustrace
 62
   250
370
    30
100
AcDbSpline
210
0.0
220
0.0
230
1.0
 70
    24
 71
     3
 72
     8
 73
     4
 74
     0
 42
0.0000000001
 43
0.0000000001
 40
0.0
 40
0.0
 40
0.0
 40
0.0
 40
1.0
 40
1.0
 40
1.0
 40
1.0
 10
3.4869
 20
-15.0713
 30
0.0
 10
3.4869
 20
-15.0713
 30
0.0
 10
3.4869
 20
-13.6315
 30
0.0
 10
3.4869
 20
-13.6315
 30
0.0
  0
SPLINE
  5
139
330
1F
100
AcDbEntity
  8
Ilustrace
 62
   250
370
    30
100
AcDbSpline
210
0.0
220
0.0
230
1.0
 70
    24
 71
     3
 72
     8
 73
     4
 74
     0
 42
0.0000000001
 43
0.0000000001
 40
0.0
 40
0.0
 40
0.0
 40
0.0
 40
1.0
 40
1.0
 40
1.0
 40
1.0
 10
-29.611
 20
-2.0626
 30
0.0
 10
-29.611
 20
-2.0626
 30
0.0
 10
-16.651
 20
-2.0626
 30
0.0
 10
-16.651
 20
-2.0626
 30
0.0
  0
SPLINE
  5
13A
330
1F
100
AcDbEntity
  8
Ilustrace
 62
   250
370
    30
100
AcDbSpline
210
0.0
220
0.0
230
1.0
 70
    24
 71
     3
 72
     8
 73
     4
 74
     0
 42
0.0000000001
 43
0.0000000001
 40
0.0
 40
0.0
 40
0.0
 40
0.0
 40
1.0
 40
1.0
 40
1.0
 40
1.0
 10
-29.633
 20
-15.0713
 30
0.0
 10
-29.633
 20
-15.0713
 30
0.0
 10
-16.673
 20
-15.0713
 30
0.0
 10
-16.673
 20
-15.0713
 30
0.0
  0
SPLINE
  5
13B
330
1F
100
AcDbEntity
  8
Ilustrace
 62
   250
370
    30
100
AcDbSpline
210
0.0
220
0.0
230
1.0
 70
    24
 71
     3
 72
     8
 73
     4
 74
     0
 42
0.0000000001
 43
0.0000000001
 40
0.0
 40
0.0
 40
0.0
 40
0.0
 40
1.0
 40
1.0
 40
1.0
 40
1.0
 10
-16.651
 20
-0.6228
 30
0.0
 10
-16.651
 20
-0.6228
 30
0.0
 10
-16.651
 20
-2.0626
 30
0.0
 10
-16.651
 20
-2.0626
 30
0.0
  0
SPLINE
  5
13C
330
1F
100
AcDbEntity
  8
Ilustrace
 62
   250
370
    30
100
AcDbSpline
210
0.0
220
0.0
230
1.0
 70
    24
 71
     3
 72
     8
 73
     4
 74
     0
 42
0.0000000001
 43
0.0000000001
 40
0.0
 40
0.0
 40
0.0
 40
0.0
 40
1.0
 40
1.0
 40
1.0
 40
1.0
 10
-16.673
 20
-13.6315
 30
0.0
 10
-16.673
 20
-13.6315
 30
0.0
 10
-16.673
 20
-15.0713
 30
0.0
 10
-16.673
 20
-15.0713
 30
0.0
  0
SPLINE
  5
13D
330
1F
100
AcDbEntity
  8
Ilustrace
 62
   250
370
    30
100
AcDbSpline
210
0.0
220
0.0
230
1.0
 70
    24
 71
     3
 72
     8
 73
     4
 74
     0
 42
0.0000000001
 43
0.0000000001
 40
0.0
 40
0.0
 40
0.0
 40
0.0
 40
1.0
 40
1.0
 40
1.0
 40
1.0
 10
-16.651
 20
-0.6228
 30
0.0
 10
-16.651
 20
-0.6228
 30
0.0
 10
-29.611
 20
-0.6228
 30
0.0
 10
-29.611
 20
-0.6228
 30
0.0
  0
SPLINE
  5
13E
330
1F
100
AcDbEntity
  8
Ilustrace
 62
   250
370
    30
100
AcDbSpline
210
0.0
220
0.0
230
1.0
 70
    24
 71
     3
 72
     8
 73
     4
 74
     0
 42
0.0000000001
 43
0.0000000001
 40
0.0
 40
0.0
 40
0.0
 40
0.0
 40
1.0
 40
1.0
 40
1.0
 40
1.0
 10
-16.673
 20
-13.6315
 30
0.0
 10
-16.673
 20
-13.6315
 30
0.0
 10
-29.633
 20
-13.6315
 30
0.0
 10
-29.633
 20
-13.6315
 30
0.0
  0
SPLINE
  5
13F
330
1F
100
AcDbEntity
  8
Ilustrace
 62
   250
370
    30
100
AcDbSpline
210
0.0
220
0.0
230
1.0
 70
    24
 71
     3
 72
     8
 73
     4
 74
     0
 42
0.0000000001
 43
0.0000000001
 40
0.0
 40
0.0
 40
0.0
 40
0.0
 40
1.0
 40
1.0
 40
1.0
 40
1.0
 10
-29.611
 20
-2.0626
 30
0.0
 10
-29.611
 20
-2.0626
 30
0.0
 10
-29.611
 20
-0.6228
 30
0.0
 10
-29.611
 20
-0.6228
 30
0.0
  0
SPLINE
  5
140
330
1F
100
AcDbEntity
  8
Ilustrace
 62
   250
370
    30
100
AcDbSpline
210
0.0
220
0.0
230
1.0
 70
    24
 71
     3
 72
     8
 73
     4
 74
     0
 42
0.0000000001
 43
0.0000000001
 40
0.0
 40
0.0
 40
0.0
 40
0.0
 40
1.0
 40
1.0
 40
1.0
 40
1.0
 10
-29.633
 20
-15.0713
 30
0.0
 10
-29.633
 20
-15.0713
 30
0.0
 10
-29.633
 20
-13.6315
 30
0.0
 10
-29.633
 20
-13.6315
 30
0.0
  0
SPLINE
  5
141
330
1F
100
AcDbEntity
  8
Ilustrace
 62
   250
370
    30
100
AcDbSpline
210
0.0
220
0.0
230
1.0
 70
    24
 71
     3
 72
     8
 73
     4
 74
     0
 42
0.0000000001
 43
0.0000000001
 40
0.0
 40
0.0
 40
0.0
 40
0.0
 40
1.0
 40
1.0
 40
1.0
 40
1.0
 10
-13.0511
 20
-2.0626
 30
0.0
 10
-13.0511
 20
-2.0626
 30
0.0
 10
-0.091
 20
-2.0626
 30
0.0
 10
-0.091
 20
-2.0626
 30
0.0
  0
SPLINE
  5
142
330
1F
100
AcDbEntity
  8
Ilustrace
 62
   250
370
    30
100
AcDbSpline
210
0.0
220
0.0
230
1.0
 70
    24
 71
     3
 72
     8
 73
     4
 74
     0
 42
0.0000000001
 43
0.0000000001
 40
0.0
 40
0.0
 40
0.0
 40
0.0
 40
1.0
 40
1.0
 40
1.0
 40
1.0
 10
-13.0731
 20
-15.0713
 30
0.0
 10
-13.0731
 20
-15.0713
 30
0.0
 10
-0.113
 20
-15.0713
 30
0.0
 10
-0.113
 20
-15.0713
 30
0.0
  0
SPLINE
  5
143
330
1F
100
AcDbEntity
  8
Ilustrace
 62
   250
370
    30
100
AcDbSpline
210
0.0
220
0.0
230
1.0
 70
    24
 71
     3
 72
     8
 73
     4
 74
     0
 42
0.0000000001
 43
0.0000000001
 40
0.0
 40
0.0
 40
0.0
 40
0.0
 40
1.0
 40
1.0
 40
1.0
 40
1.0
 10
-0.091
 20
-0.6228
 30
0.0
 10
-0.091
 20
-0.6228
 30
0.0
 10
-0.091
 20
-2.0626
 30
0.0
 10
-0.091
 20
-2.0626
 30
0.0
  0
SPLINE
  5
144
330
1F
100
AcDbEntity
  8
Ilustrace
 62
   250
370
    30
100
AcDbSpline
210
0.0
220
0.0
230
1.0
 70
    24
 71
     3
 72
     8
 73
     4
 74
     0
 42
0.0000000001
 43
0.0000000001
 40
0.0
 40
0.0
 40
0.0
 40
0.0
 40
1.0
 40
1.0
 40
1.0
 40
1.0
 10
-0.113
 20
-13.6315
 30
0.0
 10
-0.113
 20
-13.6315
 30
0.0
 10
-0.113
 20
-15.0713
 30
0.0
 10
-0.113
 20
-15.0713
 30
0.0
  0
SPLINE
  5
145
330
1F
100
AcDbEntity
  8
Ilustrace
 62
   250
370
    30
100
AcDbSpline
210
0.0
220
0.0
230
1.0
 70
    24
 71
     3
 72
     8
 73
     4
 74
     0
 42
0.0000000001
 43
0.0000000001
 40
0.0
 40
0.0
 40
0.0
 40
0.0
 40
1.0
 40
1.0
 40
1.0
 40
1.0
 10
-0.091
 20
-0.6228
 30
0.0
 10
-0.091
 20
-0.6228
 30
0.0
 10
-13.0511
 20
-0.6228
 30
0.0
 10
-13.0511
 20
-0.6228
 30
0.0
  0
SPLINE
  5
146
330
1F
100
AcDbEntity
  8
Ilustrace
 62
   250
370
    30
100
AcDbSpline
210
0.0
220
0.0
230
1.0
 70
    24
 71
     3
 72
     8
 73
     4
 74
     0
 42
0.0000000001
 43
0.0000000001
 40
0.0
 40
0.0
 40
0.0
 40
0.0
 40
1.0
 40
1.0
 40
1.0
 40
1.0
 10
-0.113
 20
-13.6315
 30
0.0
 10
-0.113
 20
-13.6315
 30
0.0
 10
-13.0731
 20
-13.6315
 30
0.0
 10
-13.0731
 20
-13.6315
 30
0.0
  0
SPLINE
  5
147
330
1F
100
AcDbEntity
  8
Ilustrace
 62
   250
370
    30
100
AcDbSpline
210
0.0
220
0.0
230
1.0
 70
    24
 71
     3
 72
     8
 73
     4
 74
     0
 42
0.0000000001
 43
0.0000000001
 40
0.0
 40
0.0
 40
0.0
 40
0.0
 40
1.0
 40
1.0
 40
1.0
 40
1.0
 10
-13.0511
 20
-2.0626
 30
0.0
 10
-13.0511
 20
-2.0626
 30
0.0
 10
-13.0511
 20
-0.6228
 30
0.0
 10
-13.0511
 20
-0.6228
 30
0.0
  0
SPLINE
  5
148
330
1F
100
AcDbEntity
  8
Ilustrace
 62
   250
370
    30
100
AcDbSpline
210
0.0
220
0.0
230
1.0
 70
    24
 71
     3
 72
     8
 73
     4
 74
     0
 42
0.0000000001
 43
0.0000000001
 40
0.0
 40
0.0
 40
0.0
 40
0.0
 40
1.0
 40
1.0
 40
1.0
 40
1.0
 10
-13.0731
 20
-15.0713
 30
0.0
 10
-13.0731
 20
-15.0713
 30
0.0
 10
-13.0731
 20
-13.6315
 30
0.0
 10
-13.0731
 20
-13.6315
 30
0.0
  0
SPLINE
  5
149
330
1F
100
AcDbEntity
  8
Ilustrace
 62
   250
370
    30
100
AcDbSpline
210
0.0
220
0.0
230
1.0
 70
    24
 71
     3
 72
     8
 73
     4
 74
     0
 42
0.0000000001
 43
0.0000000001
 40
0.0
 40
0.0
 40
0.0
 40
0.0
 40
1.0
 40
1.0
 40
1.0
 40
1.0
 10
-29.611
 20
3.6973
 30
0.0
 10
-29.611
 20
3.6973
 30
0.0
 10
-29.611
 20
2.2572
 30
0.0
 10
-29.611
 20
2.2572
 30
0.0
  0
SPLINE
  5
14A
330
1F
100
AcDbEntity
  8
Ilustrace
 62
   250
370
    30
100
AcDbSpline
210
0.0
220
0.0
230
1.0
 70
    24
 71
     3
 72
     8
 73
     4
 74
     0
 42
0.0000000001
 43
0.0000000001
 40
0.0
 40
0.0
 40
0.0
 40
0.0
 40
1.0
 40
1.0
 40
1.0
 40
1.0
 10
-29.633
 20
-9.3114
 30
0.0
 10
-29.633
 20
-9.3114
 30
0.0
 10
-29.633
 20
-10.7515
 30
0.0
 10
-29.633
 20
-10.7515
 30
0.0
  0
SPLINE
  5
14B
330
1F
100
AcDbEntity
  8
Ilustrace
 62
   250
370
    30
100
AcDbSpline
210
0.0
220
0.0
230
1.0
 70
    24
 71
     3
 72
     8
 73
     4
 74
     0
 42
0.0000000001
 43
0.0000000001
 40
0.0
 40
0.0
 40
0.0
 40
0.0
 40
1.0
 40
1.0
 40
1.0
 40
1.0
 10
-16.651
 20
2.2572
 30
0.0
 10
-16.651
 20
2.2572
 30
0.0
 10
-29.611
 20
2.2572
 30
0.0
 10
-29.611
 20
2.2572
 30
0.0
  0
SPLINE
  5
14C
330
1F
100
AcDbEntity
  8
Ilustrace
 62
   250
370
    30
100
AcDbSpline
210
0.0
220
0.0
230
1.0
 70
    24
 71
     3
 72
     8
 73
     4
 74
     0
 42
0.0000000001
 43
0.0000000001
 40
0.0
 40
0.0
 40
0.0
 40
0.0
 40
1.0
 40
1.0
 40
1.0
 40
1.0
 10
-16.673
 20
-10.7515
 30
0.0
 10
-16.673
 20
-10.7515
 30
0.0
 10
-29.633
 20
-10.7515
 30
0.0
 10
-29.633
 20
-10.7515
 30
0.0
  0
SPLINE
  5
14D
330
1F
100
AcDbEntity
  8
Ilustrace
 62
   250
370
    30
100
AcDbSpline
210
0.0
220
0.0
230
1.0
 70
    24
 71
     3
 72
     8
 73
     4
 74
     0
 42
0.0000000001
 43
0.0000000001
 40
0.0
 40
0.0
 40
0.0
 40
0.0
 40
1.0
 40
1.0
 40
1.0
 40
1.0
 10
-29.611
 20
3.6973
 30
0.0
 10
-29.611
 20
3.6973
 30
0.0
 10
-16.651
 20
3.6973
 30
0.0
 10
-16.651
 20
3.6973
 30
0.0
  0
SPLINE
  5
14E
330
1F
100
AcDbEntity
  8
Ilustrace
 62
   250
370
    30
100
AcDbSpline
210
0.0
220
0.0
230
1.0
 70
    24
 71
     3
 72
     8
 73
     4
 74
     0
 42
0.0000000001
 43
0.0000000001
 40
0.0
 40
0.0
 40
0.0
 40
0.0
 40
1.0
 40
1.0
 40
1.0
 40
1.0
 10
-29.633
 20
-9.3114
 30
0.0
 10
-29.633
 20
-9.3114
 30
0.0
 10
-16.673
 20
-9.3114
 30
0.0
 10
-16.673
 20
-9.3114
 30
0.0
  0
SPLINE
  5
14F
330
1F
100
AcDbEntity
  8
Ilustrace
 62
   250
370
    30
100
AcDbSpline
210
0.0
220
0.0
230
1.0
 70
    24
 71
     3
 72
     8
 73
     4
 74
     0
 42
0.0000000001
 43
0.0000000001
 40
0.0
 40
0.0
 40
0.0
 40
0.0
 40
1.0
 40
1.0
 40
1.0
 40
1.0
 10
-16.651
 20
2.2572
 30
0.0
 10
-16.651
 20
2.2572
 30
0.0
 10
-16.651
 20
3.6973
 30
0.0
 10
-16.651
 20
3.6973
 30
0.0
  0
SPLINE
  5
150
330
1F
100
AcDbEntity
  8
Ilustrace
 62
   250
370
    30
100
AcDbSpline
210
0.0
220
0.0
230
1.0
 70
    24
 71
     3
 72
     8
 73
     4
 74
     0
 42
0.0000000001
 43
0.0000000001
 40
0.0
 40
0.0
 40
0.0
 40
0.0
 40
1.0
 40
1.0
 40
1.0
 40
1.0
 10
-16.673
 20
-10.7515
 30
0.0
 10
-16.673
 20
-10.7515
 30
0.0
 10
-16.673
 20
-9.3114
 30
0.0
 10
-16.673
 20
-9.3114
 30
0.0
  0
SPLINE
  5
151
330
1F
100
AcDbEntity
  8
Ilustrace
 62
   250
370
    30
100
AcDbSpline
210
0.0
220
0.0
230
1.0
 70
    24
 71
     3
 72
     8
 73
     4
 74
     0
 42
0.0000000001
 43
0.0000000001
 40
0.0
 40
0.0
 40
0.0
 40
0.0
 40
1.0
 40
1.0
 40
1.0
 40
1.0
 10
-13.0511
 20
2.2572
 30
0.0
 10
-13.0511
 20
2.2572
 30
0.0
 10
-0.091
 20
2.2572
 30
0.0
 10
-0.091
 20
2.2572
 30
0.0
  0
SPLINE
  5
152
330
1F
100
AcDbEntity
  8
Ilustrace
 62
   250
370
    30
100
AcDbSpline
210
0.0
220
0.0
230
1.0
 70
    24
 71
     3
 72
     8
 73
     4
 74
     0
 42
0.0000000001
 43
0.0000000001
 40
0.0
 40
0.0
 40
0.0
 40
0.0
 40
1.0
 40
1.0
 40
1.0
 40
1.0
 10
-13.0731
 20
-10.7515
 30
0.0
 10
-13.0731
 20
-10.7515
 30
0.0
 10
-0.113
 20
-10.7515
 30
0.0
 10
-0.113
 20
-10.7515
 30
0.0
  0
SPLINE
  5
153
330
1F
100
AcDbEntity
  8
Ilustrace
 62
   250
370
    30
100
AcDbSpline
210
0.0
220
0.0
230
1.0
 70
    24
 71
     3
 72
     8
 73
     4
 74
     0
 42
0.0000000001
 43
0.0000000001
 40
0.0
 40
0.0
 40
0.0
 40
0.0
 40
1.0
 40
1.0
 40
1.0
 40
1.0
 10
-0.091
 20
3.6973
 30
0.0
 10
-0.091
 20
3.6973
 30
0.0
 10
-0.091
 20
2.2572
 30
0.0
 10
-0.091
 20
2.2572
 30
0.0
  0
SPLINE
  5
154
330
1F
100
AcDbEntity
  8
Ilustrace
 62
   250
370
    30
100
AcDbSpline
210
0.0
220
0.0
230
1.0
 70
    24
 71
     3
 72
     8
 73
     4
 74
     0
 42
0.0000000001
 43
0.0000000001
 40
0.0
 40
0.0
 40
0.0
 40
0.0
 40
1.0
 40
1.0
 40
1.0
 40
1.0
 10
-0.113
 20
-9.3114
 30
0.0
 10
-0.113
 20
-9.3114
 30
0.0
 10
-0.113
 20
-10.7515
 30
0.0
 10
-0.113
 20
-10.7515
 30
0.0
  0
SPLINE
  5
155
330
1F
100
AcDbEntity
  8
Ilustrace
 62
   250
370
    30
100
AcDbSpline
210
0.0
220
0.0
230
1.0
 70
    24
 71
     3
 72
     8
 73
     4
 74
     0
 42
0.0000000001
 43
0.0000000001
 40
0.0
 40
0.0
 40
0.0
 40
0.0
 40
1.0
 40
1.0
 40
1.0
 40
1.0
 10
-0.091
 20
3.6973
 30
0.0
 10
-0.091
 20
3.6973
 30
0.0
 10
-13.0511
 20
3.6973
 30
0.0
 10
-13.0511
 20
3.6973
 30
0.0
  0
SPLINE
  5
156
330
1F
100
AcDbEntity
  8
Ilustrace
 62
   250
370
    30
100
AcDbSpline
210
0.0
220
0.0
230
1.0
 70
    24
 71
     3
 72
     8
 73
     4
 74
     0
 42
0.0000000001
 43
0.0000000001
 40
0.0
 40
0.0
 40
0.0
 40
0.0
 40
1.0
 40
1.0
 40
1.0
 40
1.0
 10
-0.113
 20
-9.3114
 30
0.0
 10
-0.113
 20
-9.3114
 30
0.0
 10
-13.0731
 20
-9.3114
 30
0.0
 10
-13.0731
 20
-9.3114
 30
0.0
  0
SPLINE
  5
157
330
1F
100
AcDbEntity
  8
Ilustrace
 62
   250
370
    30
100
AcDbSpline
210
0.0
220
0.0
230
1.0
 70
    24
 71
     3
 72
     8
 73
     4
 74
     0
 42
0.0000000001
 43
0.0000000001
 40
0.0
 40
0.0
 40
0.0
 40
0.0
 40
1.0
 40
1.0
 40
1.0
 40
1.0
 10
-13.0511
 20
2.2572
 30
0.0
 10
-13.0511
 20
2.2572
 30
0.0
 10
-13.0511
 20
3.6973
 30
0.0
 10
-13.0511
 20
3.6973
 30
0.0
  0
SPLINE
  5
158
330
1F
100
AcDbEntity
  8
Ilustrace
 62
   250
370
    30
100
AcDbSpline
210
0.0
220
0.0
230
1.0
 70
    24
 71
     3
 72
     8
 73
     4
 74
     0
 42
0.0000000001
 43
0.0000000001
 40
0.0
 40
0.0
 40
0.0
 40
0.0
 40
1.0
 40
1.0
 40
1.0
 40
1.0
 10
-13.0731
 20
-10.7515
 30
0.0
 10
-13.0731
 20
-10.7515
 30
0.0
 10
-13.0731
 20
-9.3114
 30
0.0
 10
-13.0731
 20
-9.3114
 30
0.0
  0
SPLINE
  5
159
330
1F
100
AcDbEntity
  8
Ilustrace
 62
   250
370
    30
100
AcDbSpline
210
0.0
220
0.0
230
1.0
 70
    24
 71
     3
 72
     8
 73
     4
 74
     0
 42
0.0000000001
 43
0.0000000001
 40
0.0
 40
0.0
 40
0.0
 40
0.0
 40
1.0
 40
1.0
 40
1.0
 40
1.0
 10
16.4688
 20
3.6973
 30
0.0
 10
16.4688
 20
3.6973
 30
0.0
 10
16.4688
 20
2.2572
 30
0.0
 10
16.4688
 20
2.2572
 30
0.0
  0
SPLINE
  5
15A
330
1F
100
AcDbEntity
  8
Ilustrace
 62
   250
370
    30
100
AcDbSpline
210
0.0
220
0.0
230
1.0
 70
    24
 71
     3
 72
     8
 73
     4
 74
     0
 42
0.0000000001
 43
0.0000000001
 40
0.0
 40
0.0
 40
0.0
 40
0.0
 40
1.0
 40
1.0
 40
1.0
 40
1.0
 10
16.4468
 20
-9.3114
 30
0.0
 10
16.4468
 20
-9.3114
 30
0.0
 10
16.4468
 20
-10.7515
 30
0.0
 10
16.4468
 20
-10.7515
 30
0.0
  0
SPLINE
  5
15B
330
1F
100
AcDbEntity
  8
Ilustrace
 62
   250
370
    30
100
AcDbSpline
210
0.0
220
0.0
230
1.0
 70
    24
 71
     3
 72
     8
 73
     4
 74
     0
 42
0.0000000001
 43
0.0000000001
 40
0.0
 40
0.0
 40
0.0
 40
0.0
 40
1.0
 40
1.0
 40
1.0
 40
1.0
 10
3.5089
 20
2.2572
 30
0.0
 10
3.5089
 20
2.2572
 30
0.0
 10
16.4688
 20
2.2572
 30
0.0
 10
16.4688
 20
2.2572
 30
0.0
  0
SPLINE
  5
15C
330
1F
100
AcDbEntity
  8
Ilustrace
 62
   250
370
    30
100
AcDbSpline
210
0.0
220
0.0
230
1.0
 70
    24
 71
     3
 72
     8
 73
     4
 74
     0
 42
0.0000000001
 43
0.0000000001
 40
0.0
 40
0.0
 40
0.0
 40
0.0
 40
1.0
 40
1.0
 40
1.0
 40
1.0
 10
3.4869
 20
-10.7515
 30
0.0
 10
3.4869
 20
-10.7515
 30
0.0
 10
16.4468
 20
-10.7515
 30
0.0
 10
16.4468
 20
-10.7515
 30
0.0
  0
SPLINE
  5
15D
330
1F
100
AcDbEntity
  8
Ilustrace
 62
   250
370
    30
100
AcDbSpline
210
0.0
220
0.0
230
1.0
 70
    24
 71
     3
 72
     8
 73
     4
 74
     0
 42
0.0000000001
 43
0.0000000001
 40
0.0
 40
0.0
 40
0.0
 40
0.0
 40
1.0
 40
1.0
 40
1.0
 40
1.0
 10
16.4688
 20
3.6973
 30
0.0
 10
16.4688
 20
3.6973
 30
0.0
 10
3.5089
 20
3.6973
 30
0.0
 10
3.5089
 20
3.6973
 30
0.0
  0
SPLINE
  5
15E
330
1F
100
AcDbEntity
  8
Ilustrace
 62
   250
370
    30
100
AcDbSpline
210
0.0
220
0.0
230
1.0
 70
    24
 71
     3
 72
     8
 73
     4
 74
     0
 42
0.0000000001
 43
0.0000000001
 40
0.0
 40
0.0
 40
0.0
 40
0.0
 40
1.0
 40
1.0
 40
1.0
 40
1.0
 10
16.4468
 20
-9.3114
 30
0.0
 10
16.4468
 20
-9.3114
 30
0.0
 10
3.4869
 20
-9.3114
 30
0.0
 10
3.4869
 20
-9.3114
 30
0.0
  0
SPLINE
  5
15F
330
1F
100
AcDbEntity
  8
Ilustrace
 62
   250
370
    30
100
AcDbSpline
210
0.0
220
0.0
230
1.0
 70
    24
 71
     3
 72
     8
 73
     4
 74
     0
 42
0.0000000001
 43
0.0000000001
 40
0.0
 40
0.0
 40
0.0
 40
0.0
 40
1.0
 40
1.0
 40
1.0
 40
1.0
 10
3.5089
 20
2.2572
 30
0.0
 10
3.5089
 20
2.2572
 30
0.0
 10
3.5089
 20
3.6973
 30
0.0
 10
3.5089
 20
3.6973
 30
0.0
  0
SPLINE
  5
160
330
1F
100
AcDbEntity
  8
Ilustrace
 62
   250
370
    30
100
AcDbSpline
210
0.0
220
0.0
230
1.0
 70
    24
 71
     3
 72
     8
 73
     4
 74
     0
 42
0.0000000001
 43
0.0000000001
 40
0.0
 40
0.0
 40
0.0
 40
0.0
 40
1.0
 40
1.0
 40
1.0
 40
1.0
 10
3.4869
 20
-10.7515
 30
0.0
 10
3.4869
 20
-10.7515
 30
0.0
 10
3.4869
 20
-9.3114
 30
0.0
 10
3.4869
 20
-9.3114
 30
0.0
  0
SPLINE
  5
161
330
1F
100
AcDbEntity
  8
Ilustrace
 62
   250
370
    30
100
AcDbSpline
210
0.0
220
0.0
230
1.0
 70
    24
 71
     3
 72
     8
 73
     4
 74
     0
 42
0.0000000001
 43
0.0000000001
 40
0.0
 40
0.0
 40
0.0
 40
0.0
 40
1.0
 40
1.0
 40
1.0
 40
1.0
 10
20.0469
 20
-9.3114
 30
0.0
 10
20.0469
 20
-9.3114
 30
0.0
 10
20.0469
 20
-10.7515
 30
0.0
 10
20.0469
 20
-10.7515
 30
0.0
  0
SPLINE
  5
162
330
1F
100
AcDbEntity
  8
Ilustrace
 62
   250
370
    30
100
AcDbSpline
210
0.0
220
0.0
230
1.0
 70
    24
 71
     3
 72
     8
 73
     4
 74
     0
 42
0.0000000001
 43
0.0000000001
 40
0.0
 40
0.0
 40
0.0
 40
0.0
 40
1.0
 40
1.0
 40
1.0
 40
1.0
 10
33.0068
 20
-10.7515
 30
0.0
 10
33.0068
 20
-10.7515
 30
0.0
 10
20.0469
 20
-10.7515
 30
0.0
 10
20.0469
 20
-10.7515
 30
0.0
  0
SPLINE
  5
163
330
1F
100
AcDbEntity
  8
Ilustrace
 62
   250
370
    30
100
AcDbSpline
210
0.0
220
0.0
230
1.0
 70
    24
 71
     3
 72
     8
 73
     4
 74
     0
 42
0.0000000001
 43
0.0000000001
 40
0.0
 40
0.0
 40
0.0
 40
0.0
 40
1.0
 40
1.0
 40
1.0
 40
1.0
 10
20.0469
 20
-9.3114
 30
0.0
 10
20.0469
 20
-9.3114
 30
0.0
 10
33.0068
 20
-9.3114
 30
0.0
 10
33.0068
 20
-9.3114
 30
0.0
  0
SPLINE
  5
164
330
1F
100
AcDbEntity
  8
Ilustrace
 62
   250
370
    30
100
AcDbSpline
210
0.0
220
0.0
230
1.0
 70
    24
 71
     3
 72
     8
 73
     4
 74
     0
 42
0.0000000001
 43
0.0000000001
 40
0.0
 40
0.0
 40
0.0
 40
0.0
 40
1.0
 40
1.0
 40
1.0
 40
1.0
 10
33.0068
 20
-10.7515
 30
0.0
 10
33.0068
 20
-10.7515
 30
0.0
 10
33.0068
 20
-9.3114
 30
0.0
 10
33.0068
 20
-9.3114
 30
0.0
  0
SPLINE
  5
165
330
1F
100
AcDbEntity
  8
Ilustrace
 62
   250
370
    30
100
AcDbSpline
210
0.0
220
0.0
230
1.0
 70
    24
 71
     3
 72
     8
 73
     4
 74
     0
 42
0.0000000001
 43
0.0000000001
 40
0.0
 40
0.0
 40
0.0
 40
0.0
 40
1.0
 40
1.0
 40
1.0
 40
1.0
 10
36.6287
 20
3.6973
 30
0.0
 10
36.6287
 20
3.6973
 30
0.0
 10
36.6287
 20
2.2572
 30
0.0
 10
36.6287
 20
2.2572
 30
0.0
  0
SPLINE
  5
166
330
1F
100
AcDbEntity
  8
Ilustrace
 62
   250
370
    30
100
AcDbSpline
210
0.0
220
0.0
230
1.0
 70
    24
 71
     3
 72
     8
 73
     4
 74
     0
 42
0.0000000001
 43
0.0000000001
 40
0.0
 40
0.0
 40
0.0
 40
0.0
 40
1.0
 40
1.0
 40
1.0
 40
1.0
 10
36.6067
 20
-9.3114
 30
0.0
 10
36.6067
 20
-9.3114
 30
0.0
 10
36.6067
 20
-10.7515
 30
0.0
 10
36.6067
 20
-10.7515
 30
0.0
  0
SPLINE
  5
167
330
1F
100
AcDbEntity
  8
Ilustrace
 62
   250
370
    30
100
AcDbSpline
210
0.0
220
0.0
230
1.0
 70
    24
 71
     3
 72
     8
 73
     4
 74
     0
 42
0.0000000001
 43
0.0000000001
 40
0.0
 40
0.0
 40
0.0
 40
0.0
 40
1.0
 40
1.0
 40
1.0
 40
1.0
 10
49.5887
 20
2.2572
 30
0.0
 10
49.5887
 20
2.2572
 30
0.0
 10
36.6287
 20
2.2572
 30
0.0
 10
36.6287
 20
2.2572
 30
0.0
  0
SPLINE
  5
168
330
1F
100
AcDbEntity
  8
Ilustrace
 62
   250
370
    30
100
AcDbSpline
210
0.0
220
0.0
230
1.0
 70
    24
 71
     3
 72
     8
 73
     4
 74
     0
 42
0.0000000001
 43
0.0000000001
 40
0.0
 40
0.0
 40
0.0
 40
0.0
 40
1.0
 40
1.0
 40
1.0
 40
1.0
 10
49.5667
 20
-10.7515
 30
0.0
 10
49.5667
 20
-10.7515
 30
0.0
 10
36.6067
 20
-10.7515
 30
0.0
 10
36.6067
 20
-10.7515
 30
0.0
  0
SPLINE
  5
169
330
1F
100
AcDbEntity
  8
Ilustrace
 62
   250
370
    30
100
AcDbSpline
210
0.0
220
0.0
230
1.0
 70
    24
 71
     3
 72
     8
 73
     4
 74
     0
 42
0.0000000001
 43
0.0000000001
 40
0.0
 40
0.0
 40
0.0
 40
0.0
 40
1.0
 40
1.0
 40
1.0
 40
1.0
 10
36.6287
 20
3.6973
 30
0.0
 10
36.6287
 20
3.6973
 30
0.0
 10
49.5887
 20
3.6973
 30
0.0
 10
49.5887
 20
3.6973
 30
0.0
  0
SPLINE
  5
16A
330
1F
100
AcDbEntity
  8
Ilustrace
 62
   250
370
    30
100
AcDbSpline
210
0.0
220
0.0
230
1.0
 70
    24
 71
     3
 72
     8
 73
     4
 74
     0
 42
0.0000000001
 43
0.0000000001
 40
0.0
 40
0.0
 40
0.0
 40
0.0
 40
1.0
 40
1.0
 40
1.0
 40
1.0
 10
36.6067
 20
-9.3114
 30
0.0
 10
36.6067
 20
-9.3114
 30
0.0
 10
49.5667
 20
-9.3114
 30
0.0
 10
49.5667
 20
-9.3114
 30
0.0
  0
SPLINE
  5
16B
330
1F
100
AcDbEntity
  8
Ilustrace
 62
   250
370
    30
100
AcDbSpline
210
0.0
220
0.0
230
1.0
 70
    24
 71
     3
 72
     8
 73
     4
 74
     0
 42
0.0000000001
 43
0.0000000001
 40
0.0
 40
0.0
 40
0.0
 40
0.0
 40
1.0
 40
1.0
 40
1.0
 40
1.0
 10
49.5887
 20
2.2572
 30
0.0
 10
49.5887
 20
2.2572
 30
0.0
 10
49.5887
 20
3.6973
 30
0.0
 10
49.5887
 20
3.6973
 30
0.0
  0
SPLINE
  5
16C
330
1F
100
AcDbEntity
  8
Ilustrace
 62
   250
370
    30
100
AcDbSpline
210
0.0
220
0.0
230
1.0
 70
    24
 71
     3
 72
     8
 73
     4
 74
     0
 42
0.0000000001
 43
0.0000000001
 40
0.0
 40
0.0
 40
0.0
 40
0.0
 40
1.0
 40
1.0
 40
1.0
 40
1.0
 10
49.5667
 20
-10.7515
 30
0.0
 10
49.5667
 20
-10.7515
 30
0.0
 10
49.5667
 20
-9.3114
 30
0.0
 10
49.5667
 20
-9.3114
 30
0.0
  0
SPLINE
  5
16D
330
1F
100
AcDbEntity
  8
Ilustrace
 62
   250
370
    15
100
AcDbSpline
210
0.0
220
0.0
230
1.0
 70
    24
 71
     3
 72
     8
 73
     4
 74
     0
 42
0.0000000001
 43
0.0000000001
 40
0.0
 40
0.0
 40
0.0
 40
0.0
 40
1.0
 40
1.0
 40
1.0
 40
1.0
 10
-32.2942
 20
5.628
 30
0.0
 10
-32.2942
 20
5.628
 30
0.0
 10
55.3486
 20
5.628
 30
0.0
 10
55.3486
 20
5.628
 30
0.0
  0
SPLINE
  5
16E
330
1F
100
AcDbEntity
  8
Ilustrace
 62
   250
370
    30
100
AcDbSpline
210
0.0
220
0.0
230
1.0
 70
    24
 71
     3
 72
     8
 73
     4
 74
     0
 42
0.0000000001
 43
0.0000000001
 40
0.0
 40
0.0
 40
0.0
 40
0.0
 40
1.0
 40
1.0
 40
1.0
 40
1.0
 10
3.4869
 20
-14.2713
 30
0.0
 10
3.4869
 20
-14.2713
 30
0.0
 10
16.4468
 20
-14.2713
 30
0.0
 10
16.4468
 20
-14.2713
 30
0.0
  0
SPLINE
  5
16F
330
1F
100
AcDbEntity
  8
Ilustrace
 62
   250
370
    30
100
AcDbSpline
210
0.0
220
0.0
230
1.0
 70
    24
 71
     3
 72
     8
 73
     4
 74
     0
 42
0.0000000001
 43
0.0000000001
 40
0.0
 40
0.0
 40
0.0
 40
0.0
 40
1.0
 40
1.0
 40
1.0
 40
1.0
 10
-29.633
 20
-14.2713
 30
0.0
 10
-29.633
 20
-14.2713
 30
0.0
 10
-16.673
 20
-14.2713
 30
0.0
 10
-16.673
 20
-14.2713
 30
0.0
  0
SPLINE
  5
170
330
1F
100
AcDbEntity
  8
Ilustrace
 62
   250
370
    30
100
AcDbSpline
210
0.0
220
0.0
230
1.0
 70
    24
 71
     3
 72
     8
 73
     4
 74
     0
 42
0.0000000001
 43
0.0000000001
 40
0.0
 40
0.0
 40
0.0
 40
0.0
 40
1.0
 40
1.0
 40
1.0
 40
1.0
 10
-13.0731
 20
-14.2713
 30
0.0
 10
-13.0731
 20
-14.2713
 30
0.0
 10
-0.113
 20
-14.2713
 30
0.0
 10
-0.113
 20
-14.2713
 30
0.0
  0
SPLINE
  5
171
330
1F
100
AcDbEntity
  8
Ilustrace
 62
   250
370
    30
100
AcDbSpline
210
0.0
220
0.0
230
1.0
 70
    24
 71
     3
 72
     8
 73
     4
 74
     0
 42
0.0000000001
 43
0.0000000001
 40
0.0
 40
0.0
 40
0.0
 40
0.0
 40
1.0
 40
1.0
 40
1.0
 40
1.0
 10
36.6067
 20
-14.3713
 30
0.0
 10
36.6067
 20
-14.3713
 30
0.0
 10
49.5667
 20
-14.3713
 30
0.0
 10
49.5667
 20
-14.3713
 30
0.0
  0
SPLINE
  5
172
330
1F
100
AcDbEntity
  8
Ilustrace
 62
   250
370
    30
100
AcDbSpline
210
0.0
220
0.0
230
1.0
 70
    24
 71
     3
 72
     8
 73
     4
 74
     0
 42
0.0000000001
 43
0.0000000001
 40
0.0
 40
0.0
 40
0.0
 40
0.0
 40
1.0
 40
1.0
 40
1.0
 40
1.0
 10
-29.611
 20
3.0973
 30
0.0
 10
-29.611
 20
3.0973
 30
0.0
 10
-16.651
 20
3.0973
 30
0.0
 10
-16.651
 20
3.0973
 30
0.0
  0
SPLINE
  5
173
330
1F
100
AcDbEntity
  8
Ilustrace
 62
   250
370
    30
100
AcDbSpline
210
0.0
220
0.0
230
1.0
 70
    24
 71
     3
 72
     8
 73
     4
 74
     0
 42
0.0000000001
 43
0.0000000001
 40
0.0
 40
0.0
 40
0.0
 40
0.0
 40
1.0
 40
1.0
 40
1.0
 40
1.0
 10
-0.091
 20
3.0973
 30
0.0
 10
-0.091
 20
3.0973
 30
0.0
 10
-13.0511
 20
3.0973
 30
0.0
 10
-13.0511
 20
3.0973
 30
0.0
  0
SPLINE
  5
174
330
1F
100
AcDbEntity
  8
Ilustrace
 62
   250
370
    30
100
AcDbSpline
210
0.0
220
0.0
230
1.0
 70
    24
 71
     3
 72
     8
 73
     4
 74
     0
 42
0.0000000001
 43
0.0000000001
 40
0.0
 40
0.0
 40
0.0
 40
0.0
 40
1.0
 40
1.0
 40
1.0
 40
1.0
 10
16.4688
 20
3.0973
 30
0.0
 10
16.4688
 20
3.0973
 30
0.0
 10
3.5089
 20
3.0973
 30
0.0
 10
3.5089
 20
3.0973
 30
0.0
  0
SPLINE
  5
175
330
1F
100
AcDbEntity
  8
Ilustrace
 62
   250
370
    30
100
AcDbSpline
210
0.0
220
0.0
230
1.0
 70
    24
 71
     3
 72
     8
 73
     4
 74
     0
 42
0.0000000001
 43
0.0000000001
 40
0.0
 40
0.0
 40
0.0
 40
0.0
 40
1.0
 40
1.0
 40
1.0
 40
1.0
 10
36.6287
 20
2.9973
 30
0.0
 10
36.6287
 20
2.9973
 30
0.0
 10
49.5887
 20
2.9973
 30
0.0
 10
49.5887
 20
2.9973
 30
0.0
  0
SPLINE
  5
176
330
1F
100
AcDbEntity
  8
Ilustrace
 62
   250
370
    15
100
AcDbSpline
210
0.0
220
0.0
230
1.0
 70
    24
 71
     3
 72
     8
 73
     4
 74
     0
 42
0.0000000001
 43
0.0000000001
 40
0.0
 40
0.0
 40
0.0
 40
0.0
 40
1.0
 40
1.0
 40
1.0
 40
1.0
 10
49.5106
 20
4.5125
 30
0.0
 10
49.5106
 20
4.5125
 30
0.0
 10
49.5106
 20
10.6159
 30
0.0
 10
49.5106
 20
10.6159
 30
0.0
  0
SPLINE
  5
177
330
1F
100
AcDbEntity
  8
Ilustrace
 62
   250
370
    15
100
AcDbSpline
210
0.0
220
0.0
230
1.0
 70
    24
 71
     3
 72
     8
 73
     4
 74
     0
 42
0.0000000001
 43
0.0000000001
 40
0.0
 40
0.0
 40
0.0
 40
0.0
 40
1.0
 40
1.0
 40
1.0
 40
1.0
 10
36.5904
 20
4.3361
 30
0.0
 10
36.5904
 20
4.3361
 30
0.0
 10
36.5904
 20
10.7705
 30
0.0
 10
36.5904
 20
10.7705
 30
0.0
  0
SPLINE
  5
178
330
1F
100
AcDbEntity
  8
Ilustrace
 62
   250
100
AcDbSpline
210
0.0
220
0.0
230
1.0
 70
    11
 71
     3
 72
   132
 73
   128
 74
     0
 42
0.0000000001
 43
0.0000000001
 40
0.0
 40
0.0
 40
0.0
 40
0.0
 40
0.0303030303030303
 40
0.0303030303030303
 40
0.0303030303030303
 40
0.0303030303030303
 40
0.0606060606060606
 40
0.0606060606060606
 40
0.0606060606060606
 40
0.0606060606060606
 40
0.0909090909090909
 40
0.0909090909090909
 40
0.0909090909090909
 40
0.0909090909090909
 40
0.1212121212121212
 40
0.1212121212121212
 40
0.1212121212121212
 40
0.1212121212121212
 40
0.1515151515151515
 40
0.1515151515151515
 40
0.1515151515151515
 40
0.1515151515151515
 40
0.1818181818181818
 40
0.1818181818181818
 40
0.1818181818181818
 40
0.1818181818181818
 40
0.2121212121212121
 40
0.2121212121212121
 40
0.2121212121212121
 40
0.2121212121212121
 40
0.2424242424242424
 40
0.2424242424242424
 40
0.2424242424242424
 40
0.2424242424242424
 40
0.2727272727272727
 40
0.2727272727272727
 40
0.2727272727272727
 40
0.2727272727272727
 40
0.303030303030303
 40
0.303030303030303
 40
0.303030303030303
 40
0.303030303030303
 40
0.3333333333333333
 40
0.3333333333333333
 40
0.3333333333333333
 40
0.3333333333333333
 40
0.3636363636363636
 40
0.3636363636363636
 40
0.3636363636363636
 40
0.3636363636363636
 40
0.3939393939393939
 40
0.3939393939393939
 40
0.3939393939393939
 40
0.3939393939393939
 40
0.4242424242424243
 40
0.4242424242424243
 40
0.4242424242424243
 40
0.4242424242424243
 40
0.4545454545454545
 40
0.4545454545454545
 40
0.4545454545454545
 40
0.4545454545454545
 40
0.4848484848484849
 40
0.4848484848484849
 40
0.4848484848484849
 40
0.4848484848484849
 40
0.5151515151515151
 40
0.5151515151515151
 40
0.5151515151515151
 40
0.5151515151515151
 40
0.5454545454545454
 40
0.5454545454545454
 40
0.5454545454545454
 40
0.5454545454545454
 40
0.5757575757575758
 40
0.5757575757575758
 40
0.5757575757575758
 40
0.5757575757575758
 40
0.6060606060606061
 40
0.6060606060606061
 40
0.6060606060606061
 40
0.6060606060606061
 40
0.6363636363636364
 40
0.6363636363636364
 40
0.6363636363636364
 40
0.6363636363636364
 40
0.6666666666666666
 40
0.6666666666666666
 40
0.6666666666666666
 40
0.6666666666666666
 40
0.696969696969697
 40
0.696969696969697
 40
0.696969696969697
 40
0.696969696969697
 40
0.7272727272727273
 40
0.7272727272727273
 40
0.7272727272727273
 40
0.7272727272727273
 40
0.7575757575757576
 40
0.7575757575757576
 40
0.7575757575757576
 40
0.7575757575757576
 40
0.7878787878787878
 40
0.7878787878787878
 40
0.7878787878787878
 40
0.7878787878787878
 40
0.8181818181818182
 40
0.8181818181818182
 40
0.8181818181818182
 40
0.8181818181818182
 40
0.8484848484848485
 40
0.8484848484848485
 40
0.8484848484848485
 40
0.8484848484848485
 40
0.8787878787878788
 40
0.8787878787878788
 40
0.8787878787878788
 40
0.8787878787878788
 40
0.9090909090909091
 40
0.9090909090909091
 40
0.9090909090909091
 40
0.9090909090909091
 40
0.9393939393939394
 40
0.9393939393939394
 40
0.9393939393939394
 40
0.9393939393939394
 40
1.0
 40
1.0
 40
1.0
 40
1.0
 10
42.8464
 20
13.1067
 30
0.0
 10
42.8464
 20
13.1067
 30
0.0
 10
41.8811
 20
13.1067
 30
0.0
 10
41.8811
 20
13.1067
 30
0.0
 10
41.8811
 20
13.1067
 30
0.0
 10
41.8811
 20
13.1067
 30
0.0
 10
41.7507
 20
11.8961
 30
0.0
 10
41.7507
 20
11.8961
 30
0.0
 10
41.7507
 20
11.8961
 30
0.0
 10
41.788
 20
11.9026
 30
0.0
 10
41.8293
 20
11.9078
 30
0.0
 10
41.8759
 20
11.9123
 30
0.0
 10
41.8759
 20
11.9123
 30
0.0
 10
41.9218
 20
11.9168
 30
0.0
 10
41.9746
 20
11.9194
 30
0.0
 10
42.0332
 20
11.9194
 30
0.0
 10
42.0332
 20
11.9194
 30
0.0
 10
42.1666
 20
11.9187
 30
0.0
 10
42.2758
 20
11.8949
 30
0.0
 10
42.3606
 20
11.8482
 30
0.0
 10
42.3606
 20
11.8482
 30
0.0
 10
42.4459
 20
11.8011
 30
0.0
 10
42.5091
 20
11.7363
 30
0.0
 10
42.5499
 20
11.6537
 30
0.0
 10
42.5499
 20
11.6537
 30
0.0
 10
42.5908
 20
11.5703
 30
0.0
 10
42.6111
 20
11.4738
 30
0.0
 10
42.6105
 20
11.3646
 30
0.0
 10
42.6105
 20
11.3646
 30
0.0
 10
42.6111
 20
11.2797
 30
0.0
 10
42.5986
 20
11.2042
 30
0.0
 10
42.5732
 20
11.137
 30
0.0
 10
42.5732
 20
11.137
 30
0.0
 10
42.5484
 20
11.069
 30
0.0
 10
42.5138
 20
11.0122
 30
0.0
 10
42.4697
 20
10.9643
 30
0.0
 10
42.4697
 20
10.9643
 30
0.0
 10
42.4258
 20
10.9169
 30
0.0
 10
42.3751
 20
10.8809
 30
0.0
 10
42.3177
 20
10.8556
 30
0.0
 10
42.3177
 20
10.8556
 30
0.0
 10
42.2603
 20
10.8303
 30
0.0
 10
42.1997
 20
10.8174
 30
0.0
 10
42.1356
 20
10.8174
 30
0.0
 10
42.1356
 20
10.8174
 30
0.0
 10
42.0729
 20
10.8181
 30
0.0
 10
42.0139
 20
10.8251
 30
0.0
 10
41.9585
 20
10.84
 30
0.0
 10
41.9585
 20
10.84
 30
0.0
 10
41.9033
 20
10.8543
 30
0.0
 10
41.8535
 20
10.8717
 30
0.0
 10
41.8096
 20
10.8931
 30
0.0
 10
41.8096
 20
10.8931
 30
0.0
 10
41.7656
 20
10.9144
 30
0.0
 10
41.7294
 20
10.9358
 30
0.0
 10
41.701
 20
10.9571
 30
0.0
 10
41.701
 20
10.9571
 30
0.0
 10
41.701
 20
10.9571
 30
0.0
 10
41.6327
 20
10.697
 30
0.0
 10
41.6327
 20
10.697
 30
0.0
 10
41.6327
 20
10.697
 30
0.0
 10
41.6663
 20
10.6707
 30
0.0
 10
41.7082
 20
10.6461
 30
0.0
 10
41.7584
 20
10.6221
 30
0.0
 10
41.7584
 20
10.6221
 30
0.0
 10
41.8086
 20
10.5988
 30
0.0
 10
41.8654
 20
10.5801
 30
0.0
 10
41.9291
 20
10.5652
 30
0.0
 10
41.9291
 20
10.5652
 30
0.0
 10
41.9933
 20
10.5503
 30
0.0
 10
42.0621
 20
10.5426
 30
0.0
 10
42.1356
 20
10.5419
 30
0.0
 10
42.1356
 20
10.5419
 30
0.0
 10
42.2458
 20
10.5426
 30
0.0
 10
42.3461
 20
10.5645
 30
0.0
 10
42.4378
 20
10.6072
 30
0.0
 10
42.4378
 20
10.6072
 30
0.0
 10
42.5293
 20
10.6499
 30
0.0
 10
42.6085
 20
10.7101
 30
0.0
 10
42.6752
 20
10.7876
 30
0.0
 10
42.6752
 20
10.7876
 30
0.0
 10
42.7425
 20
10.8653
 30
0.0
 10
42.7941
 20
10.9564
 30
0.0
 10
42.8309
 20
11.0606
 30
0.0
 10
42.8309
 20
11.0606
 30
0.0
 10
42.8676
 20
11.1653
 30
0.0
 10
42.8863
 20
11.2797
 30
0.0
 10
42.8868
 20
11.4033
 30
0.0
 10
42.8868
 20
11.4033
 30
0.0
 10
42.8863
 20
11.508
 30
0.0
 10
42.8728
 20
11.6025
 30
0.0
 10
42.8469
 20
11.6859
 30
0.0
 10
42.8469
 20
11.6859
 30
0.0
 10
42.8211
 20
11.7693
 30
0.0
 10
42.787
 20
11.8411
 30
0.0
 10
42.7435
 20
11.9019
 30
0.0
 10
42.7435
 20
11.9019
 30
0.0
 10
42.7
 20
11.9627
 30
0.0
 10
42.6514
 20
12.0113
 30
0.0
 10
42.5982
 20
12.0475
 30
0.0
 10
42.5982
 20
12.0475
 30
0.0
 10
42.5355
 20
12.0954
 30
0.0
 10
42.4677
 20
12.1302
 30
0.0
 10
42.3937
 20
12.1515
 30
0.0
 10
42.3937
 20
12.1515
 30
0.0
 10
42.3197
 20
12.1729
 30
0.0
 10
42.2432
 20
12.184
 30
0.0
 10
42.1634
 20
12.1833
 30
0.0
 10
42.1634
 20
12.1833
 30
0.0
 10
42.1273
 20
12.1833
 30
0.0
 10
42.0963
 20
12.1825
 30
0.0
 10
42.0709
 20
12.1807
 30
0.0
 10
42.0709
 20
12.1807
 30
0.0
 10
42.0455
 20
12.1788
 30
0.0
 10
42.0217
 20
12.1755
 30
0.0
 10
41.999
 20
12.1716
 30
0.0
 10
41.999
 20
12.1716
 30
0.0
 10
41.999
 20
12.1716
 30
0.0
 10
42.0766
 20
12.8196
 30
0.0
 10
42.0766
 20
12.8196
 30
0.0
 10
42.0766
 20
12.8196
 30
0.0
 10
42.0766
 20
12.8196
 30
0.0
 10
42.8464
 20
12.8196
 30
0.0
 10
42.8464
 20
12.8196
 30
0.0
 10
42.8464
 20
12.8196
 30
0.0
 10
42.8464
 20
12.8196
 30
0.0
 10
42.8464
 20
13.1067
 30
0.0
 10
42.8464
 20
13.1067
 30
0.0
  0
SPLINE
  5
179
330
1F
100
AcDbEntity
  8
Ilustrace
 62
   250
100
AcDbSpline
210
0.0
220
0.0
230
1.0
 70
    11
 71
     3
 72
    48
 73
    44
 74
     0
 42
0.0000000001
 43
0.0000000001
 40
0.0
 40
0.0
 40
0.0
 40
0.0
 40
0.0833333333333333
 40
0.0833333333333333
 40
0.0833333333333333
 40
0.0833333333333333
 40
0.1666666666666667
 40
0.1666666666666667
 40
0.1666666666666667
 40
0.1666666666666667
 40
0.25
 40
0.25
 40
0.25
 40
0.25
 40
0.3333333333333333
 40
0.3333333333333333
 40
0.3333333333333333
 40
0.3333333333333333
 40
0.4166666666666667
 40
0.4166666666666667
 40
0.4166666666666667
 40
0.4166666666666667
 40
0.5
 40
0.5
 40
0.5
 40
0.5
 40
0.5833333333333334
 40
0.5833333333333334
 40
0.5833333333333334
 40
0.5833333333333334
 40
0.6666666666666666
 40
0.6666666666666666
 40
0.6666666666666666
 40
0.6666666666666666
 40
0.75
 40
0.75
 40
0.75
 40
0.75
 40
0.8333333333333334
 40
0.8333333333333334
 40
0.8333333333333334
 40
0.8333333333333334
 40
1.0
 40
1.0
 40
1.0
 40
1.0
 10
44.3363
 20
10.5846
 30
0.0
 10
44.3363
 20
10.5846
 30
0.0
 10
44.3363
 20
11.2752
 30
0.0
 10
44.3363
 20
11.2752
 30
0.0
 10
44.3363
 20
11.2752
 30
0.0
 10
44.3363
 20
11.2752
 30
0.0
 10
44.6188
 20
11.2752
 30
0.0
 10
44.6188
 20
11.2752
 30
0.0
 10
44.6188
 20
11.2752
 30
0.0
 10
44.6188
 20
11.2752
 30
0.0
 10
44.6188
 20
11.5391
 30
0.0
 10
44.6188
 20
11.5391
 30
0.0
 10
44.6188
 20
11.5391
 30
0.0
 10
44.6188
 20
11.5391
 30
0.0
 10
44.3363
 20
11.5391
 30
0.0
 10
44.3363
 20
11.5391
 30
0.0
 10
44.3363
 20
11.5391
 30
0.0
 10
44.3363
 20
11.5391
 30
0.0
 10
44.3363
 20
13.1067
 30
0.0
 10
44.3363
 20
13.1067
 30
0.0
 10
44.3363
 20
13.1067
 30
0.0
 10
44.3363
 20
13.1067
 30
0.0
 10
44.0415
 20
13.1067
 30
0.0
 10
44.0415
 20
13.1067
 30
0.0
 10
44.0415
 20
13.1067
 30
0.0
 10
44.0415
 20
13.1067
 30
0.0
 10
43.1413
 20
11.4964
 30
0.0
 10
43.1413
 20
11.4964
 30
0.0
 10
43.1413
 20
11.4964
 30
0.0
 10
43.1413
 20
11.4964
 30
0.0
 10
43.1413
 20
11.2752
 30
0.0
 10
43.1413
 20
11.2752
 30
0.0
 10
43.1413
 20
11.2752
 30
0.0
 10
43.1413
 20
11.2752
 30
0.0
 10
44.0788
 20
11.2752
 30
0.0
 10
44.0788
 20
11.2752
 30
0.0
 10
44.0788
 20
11.2752
 30
0.0
 10
44.0788
 20
11.2752
 30
0.0
 10
44.0788
 20
10.5846
 30
0.0
 10
44.0788
 20
10.5846
 30
0.0
 10
44.0788
 20
10.5846
 30
0.0
 10
44.0788
 20
10.5846
 30
0.0
 10
44.3363
 20
10.5846
 30
0.0
 10
44.3363
 20
10.5846
 30
0.0
  0
SPLINE
  5
17A
330
1F
100
AcDbEntity
  8
Ilustrace
 62
   250
100
AcDbSpline
210
0.0
220
0.0
230
1.0
 70
    11
 71
     3
 72
    36
 73
    32
 74
     0
 42
0.0000000001
 43
0.0000000001
 40
0.0
 40
0.0
 40
0.0
 40
0.0
 40
0.1111111111111111
 40
0.1111111111111111
 40
0.1111111111111111
 40
0.1111111111111111
 40
0.2222222222222222
 40
0.2222222222222222
 40
0.2222222222222222
 40
0.2222222222222222
 40
0.3333333333333333
 40
0.3333333333333333
 40
0.3333333333333333
 40
0.3333333333333333
 40
0.4444444444444444
 40
0.4444444444444444
 40
0.4444444444444444
 40
0.4444444444444444
 40
0.5555555555555556
 40
0.5555555555555556
 40
0.5555555555555556
 40
0.5555555555555556
 40
0.6666666666666666
 40
0.6666666666666666
 40
0.6666666666666666
 40
0.6666666666666666
 40
0.7777777777777778
 40
0.7777777777777778
 40
0.7777777777777778
 40
0.7777777777777778
 40
1.0
 40
1.0
 40
1.0
 40
1.0
 10
43.4175
 20
11.5391
 30
0.0
 10
43.4175
 20
11.5391
 30
0.0
 10
43.4175
 20
11.547
 30
0.0
 10
43.4175
 20
11.547
 30
0.0
 10
43.4175
 20
11.547
 30
0.0
 10
43.4175
 20
11.547
 30
0.0
 10
43.9111
 20
12.4044
 30
0.0
 10
43.9111
 20
12.4044
 30
0.0
 10
43.9111
 20
12.4044
 30
0.0
 10
43.9385
 20
12.462
 30
0.0
 10
43.966
 20
12.5202
 30
0.0
 10
43.9929
 20
12.5791
 30
0.0
 10
43.9929
 20
12.5791
 30
0.0
 10
44.0193
 20
12.6386
 30
0.0
 10
44.0482
 20
12.7044
 30
0.0
 10
44.0788
 20
12.7769
 30
0.0
 10
44.0788
 20
12.7769
 30
0.0
 10
44.0788
 20
12.7769
 30
0.0
 10
44.0881
 20
12.7769
 30
0.0
 10
44.0881
 20
12.7769
 30
0.0
 10
44.0881
 20
12.7769
 30
0.0
 10
44.0818
 20
12.6451
 30
0.0
 10
44.0788
 20
12.5131
 30
0.0
 10
44.0788
 20
12.3811
 30
0.0
 10
44.0788
 20
12.3811
 30
0.0
 10
44.0788
 20
12.3811
 30
0.0
 10
44.0788
 20
11.5391
 30
0.0
 10
44.0788
 20
11.5391
 30
0.0
 10
44.0788
 20
11.5391
 30
0.0
 10
44.0788
 20
11.5391
 30
0.0
 10
43.4175
 20
11.5391
 30
0.0
 10
43.4175
 20
11.5391
 30
0.0
  0
SPLINE
  5
17B
330
1F
100
AcDbEntity
  8
Ilustrace
 62
   250
370
    15
100
AcDbSpline
210
0.0
220
0.0
230
1.0
 70
    24
 71
     3
 72
     8
 73
     4
 74
     0
 42
0.0000000001
 43
0.0000000001
 40
0.0
 40
0.0
 40
0.0
 40
0.0
 40
1.0
 40
1.0
 40
1.0
 40
1.0
 10
49.2423
 20
10.0182
 30
0.0
 10
49.2423
 20
10.0182
 30
0.0
 10
37.0219
 20
10.0182
 30
0.0
 10
37.0219
 20
10.0182
 30
0.0
  0
SPLINE
  5
17C
330
1F
100
AcDbEntity
  8
Ilustrace
 62
   250
370
     9
100
AcDbSpline
210
0.0
220
0.0
230
1.0
 70
    11
 71
     3
 72
    32
 73
    28
 74
     0
 42
0.0000000001
 43
0.0000000001
 40
0.0
 40
0.0
 40
0.0
 40
0.0
 40
0.125
 40
0.125
 40
0.125
 40
0.125
 40
0.25
 40
0.25
 40
0.25
 40
0.25
 40
0.375
 40
0.375
 40
0.375
 40
0.375
 40
0.5
 40
0.5
 40
0.5
 40
0.5
 40
0.625
 40
0.625
 40
0.625
 40
0.625
 40
0.75
 40
0.75
 40
0.75
 40
0.75
 40
1.0
 40
1.0
 40
1.0
 40
1.0
 10
48.2515
 20
9.5598
 30
0.0
 10
48.2515
 20
9.5598
 30
0.0
 10
48.2515
 20
9.5598
 30
0.0
 10
48.2515
 20
9.5598
 30
0.0
 10
48.2515
 20
9.5598
 30
0.0
 10
48.2515
 20
9.5598
 30
0.0
 10
48.2515
 20
9.5598
 30
0.0
 10
48.2515
 20
9.5598
 30
0.0
 10
48.2515
 20
9.5598
 30
0.0
 10
48.2515
 20
9.5598
 30
0.0
 10
49.5243
 20
10.0032
 30
0.0
 10
49.5243
 20
10.0032
 30
0.0
 10
49.5243
 20
10.0032
 30
0.0
 10
49.5243
 20
10.0032
 30
0.0
 10
48.2515
 20
10.4466
 30
0.0
 10
48.2515
 20
10.4466
 30
0.0
 10
48.2515
 20
10.4466
 30
0.0
 10
48.2515
 20
10.4466
 30
0.0
 10
48.2515
 20
10.4466
 30
0.0
 10
48.2515
 20
10.4466
 30
0.0
 10
48.2515
 20
10.4466
 30
0.0
 10
48.2515
 20
10.4466
 30
0.0
 10
48.2515
 20
10.4466
 30
0.0
 10
48.2515
 20
10.4466
 30
0.0
 10
48.2515
 20
10.4466
 30
0.0
 10
48.2515
 20
10.4466
 30
0.0
 10
48.2515
 20
9.5598
 30
0.0
 10
48.2515
 20
9.5598
 30
0.0
  0
SPLINE
  5
17D
330
1F
100
AcDbEntity
  8
Ilustrace
 62
   250
370
     9
100
AcDbSpline
210
0.0
220
0.0
230
1.0
 70
    11
 71
     3
 72
    32
 73
    28
 74
     0
 42
0.0000000001
 43
0.0000000001
 40
0.0
 40
0.0
 40
0.0
 40
0.0
 40
0.125
 40
0.125
 40
0.125
 40
0.125
 40
0.25
 40
0.25
 40
0.25
 40
0.25
 40
0.375
 40
0.375
 40
0.375
 40
0.375
 40
0.5
 40
0.5
 40
0.5
 40
0.5
 40
0.625
 40
0.625
 40
0.625
 40
0.625
 40
0.75
 40
0.75
 40
0.75
 40
0.75
 40
1.0
 40
1.0
 40
1.0
 40
1.0
 10
37.9148
 20
9.6116
 30
0.0
 10
37.9148
 20
9.6116
 30
0.0
 10
37.9148
 20
9.6116
 30
0.0
 10
37.9148
 20
9.6116
 30
0.0
 10
37.9148
 20
9.6116
 30
0.0
 10
37.9148
 20
9.6116
 30
0.0
 10
37.9148
 20
9.6116
 30
0.0
 10
37.9148
 20
9.6116
 30
0.0
 10
37.9148
 20
9.6116
 30
0.0
 10
37.9148
 20
9.6116
 30
0.0
 10
36.642
 20
10.055
 30
0.0
 10
36.642
 20
10.055
 30
0.0
 10
36.642
 20
10.055
 30
0.0
 10
36.642
 20
10.055
 30
0.0
 10
37.9148
 20
10.4984
 30
0.0
 10
37.9148
 20
10.4984
 30
0.0
 10
37.9148
 20
10.4984
 30
0.0
 10
37.9148
 20
10.4984
 30
0.0
 10
37.9148
 20
10.4984
 30
0.0
 10
37.9148
 20
10.4984
 30
0.0
 10
37.9148
 20
10.4984
 30
0.0
 10
37.9148
 20
10.4984
 30
0.0
 10
37.9148
 20
10.4984
 30
0.0
 10
37.9148
 20
10.4984
 30
0.0
 10
37.9148
 20
10.4984
 30
0.0
 10
37.9148
 20
10.4984
 30
0.0
 10
37.9148
 20
9.6116
 30
0.0
 10
37.9148
 20
9.6116
 30
0.0
  0
SPLINE
  5
17E
330
1F
100
AcDbEntity
  8
Ilustrace
 62
   250
100
AcDbSpline
210
0.0
220
0.0
230
1.0
 70
    11
 71
     3
 72
   124
 73
   120
 74
     0
 42
0.0000000001
 43
0.0000000001
 40
0.0
 40
0.0
 40
0.0
 40
0.0
 40
0.032258064516129
 40
0.032258064516129
 40
0.032258064516129
 40
0.032258064516129
 40
0.0645161290322581
 40
0.0645161290322581
 40
0.0645161290322581
 40
0.0645161290322581
 40
0.0967741935483871
 40
0.0967741935483871
 40
0.0967741935483871
 40
0.0967741935483871
 40
0.1290322580645161
 40
0.1290322580645161
 40
0.1290322580645161
 40
0.1290322580645161
 40
0.1612903225806452
 40
0.1612903225806452
 40
0.1612903225806452
 40
0.1612903225806452
 40
0.1935483870967742
 40
0.1935483870967742
 40
0.1935483870967742
 40
0.1935483870967742
 40
0.2258064516129032
 40
0.2258064516129032
 40
0.2258064516129032
 40
0.2258064516129032
 40
0.2580645161290323
 40
0.2580645161290323
 40
0.2580645161290323
 40
0.2580645161290323
 40
0.2903225806451613
 40
0.2903225806451613
 40
0.2903225806451613
 40
0.2903225806451613
 40
0.3225806451612903
 40
0.3225806451612903
 40
0.3225806451612903
 40
0.3225806451612903
 40
0.3548387096774194
 40
0.3548387096774194
 40
0.3548387096774194
 40
0.3548387096774194
 40
0.3870967741935484
 40
0.3870967741935484
 40
0.3870967741935484
 40
0.3870967741935484
 40
0.4193548387096774
 40
0.4193548387096774
 40
0.4193548387096774
 40
0.4193548387096774
 40
0.4516129032258064
 40
0.4516129032258064
 40
0.4516129032258064
 40
0.4516129032258064
 40
0.4838709677419355
 40
0.4838709677419355
 40
0.4838709677419355
 40
0.4838709677419355
 40
0.5161290322580645
 40
0.5161290322580645
 40
0.5161290322580645
 40
0.5161290322580645
 40
0.5483870967741935
 40
0.5483870967741935
 40
0.5483870967741935
 40
0.5483870967741935
 40
0.5806451612903226
 40
0.5806451612903226
 40
0.5806451612903226
 40
0.5806451612903226
 40
0.6129032258064516
 40
0.6129032258064516
 40
0.6129032258064516
 40
0.6129032258064516
 40
0.6451612903225806
 40
0.6451612903225806
 40
0.6451612903225806
 40
0.6451612903225806
 40
0.6774193548387096
 40
0.6774193548387096
 40
0.6774193548387096
 40
0.6774193548387096
 40
0.7096774193548387
 40
0.7096774193548387
 40
0.7096774193548387
 40
0.7096774193548387
 40
0.7419354838709677
 40
0.7419354838709677
 40
0.7419354838709677
 40
0.7419354838709677
 40
0.7741935483870968
 40
0.7741935483870968
 40
0.7741935483870968
 40
0.7741935483870968
 40
0.8064516129032258
 40
0.8064516129032258
 40
0.8064516129032258
 40
0.8064516129032258
 40
0.8387096774193549
 40
0.8387096774193549
 40
0.8387096774193549
 40
0.8387096774193549
 40
0.8709677419354839
 40
0.8709677419354839
 40
0.8709677419354839
 40
0.8709677419354839
 40
0.9032258064516129
 40
0.9032258064516129
 40
0.9032258064516129
 40
0.9032258064516129
 40
0.9354838709677419
 40
0.9354838709677419
 40
0.9354838709677419
 40
0.9354838709677419
 40
1.0
 40
1.0
 40
1.0
 40
1.0
 10
55.8545
 20
2.6849
 30
0.0
 10
55.8545
 20
2.6599
 30
0.0
 10
55.8557
 20
2.6305
 30
0.0
 10
55.8584
 20
2.5974
 30
0.0
 10
55.8584
 20
2.5974
 30
0.0
 10
55.8609
 20
2.5638
 30
0.0
 10
55.8661
 20
2.5265
 30
0.0
 10
55.8739
 20
2.4862
 30
0.0
 10
55.8739
 20
2.4862
 30
0.0
 10
55.8934
 20
2.3584
 30
0.0
 10
55.9347
 20
2.2399
 30
0.0
 10
55.9974
 20
2.1308
 30
0.0
 10
55.9974
 20
2.1308
 30
0.0
 10
56.0602
 20
2.0216
 30
0.0
 10
56.1431
 20
1.9248
 30
0.0
 10
56.2464
 20
1.8406
 30
0.0
 10
56.2464
 20
1.8406
 30
0.0
 10
56.3292
 20
1.7727
 30
0.0
 10
56.4275
 20
1.7133
 30
0.0
 10
56.5414
 20
1.6625
 30
0.0
 10
56.5414
 20
1.6625
 30
0.0
 10
56.6545
 20
1.6113
 30
0.0
 10
56.7819
 20
1.5714
 30
0.0
 10
56.9228
 20
1.5426
 30
0.0
 10
56.9228
 20
1.5426
 30
0.0
 10
57.0638
 20
1.514
 30
0.0
 10
57.2179
 20
1.4995
 30
0.0
 10
57.3834
 20
1.4991
 30
0.0
 10
57.3834
 20
1.4991
 30
0.0
 10
57.5477
 20
1.4995
 30
0.0
 10
57.6958
 20
1.5166
 30
0.0
 10
57.8276
 20
1.5497
 30
0.0
 10
57.8276
 20
1.5497
 30
0.0
 10
57.9601
 20
1.5833
 30
0.0
 10
58.0728
 20
1.6315
 30
0.0
 10
58.1666
 20
1.6941
 30
0.0
 10
58.1666
 20
1.6941
 30
0.0
 10
58.2604
 20
1.7562
 30
0.0
 10
58.3326
 20
1.8312
 30
0.0
 10
58.3825
 20
1.918
 30
0.0
 10
58.3825
 20
1.918
 30
0.0
 10
58.4324
 20
2.005
 30
0.0
 10
58.4575
 20
2.1023
 30
0.0
 10
58.4582
 20
2.2099
 30
0.0
 10
58.4582
 20
2.2099
 30
0.0
 10
58.4569
 20
2.3155
 30
0.0
 10
58.4324
 20
2.4102
 30
0.0
 10
58.3845
 20
2.4934
 30
0.0
 10
58.3845
 20
2.4934
 30
0.0
 10
58.3359
 20
2.5762
 30
0.0
 10
58.2701
 20
2.647
 30
0.0
 10
58.1865
 20
2.705
 30
0.0
 10
58.1865
 20
2.705
 30
0.0
 10
58.1031
 20
2.763
 30
0.0
 10
58.008
 20
2.8074
 30
0.0
 10
57.9013
 20
2.8374
 30
0.0
 10
57.9013
 20
2.8374
 30
0.0
 10
57.7953
 20
2.868
 30
0.0
 10
57.6834
 20
2.8835
 30
0.0
 10
57.5658
 20
2.8835
 30
0.0
 10
57.5658
 20
2.8835
 30
0.0
 10
57.4429
 20
2.883
 30
0.0
 10
57.3316
 20
2.868
 30
0.0
 10
57.232
 20
2.8386
 30
0.0
 10
57.232
 20
2.8386
 30
0.0
 10
57.1325
 20
2.809
 30
0.0
 10
57.0464
 20
2.7671
 30
0.0
 10
56.9747
 20
2.7133
 30
0.0
 10
56.9747
 20
2.7133
 30
0.0
 10
56.9035
 20
2.6589
 30
0.0
 10
56.8479
 20
2.5948
 30
0.0
 10
56.8097
 20
2.5208
 30
0.0
 10
56.8097
 20
2.5208
 30
0.0
 10
56.7709
 20
2.4469
 30
0.0
 10
56.7516
 20
2.3645
 30
0.0
 10
56.7508
 20
2.2751
 30
0.0
 10
56.7508
 20
2.2751
 30
0.0
 10
56.7516
 20
2.2005
 30
0.0
 10
56.765
 20
2.1322
 30
0.0
 10
56.791
 20
2.0703
 30
0.0
 10
56.791
 20
2.0703
 30
0.0
 10
56.8176
 20
2.0081
 30
0.0
 10
56.8524
 20
1.9528
 30
0.0
 10
56.897
 20
1.9047
 30
0.0
 10
56.897
 20
1.9047
 30
0.0
 10
56.9409
 20
1.8571
 30
0.0
 10
56.9908
 20
1.8167
 30
0.0
 10
57.0457
 20
1.7846
 30
0.0
 10
57.0457
 20
1.7846
 30
0.0
 10
57.0457
 20
1.7846
 30
0.0
 10
57.0457
 20
1.7784
 30
0.0
 10
57.0457
 20
1.7784
 30
0.0
 10
57.0457
 20
1.7784
 30
0.0
 10
56.9404
 20
1.7898
 30
0.0
 10
56.8389
 20
1.8126
 30
0.0
 10
56.7412
 20
1.8472
 30
0.0
 10
56.7412
 20
1.8472
 30
0.0
 10
56.6441
 20
1.8813
 30
0.0
 10
56.555
 20
1.9269
 30
0.0
 10
56.4741
 20
1.9849
 30
0.0
 10
56.4741
 20
1.9849
 30
0.0
 10
56.394
 20
2.0429
 30
0.0
 10
56.3253
 20
2.1126
 30
0.0
 10
56.2697
 20
2.1949
 30
0.0
 10
56.2697
 20
2.1949
 30
0.0
 10
56.2141
 20
2.2772
 30
0.0
 10
56.1753
 20
2.3724
 30
0.0
 10
56.1533
 20
2.48
 30
0.0
 10
56.1533
 20
2.48
 30
0.0
 10
56.1456
 20
2.5188
 30
0.0
 10
56.1396
 20
2.5561
 30
0.0
 10
56.1364
 20
2.5906
 30
0.0
 10
56.1364
 20
2.5906
 30
0.0
 10
56.1326
 20
2.6254
 30
0.0
 10
56.1319
 20
2.6569
 30
0.0
 10
56.1339
 20
2.6849
 30
0.0
 10
56.1339
 20
2.6849
 30
0.0
 10
56.1339
 20
2.6849
 30
0.0
 10
55.8545
 20
2.6849
 30
0.0
 10
55.8545
 20
2.6849
 30
0.0
  0
SPLINE
  5
17F
330
1F
100
AcDbEntity
  8
Ilustrace
 62
   250
100
AcDbSpline
210
0.0
220
0.0
230
1.0
 70
    11
 71
     3
 72
    64
 73
    60
 74
     0
 42
0.0000000001
 43
0.0000000001
 40
0.0
 40
0.0
 40
0.0
 40
0.0
 40
0.0625
 40
0.0625
 40
0.0625
 40
0.0625
 40
0.125
 40
0.125
 40
0.125
 40
0.125
 40
0.1875
 40
0.1875
 40
0.1875
 40
0.1875
 40
0.25
 40
0.25
 40
0.25
 40
0.25
 40
0.3125
 40
0.3125
 40
0.3125
 40
0.3125
 40
0.375
 40
0.375
 40
0.375
 40
0.375
 40
0.4375
 40
0.4375
 40
0.4375
 40
0.4375
 40
0.5
 40
0.5
 40
0.5
 40
0.5
 40
0.5625
 40
0.5625
 40
0.5625
 40
0.5625
 40
0.625
 40
0.625
 40
0.625
 40
0.625
 40
0.6875
 40
0.6875
 40
0.6875
 40
0.6875
 40
0.75
 40
0.75
 40
0.75
 40
0.75
 40
0.8125
 40
0.8125
 40
0.8125
 40
0.8125
 40
0.875
 40
0.875
 40
0.875
 40
0.875
 40
1.0
 40
1.0
 40
1.0
 40
1.0
 10
58.1944
 20
2.2162
 30
0.0
 10
58.1937
 20
2.1437
 30
0.0
 10
58.1755
 20
2.08
 30
0.0
 10
58.1393
 20
2.0246
 30
0.0
 10
58.1393
 20
2.0246
 30
0.0
 10
58.1031
 20
1.9698
 30
0.0
 10
58.0527
 20
1.9233
 30
0.0
 10
57.9874
 20
1.8855
 30
0.0
 10
57.9874
 20
1.8855
 30
0.0
 10
57.9221
 20
1.8477
 30
0.0
 10
57.8452
 20
1.8193
 30
0.0
 10
57.7571
 20
1.7997
 30
0.0
 10
57.7571
 20
1.7997
 30
0.0
 10
57.6693
 20
1.78
 30
0.0
 10
57.5728
 20
1.7701
 30
0.0
 10
57.4688
 20
1.7691
 30
0.0
 10
57.4688
 20
1.7691
 30
0.0
 10
57.4377
 20
1.7691
 30
0.0
 10
57.4105
 20
1.7723
 30
0.0
 10
57.3859
 20
1.7774
 30
0.0
 10
57.3859
 20
1.7774
 30
0.0
 10
57.362
 20
1.7826
 30
0.0
 10
57.3407
 20
1.7893
 30
0.0
 10
57.3213
 20
1.7971
 30
0.0
 10
57.3213
 20
1.7971
 30
0.0
 10
57.2586
 20
1.8223
 30
0.0
 10
57.2042
 20
1.8551
 30
0.0
 10
57.1576
 20
1.8958
 30
0.0
 10
57.1576
 20
1.8958
 30
0.0
 10
57.1117
 20
1.9363
 30
0.0
 10
57.0755
 20
1.9817
 30
0.0
 10
57.0496
 20
2.0324
 30
0.0
 10
57.0496
 20
2.0324
 30
0.0
 10
57.0243
 20
2.0832
 30
0.0
 10
57.0109
 20
2.136
 30
0.0
 10
57.0109
 20
2.1912
 30
0.0
 10
57.0109
 20
2.1912
 30
0.0
 10
57.0114
 20
2.2756
 30
0.0
 10
57.0347
 20
2.3486
 30
0.0
 10
57.0807
 20
2.4112
 30
0.0
 10
57.0807
 20
2.4112
 30
0.0
 10
57.1266
 20
2.4733
 30
0.0
 10
57.1926
 20
2.5213
 30
0.0
 10
57.2786
 20
2.5555
 30
0.0
 10
57.2786
 20
2.5555
 30
0.0
 10
57.3646
 20
2.5896
 30
0.0
 10
57.468
 20
2.6067
 30
0.0
 10
57.5891
 20
2.6073
 30
0.0
 10
57.5891
 20
2.6073
 30
0.0
 10
57.71
 20
2.6067
 30
0.0
 10
57.816
 20
2.5902
 30
0.0
 10
57.9065
 20
2.5575
 30
0.0
 10
57.9065
 20
2.5575
 30
0.0
 10
57.9971
 20
2.5249
 30
0.0
 10
58.0669
 20
2.4795
 30
0.0
 10
58.1174
 20
2.4211
 30
0.0
 10
58.1174
 20
2.4211
 30
0.0
 10
58.1678
 20
2.3625
 30
0.0
 10
58.1937
 20
2.2942
 30
0.0
 10
58.1944
 20
2.2162
 30
0.0
  0
SPLINE
  5
180
330
1F
100
AcDbEntity
  8
Ilustrace
 62
   250
370
    15
100
AcDbSpline
210
0.0
220
0.0
230
1.0
 70
    24
 71
     3
 72
     8
 73
     4
 74
     0
 42
0.0000000001
 43
0.0000000001
 40
0.0
 40
0.0
 40
0.0
 40
0.0
 40
1.0
 40
1.0
 40
1.0
 40
1.0
 10
58.6787
 20
4.0936
 30
0.0
 10
58.6787
 20
4.0936
 30
0.0
 10
58.6787
 20
-4.1085
 30
0.0
 10
58.6787
 20
-4.1085
 30
0.0
  0
SPLINE
  5
181
330
1F
100
AcDbEntity
  8
Ilustrace
 62
   250
370
     9
100
AcDbSpline
210
0.0
220
0.0
230
1.0
 70
    11
 71
     3
 72
    32
 73
    28
 74
     0
 42
0.0000000001
 43
0.0000000001
 40
0.0
 40
0.0
 40
0.0
 40
0.0
 40
0.125
 40
0.125
 40
0.125
 40
0.125
 40
0.25
 40
0.25
 40
0.25
 40
0.25
 40
0.375
 40
0.375
 40
0.375
 40
0.375
 40
0.5
 40
0.5
 40
0.5
 40
0.5
 40
0.625
 40
0.625
 40
0.625
 40
0.625
 40
0.75
 40
0.75
 40
0.75
 40
0.75
 40
1.0
 40
1.0
 40
1.0
 40
1.0
 10
59.104
 20
-3.4202
 30
0.0
 10
59.104
 20
-3.4202
 30
0.0
 10
59.104
 20
-3.4202
 30
0.0
 10
59.104
 20
-3.4202
 30
0.0
 10
59.104
 20
-3.4202
 30
0.0
 10
59.104
 20
-3.4202
 30
0.0
 10
59.104
 20
-3.4202
 30
0.0
 10
59.104
 20
-3.4202
 30
0.0
 10
59.104
 20
-3.4202
 30
0.0
 10
59.104
 20
-3.4202
 30
0.0
 10
58.6606
 20
-2.1474
 30
0.0
 10
58.6606
 20
-2.1474
 30
0.0
 10
58.6606
 20
-2.1474
 30
0.0
 10
58.6606
 20
-2.1474
 30
0.0
 10
58.2172
 20
-3.4202
 30
0.0
 10
58.2172
 20
-3.4202
 30
0.0
 10
58.2172
 20
-3.4202
 30
0.0
 10
58.2172
 20
-3.4202
 30
0.0
 10
58.2172
 20
-3.4202
 30
0.0
 10
58.2172
 20
-3.4202
 30
0.0
 10
58.2172
 20
-3.4202
 30
0.0
 10
58.2172
 20
-3.4202
 30
0.0
 10
58.2172
 20
-3.4202
 30
0.0
 10
58.2172
 20
-3.4202
 30
0.0
 10
58.2172
 20
-3.4202
 30
0.0
 10
58.2172
 20
-3.4202
 30
0.0
 10
59.104
 20
-3.4202
 30
0.0
 10
59.104
 20
-3.4202
 30
0.0
  0
SPLINE
  5
182
330
1F
100
AcDbEntity
  8
Ilustrace
 62
   250
370
     9
100
AcDbSpline
210
0.0
220
0.0
230
1.0
 70
    11
 71
     3
 72
    32
 73
    28
 74
     0
 42
0.0000000001
 43
0.0000000001
 40
0.0
 40
0.0
 40
0.0
 40
0.0
 40
0.125
 40
0.125
 40
0.125
 40
0.125
 40
0.25
 40
0.25
 40
0.25
 40
0.25
 40
0.375
 40
0.375
 40
0.375
 40
0.375
 40
0.5
 40
0.5
 40
0.5
 40
0.5
 40
0.625
 40
0.625
 40
0.625
 40
0.625
 40
0.75
 40
0.75
 40
0.75
 40
0.75
 40
1.0
 40
1.0
 40
1.0
 40
1.0
 10
59.088
 20
0.7129
 30
0.0
 10
59.088
 20
0.7129
 30
0.0
 10
59.088
 20
0.7129
 30
0.0
 10
59.088
 20
0.7129
 30
0.0
 10
59.088
 20
0.7129
 30
0.0
 10
59.088
 20
0.7129
 30
0.0
 10
59.088
 20
0.7129
 30
0.0
 10
59.088
 20
0.7129
 30
0.0
 10
59.088
 20
0.7129
 30
0.0
 10
59.088
 20
0.7129
 30
0.0
 10
58.6446
 20
-0.5599
 30
0.0
 10
58.6446
 20
-0.5599
 30
0.0
 10
58.6446
 20
-0.5599
 30
0.0
 10
58.6446
 20
-0.5599
 30
0.0
 10
58.2012
 20
0.7129
 30
0.0
 10
58.2012
 20
0.7129
 30
0.0
 10
58.2012
 20
0.7129
 30
0.0
 10
58.2012
 20
0.7129
 30
0.0
 10
58.2012
 20
0.7129
 30
0.0
 10
58.2012
 20
0.7129
 30
0.0
 10
58.2012
 20
0.7129
 30
0.0
 10
58.2012
 20
0.7129
 30
0.0
 10
58.2012
 20
0.7129
 30
0.0
 10
58.2012
 20
0.7129
 30
0.0
 10
58.2012
 20
0.7129
 30
0.0
 10
58.2012
 20
0.7129
 30
0.0
 10
59.088
 20
0.7129
 30
0.0
 10
59.088
 20
0.7129
 30
0.0
  0
SPLINE
  5
183
330
1F
100
AcDbEntity
  8
Ilustrace
 62
   250
370
    15
100
AcDbSpline
210
0.0
220
0.0
230
1.0
 70
    24
 71
     3
 72
     8
 73
     4
 74
     0
 42
0.0000000001
 43
0.0000000001
 40
0.0
 40
0.0
 40
0.0
 40
0.0
 40
1.0
 40
1.0
 40
1.0
 40
1.0
 10
49.856
 20
-2.1508
 30
0.0
 10
49.856
 20
-2.1508
 30
0.0
 10
58.9384
 20
-2.1508
 30
0.0
 10
58.9384
 20
-2.1508
 30
0.0
  0
SPLINE
  5
184
330
1F
100
AcDbEntity
  8
Ilustrace
 62
   250
370
    15
100
AcDbSpline
210
0.0
220
0.0
230
1.0
 70
    24
 71
     3
 72
     8
 73
     4
 74
     0
 42
0.0000000001
 43
0.0000000001
 40
0.0
 40
0.0
 40
0.0
 40
0.0
 40
1.0
 40
1.0
 40
1.0
 40
1.0
 10
49.9221
 20
-0.5744
 30
0.0
 10
49.9221
 20
-0.5744
 30
0.0
 10
59.0045
 20
-0.5744
 30
0.0
 10
59.0045
 20
-0.5744
 30
0.0
  0
ENDSEC
  0
SECTION
  2
OBJECTS
  0
DICTIONARY
  5
C
330
0
100
AcDbDictionary
281
     1
  3
ACAD_GROUP
350
D
  3
ACAD_LAYOUT
350
1A
  3
ACAD_MATERIAL
350
3B
  3
ACAD_MLEADERSTYLE
350
187
  3
ACAD_MLINESTYLE
350
17
  3
ACAD_PLOTSETTINGS
350
19
  3
ACAD_PLOTSTYLENAME
350
E
  3
ACAD_VISUALSTYLE
350
2A
  3
AcDbVariableDictionary
350
185
  0
DICTIONARY
  5
D
102
{ACAD_REACTORS
330
C
102
}
330
C
100
AcDbDictionary
281
     1
  0
DICTIONARY
  5
1A
102
{ACAD_REACTORS
330
C
102
}
330
C
100
AcDbDictionary
281
     1
  3
Layout1
350
1E
  3
Layout2
350
26
  3
Model
350
22
  0
DICTIONARY
  5
3B
102
{ACAD_REACTORS
330
C
102
}
330
C
100
AcDbDictionary
281
     1
  3
ByBlock
350
3D
  3
ByLayer
350
3C
  3
Global
350
3E
  0
DICTIONARY
  5
187
102
{ACAD_REACTORS
330
C
102
}
330
C
100
AcDbDictionary
281
     1
  0
DICTIONARY
  5
17
102
{ACAD_REACTORS
330
C
102
}
330
C
100
AcDbDictionary
281
     1
  3
Standard
350
18
  0
DICTIONARY
  5
19
102
{ACAD_REACTORS
330
C
102
}
330
C
100
AcDbDictionary
281
     1
  0
ACDBDICTIONARYWDFLT
  5
E
102
{ACAD_REACTORS
330
C
102
}
330
C
100
AcDbDictionary
281
     1
  3
Normal
350
F
100
AcDbDictionaryWithDefault
340
F
  0
DICTIONARY
  5
2A
102
{ACAD_REACTORS
330
C
102
}
330
C
100
AcDbDictionary
281
     1
  3
2dWireframe
350
2F
  3
3D Hidden
350
31
  3
3dWireframe
350
30
  3
Basic
350
32
  3
Brighten
350
36
  3
ColorChange
350
3A
  3
Conceptual
350
34
  3
Dim
350
35
  3
Facepattern
350
39
  3
Flat
350
2B
  3
FlatWithEdges
350
2C
  3
Gouraud
350
2D
  3
GouraudWithEdges
350
2E
  3
Linepattern
350
38
  3
Realistic
350
33
  3
Thicken
350
37
  0
DICTIONARY
  5
185
102
{ACAD_REACTORS
330
C
102
}
330
C
100
AcDbDictionary
281
     1
  3
DIMASSOC
350
188
  3
HIDETEXT
350
189
  0
LAYOUT
  5
1E
102
{ACAD_REACTORS
330
1A
102
}
330
1A
100
AcDbPlotSettings
  1

  2
none_device
  4

  6

 40
0.0
 41
0.0
 42
0.0
 43
0.0
 44
0.0
 45
0.0
 46
0.0
 47
0.0
 48
0.0
 49
0.0
140
0.0
141
0.0
142
1.0
143
1.0
 70
   688
 72
     0
 73
     0
 74
     5
  7

 75
    16
147
1.0
148
0.0
149
0.0
100
AcDbLayout
  1
Layout1
 70
     1
 71
     1
 10
0.0
 20
0.0
 11
12.0
 21
9.0
 12
0.0
 22
0.0
 32
0.0
 14
1.000000000000000E+20
 24
1.000000000000000E+20
 34
1.000000000000000E+20
 15
-1.000000000000000E+20
 25
-1.000000000000000E+20
 35
-1.000000000000000E+20
146
0.0
 13
0.0
 23
0.0
 33
0.0
 16
1.0
 26
0.0
 36
0.0
 17
0.0
 27
1.0
 37
0.0
 76
     0
330
1B
  0
LAYOUT
  5
26
102
{ACAD_REACTORS
330
1A
102
}
330
1A
100
AcDbPlotSettings
  1

  2
none_device
  4

  6

 40
0.0
 41
0.0
 42
0.0
 43
0.0
 44
0.0
 45
0.0
 46
0.0
 47
0.0
 48
0.0
 49
0.0
140
0.0
141
0.0
142
1.0
143
1.0
 70
   688
 72
     0
 73
     0
 74
     5
  7

 75
    16
147
1.0
148
0.0
149
0.0
100
AcDbLayout
  1
Layout2
 70
     1
 71
     2
 10
0.0
 20
0.0
 11
0.0
 21
0.0
 12
0.0
 22
0.0
 32
0.0
 14
0.0
 24
0.0
 34
0.0
 15
0.0
 25
0.0
 35
0.0
146
0.0
 13
0.0
 23
0.0
 33
0.0
 16
1.0
 26
0.0
 36
0.0
 17
0.0
 27
1.0
 37
0.0
 76
     0
330
23
  0
LAYOUT
  5
22
102
{ACAD_REACTORS
330
1A
102
}
330
1A
100
AcDbPlotSettings
  1

  2
none_device
  4

  6

 40
0.0
 41
0.0
 42
0.0
 43
0.0
 44
0.0
 45
0.0
 46
0.0
 47
0.0
 48
0.0
 49
0.0
140
0.0
141
0.0
142
1.0
143
1.0
 70
  1712
 72
     0
 73
     0
 74
     0
  7

 75
     0
147
1.0
148
0.0
149
0.0
100
AcDbLayout
  1
Model
 70
     1
 71
     0
 10
0.0
 20
0.0
 11
12.0
 21
9.0
 12
0.0
 22
0.0
 32
0.0
 14
-73.016
 24
-17.8734
 34
0.0
 15
72.9275
 25
17.7929
 35
0.0
146
0.0
 13
0.0
 23
0.0
 33
0.0
 16
1.0
 26
0.0
 36
0.0
 17
0.0
 27
1.0
 37
0.0
 76
     0
330
1F
331
29
  0
MATERIAL
  5
3D
102
{ACAD_REACTORS
330
3B
102
}
102
{ACAD_XDICTIONARY
360
1AC
102
}
330
3B
100
AcDbMaterial
  1
ByBlock
  0
MATERIAL
  5
3C
102
{ACAD_REACTORS
330
3B
102
}
102
{ACAD_XDICTIONARY
360
1AA
102
}
330
3B
100
AcDbMaterial
  1
ByLayer
  0
MATERIAL
  5
3E
102
{ACAD_REACTORS
330
3B
102
}
102
{ACAD_XDICTIONARY
360
1AE
102
}
330
3B
100
AcDbMaterial
  1
Global
  0
MLINESTYLE
  5
18
102
{ACAD_REACTORS
330
17
102
}
330
17
100
AcDbMlineStyle
  2
Standard
 70
     0
  3

 62
   256
 51
90.0
 52
90.0
 71
     2
 49
0.5
 62
   256
  6
BYLAYER
 49
-0.5
 62
   256
  6
BYLAYER
  0
ACDBPLACEHOLDER
  5
F
102
{ACAD_REACTORS
330
E
102
}
330
E
  0
VISUALSTYLE
  5
2F
102
{ACAD_REACTORS
330
2A
102
}
102
{ACAD_XDICTIONARY
360
192
102
}
330
2A
100
AcDbVisualStyle
  2
2dWireframe
 70
     4
 71
     0
 72
     2
 73
     0
 90
        0
 40
-0.6
 41
-30.0
 62
     5
 63
     7
 74
     1
 91
        4
 64
     7
 65
   257
 75
     1
175
     1
 42
1.0
 92
        0
 66
   257
 43
1.0
 76
     1
 77
     6
 78
     2
 67
     7
 79
     5
170
     0
171
     0
290
     0
174
     0
 93
        1
 44
0.0
173
     0
291
     0
 45
0.0
1001
ACAD
1000
AcDbSavedByObjectVersion
1070
     0
  0
VISUALSTYLE
  5
31
102
{ACAD_REACTORS
330
2A
102
}
102
{ACAD_XDICTIONARY
360
196
102
}
330
2A
100
AcDbVisualStyle
  2
3D Hidden
 70
     6
 71
     1
 72
     2
 73
     2
 90
        0
 40
-0.6
 41
-30.0
 62
     5
 63
     7
 74
     2
 91
        2
 64
     7
 65
   257
 75
     2
175
     1
 42
40.0
 92
        0
 66
   257
 43
1.0
 76
     1
 77
     6
 78
     2
 67
     7
 79
     3
170
     0
171
     0
290
     0
174
     0
 93
        1
 44
0.0
173
     0
291
     0
 45
0.0
1001
ACAD
1000
AcDbSavedByObjectVersion
1070
     0
  0
VISUALSTYLE
  5
30
102
{ACAD_REACTORS
330
2A
102
}
102
{ACAD_XDICTIONARY
360
194
102
}
330
2A
100
AcDbVisualStyle
  2
3dWireframe
 70
     5
 71
     0
 72
     2
 73
     0
 90
        0
 40
-0.6
 41
-30.0
 62
     5
 63
     7
 74
     1
 91
        4
 64
     7
 65
   257
 75
     1
175
     1
 42
1.0
 92
        0
 66
   257
 43
1.0
 76
     1
 77
     6
 78
     2
 67
     7
 79
     5
170
     0
171
     0
290
     0
174
     0
 93
        1
 44
0.0
173
     0
291
     0
 45
0.0
1001
ACAD
1000
AcDbSavedByObjectVersion
1070
     0
  0
VISUALSTYLE
  5
32
102
{ACAD_REACTORS
330
2A
102
}
102
{ACAD_XDICTIONARY
360
198
102
}
330
2A
100
AcDbVisualStyle
  2
Basic
 70
     7
 71
     1
 72
     0
 73
     1
 90
        0
 40
-0.6
 41
-30.0
 62
     5
 63
     7
 74
     0
 91
        4
 64
     7
 65
   257
 75
     1
175
     1
 42
1.0
 92
        8
 66
     7
 43
1.0
 76
     1
 77
     6
 78
     2
 67
     7
 79
     5
170
     0
171
     0
290
     0
174
     0
 93
        1
 44
0.0
173
     0
291
     1
 45
0.0
1001
ACAD
1000
AcDbSavedByObjectVersion
1070
     0
  0
VISUALSTYLE
  5
36
102
{ACAD_REACTORS
330
2A
102
}
102
{ACAD_XDICTIONARY
360
1A0
102
}
330
2A
100
AcDbVisualStyle
  2
Brighten
 70
    12
 71
     2
 72
     2
 73
     0
 90
        0
 40
-0.6
 41
-30.0
 62
     5
 63
     7
 74
     1
 91
        4
 64
     7
 65
   257
 75
     1
175
     1
 42
1.0
 92
        8
 66
     7
 43
1.0
 76
     1
 77
     6
 78
     2
 67
     7
 79
     5
170
     0
171
     0
290
     0
174
     0
 93
        1
 44
50.0
173
     0
291
     1
 45
0.0
1001
ACAD
1000
AcDbSavedByObjectVersion
1070
     0
  0
VISUALSTYLE
  5
3A
102
{ACAD_REACTORS
330
2A
102
}
102
{ACAD_XDICTIONARY
360
1A8
102
}
330
2A
100
AcDbVisualStyle
  2
ColorChange
 70
    16
 71
     2
 72
     2
 73
     3
 90
        0
 40
-0.6
 41
-30.0
 62
     5
 63
     8
 74
     1
 91
        4
 64
     7
 65
   257
 75
     1
175
     1
 42
1.0
 92
        8
 66
     8
 43
1.0
 76
     1
 77
     6
 78
     2
 67
     7
 79
     5
170
     0
171
     0
290
     0
174
     0
 93
        1
 44
0.0
173
     0
291
     1
 45
0.0
1001
ACAD
1000
AcDbSavedByObjectVersion
1070
     0
  0
VISUALSTYLE
  5
34
102
{ACAD_REACTORS
330
2A
102
}
102
{ACAD_XDICTIONARY
360
19C
102
}
330
2A
100
AcDbVisualStyle
  2
Conceptual
 70
     9
 71
     3
 72
     2
 73
     0
 90
        0
 40
-0.6
 41
-30.0
 62
     5
 63
     7
 74
     2
 91
        2
 64
     7
 65
   257
 75
     1
175
     1
 42
40.0
 92
        8
 66
     7
 43
1.0
 76
     1
 77
     6
 78
     2
 67
     7
 79
     3
170
     0
171
     0
290
     0
174
     0
 93
        1
 44
0.0
173
     0
291
     0
 45
0.0
1001
ACAD
1000
AcDbSavedByObjectVersion
1070
     0
  0
VISUALSTYLE
  5
35
102
{ACAD_REACTORS
330
2A
102
}
102
{ACAD_XDICTIONARY
360
19E
102
}
330
2A
100
AcDbVisualStyle
  2
Dim
 70
    11
 71
     2
 72
     2
 73
     0
 90
        0
 40
-0.6
 41
-30.0
 62
     5
 63
     7
 74
     1
 91
        4
 64
     7
 65
   257
 75
     1
175
     1
 42
1.0
 92
        8
 66
     7
 43
1.0
 76
     1
 77
     6
 78
     2
 67
     7
 79
     5
170
     0
171
     0
290
     0
174
     0
 93
        1
 44
-50.0
173
     0
291
     1
 45
0.0
1001
ACAD
1000
AcDbSavedByObjectVersion
1070
     0
  0
VISUALSTYLE
  5
39
102
{ACAD_REACTORS
330
2A
102
}
102
{ACAD_XDICTIONARY
360
1A6
102
}
330
2A
100
AcDbVisualStyle
  2
Facepattern
 70
    15
 71
     2
 72
     2
 73
     0
 90
        0
 40
-0.6
 41
-30.0
 62
     5
 63
     7
 74
     1
 91
        4
 64
     7
 65
   257
 75
     1
175
     1
 42
1.0
 92
        8
 66
     7
 43
1.0
 76
     1
 77
     6
 78
     2
 67
     7
 79
     5
170
     0
171
     0
290
     0
174
     0
 93
        1
 44
0.0
173
     0
291
     1
 45
0.0
1001
ACAD
1000
AcDbSavedByObjectVersion
1070
     0
  0
VISUALSTYLE
  5
2B
102
{ACAD_REACTORS
330
2A
102
}
102
{ACAD_XDICTIONARY
360
18A
102
}
330
2A
100
AcDbVisualStyle
  2
Flat
 70
     0
 71
     2
 72
     1
 73
     1
 90
        2
 40
-0.6
 41
30.0
 62
     5
 63
     7
 74
     0
 91
        4
 64
     7
 65
   257
 75
     1
175
     1
 42
1.0
 92
        8
 66
     7
 43
1.0
 76
     1
 77
     6
 78
     2
 67
     7
 79
     5
170
     0
171
     0
290
     0
174
     0
 93
       13
 44
0.0
173
     0
291
     1
 45
0.0
1001
ACAD
1000
AcDbSavedByObjectVersion
1070
     0
  0
VISUALSTYLE
  5
2C
102
{ACAD_REACTORS
330
2A
102
}
102
{ACAD_XDICTIONARY
360
18C
102
}
330
2A
100
AcDbVisualStyle
  2
FlatWithEdges
 70
     1
 71
     2
 72
     1
 73
     1
 90
        2
 40
-0.6
 41
30.0
 62
     5
 63
     7
 74
     1
 91
        4
 64
     7
 65
   257
 75
     1
175
     1
 42
1.0
 92
        0
 66
   257
 43
1.0
 76
     1
 77
     6
 78
     2
 67
     7
 79
     5
170
     0
171
     0
290
     0
174
     0
 93
       13
 44
0.0
173
     0
291
     1
 45
0.0
1001
ACAD
1000
AcDbSavedByObjectVersion
1070
     0
  0
VISUALSTYLE
  5
2D
102
{ACAD_REACTORS
330
2A
102
}
102
{ACAD_XDICTIONARY
360
18E
102
}
330
2A
100
AcDbVisualStyle
  2
Gouraud
 70
     2
 71
     2
 72
     2
 73
     1
 90
        2
 40
-0.6
 41
30.0
 62
     5
 63
     7
 74
     0
 91
        4
 64
     7
 65
   257
 75
     1
175
     1
 42
1.0
 92
        0
 66
     7
 43
1.0
 76
     1
 77
     6
 78
     2
 67
     7
 79
     5
170
     0
171
     0
290
     0
174
     0
 93
       13
 44
0.0
173
     0
291
     1
 45
0.0
1001
ACAD
1000
AcDbSavedByObjectVersion
1070
     0
  0
VISUALSTYLE
  5
2E
102
{ACAD_REACTORS
330
2A
102
}
102
{ACAD_XDICTIONARY
360
190
102
}
330
2A
100
AcDbVisualStyle
  2
GouraudWithEdges
 70
     3
 71
     2
 72
     2
 73
     1
 90
        2
 40
-0.6
 41
30.0
 62
     5
 63
     7
 74
     1
 91
        4
 64
     7
 65
   257
 75
     1
175
     1
 42
1.0
 92
        0
 66
   257
 43
1.0
 76
     1
 77
     6
 78
     2
 67
     7
 79
     5
170
     0
171
     0
290
     0
174
     0
 93
       13
 44
0.0
173
     0
291
     1
 45
0.0
1001
ACAD
1000
AcDbSavedByObjectVersion
1070
     0
  0
VISUALSTYLE
  5
38
102
{ACAD_REACTORS
330
2A
102
}
102
{ACAD_XDICTIONARY
360
1A4
102
}
330
2A
100
AcDbVisualStyle
  2
Linepattern
 70
    14
 71
     2
 72
     2
 73
     0
 90
        0
 40
-0.6
 41
-30.0
 62
     5
 63
     7
 74
     1
 91
        4
 64
     7
 65
   257
 75
     7
175
     7
 42
1.0
 92
        8
 66
     7
 43
1.0
 76
     1
 77
     6
 78
     2
 67
     7
 79
     5
170
     0
171
     0
290
     0
174
     0
 93
        1
 44
0.0
173
     0
291
     1
 45
0.0
1001
ACAD
1000
AcDbSavedByObjectVersion
1070
     0
  0
VISUALSTYLE
  5
33
102
{ACAD_REACTORS
330
2A
102
}
102
{ACAD_XDICTIONARY
360
19A
102
}
330
2A
100
AcDbVisualStyle
  2
Realistic
 70
     8
 71
     2
 72
     2
 73
     0
 90
        0
 40
-0.6
 41
-30.0
 62
     5
 63
     7
 74
     1
 91
        0
 64
     7
 65
   257
 75
     1
175
     1
 42
1.0
 92
        8
 66
     8
 43
1.0
 76
     1
 77
     6
 78
     2
 67
     7
 79
     5
170
     0
171
     0
290
     0
174
     0
 93
       13
 44
0.0
173
     0
291
     0
 45
0.0
1001
ACAD
1000
AcDbSavedByObjectVersion
1070
     0
  0
VISUALSTYLE
  5
37
102
{ACAD_REACTORS
330
2A
102
}
102
{ACAD_XDICTIONARY
360
1A2
102
}
330
2A
100
AcDbVisualStyle
  2
Thicken
 70
    13
 71
     2
 72
     2
 73
     0
 90
        0
 40
-0.6
 41
-30.0
 62
     5
 63
     7
 74
     1
 91
        4
 64
     7
 65
   257
 75
     1
175
     1
 42
1.0
 92
       12
 66
     7
 43
1.0
 76
     1
 77
     6
 78
     2
 67
     7
 79
     5
170
     0
171
     0
290
     0
174
     0
 93
        1
 44
0.0
173
     0
291
     1
 45
0.0
1001
ACAD
1000
AcDbSavedByObjectVersion
1070
     0
  0
DICTIONARYVAR
  5
188
102
{ACAD_REACTORS
330
185
102
}
330
185
100
DictionaryVariables
280
     0
  1
2
  0
DICTIONARYVAR
  5
189
102
{ACAD_REACTORS
330
185
102
}
330
185
100
DictionaryVariables
280
     0
  1
1
  0
DICTIONARY
  5
1AC
330
3D
100
AcDbDictionary
280
     1
281
     1
  3
ACAD_XREC_ROUNDTRIP
360
1AD
  0
DICTIONARY
  5
1AA
330
3C
100
AcDbDictionary
280
     1
281
     1
  3
ACAD_XREC_ROUNDTRIP
360
1AB
  0
DICTIONARY
  5
1AE
330
3E
100
AcDbDictionary
280
     1
281
     1
  3
ACAD_XREC_ROUNDTRIP
360
1AF
  0
DICTIONARY
  5
192
330
2F
100
AcDbDictionary
280
     1
281
     1
  3
ACAD_XREC_ROUNDTRIP
360
193
  0
DICTIONARY
  5
196
330
31
100
AcDbDictionary
280
     1
281
     1
  3
ACAD_XREC_ROUNDTRIP
360
197
  0
DICTIONARY
  5
194
330
30
100
AcDbDictionary
280
     1
281
     1
  3
ACAD_XREC_ROUNDTRIP
360
195
  0
DICTIONARY
  5
198
330
32
100
AcDbDictionary
280
     1
281
     1
  3
ACAD_XREC_ROUNDTRIP
360
199
  0
DICTIONARY
  5
1A0
330
36
100
AcDbDictionary
280
     1
281
     1
  3
ACAD_XREC_ROUNDTRIP
360
1A1
  0
DICTIONARY
  5
1A8
330
3A
100
AcDbDictionary
280
     1
281
     1
  3
ACAD_XREC_ROUNDTRIP
360
1A9
  0
DICTIONARY
  5
19C
330
34
100
AcDbDictionary
280
     1
281
     1
  3
ACAD_XREC_ROUNDTRIP
360
19D
  0
DICTIONARY
  5
19E
330
35
100
AcDbDictionary
280
     1
281
     1
  3
ACAD_XREC_ROUNDTRIP
360
19F
  0
DICTIONARY
  5
1A6
330
39
100
AcDbDictionary
280
     1
281
     1
  3
ACAD_XREC_ROUNDTRIP
360
1A7
  0
DICTIONARY
  5
18A
330
2B
100
AcDbDictionary
280
     1
281
     1
  3
ACAD_XREC_ROUNDTRIP
360
18B
  0
DICTIONARY
  5
18C
330
2C
100
AcDbDictionary
280
     1
281
     1
  3
ACAD_XREC_ROUNDTRIP
360
18D
  0
DICTIONARY
  5
18E
330
2D
100
AcDbDictionary
280
     1
281
     1
  3
ACAD_XREC_ROUNDTRIP
360
18F
  0
DICTIONARY
  5
190
330
2E
100
AcDbDictionary
280
     1
281
     1
  3
ACAD_XREC_ROUNDTRIP
360
191
  0
DICTIONARY
  5
1A4
330
38
100
AcDbDictionary
280
     1
281
     1
  3
ACAD_XREC_ROUNDTRIP
360
1A5
  0
DICTIONARY
  5
19A
330
33
100
AcDbDictionary
280
     1
281
     1
  3
ACAD_XREC_ROUNDTRIP
360
19B
  0
DICTIONARY
  5
1A2
330
37
100
AcDbDictionary
280
     1
281
     1
  3
ACAD_XREC_ROUNDTRIP
360
1A3
  0
XRECORD
  5
1AD
102
{ACAD_REACTORS
330
1AC
102
}
330
1AC
100
AcDbXrecord
280
     1
102
MATERIAL
148
0.0
149
0.0
149
0.0
 93
        0
 94
      127
282
     0
 72
     1
 77
     1
171
     1
175
     1
179
     1
273
     0
  0
XRECORD
  5
1AB
102
{ACAD_REACTORS
330
1AA
102
}
330
1AA
100
AcDbXrecord
280
     1
102
MATERIAL
148
0.0
149
0.0
149
0.0
 93
        0
 94
      127
282
     0
 72
     1
 77
     1
171
     1
175
     1
179
     1
273
     0
  0
XRECORD
  5
1AF
102
{ACAD_REACTORS
330
1AE
102
}
330
1AE
100
AcDbXrecord
280
     1
102
MATERIAL
148
0.0
149
0.0
149
0.0
 93
        0
 94
      127
282
     0
 72
     1
 77
     1
171
     1
175
     1
179
     1
273
     0
  0
XRECORD
  5
193
102
{ACAD_REACTORS
330
192
102
}
330
192
100
AcDbXrecord
280
     1
102
RTVSPropertyOp0
 70
     1
102
RTVSPropertyOp1
 70
     1
102
RTVSPropertyOp2
 70
     1
102
RTVSPropertyOp3
 70
     1
102
RTVSPropertyOp4
 70
     1
102
RTVSPropertyOp5
 70
     1
102
RTVSPropertyOp6
 70
     1
102
RTVSPropertyOp7
 70
     1
102
RTVSPropertyOp8
 70
     1
102
RTVSPropertyOp9
 70
     1
102
RTVSPropertyOp10
 70
     1
102
RTVSPropertyOp11
 70
     1
102
RTVSPropertyOp12
 70
     1
102
RTVSPropertyOp13
 70
     1
102
RTVSPropertyOp14
 70
     1
102
RTVSPropertyOp15
 70
     1
102
RTVSPropertyOp16
 70
     1
102
RTVSPropertyOp17
 70
     1
102
RTVSPropertyOp18
 70
     1
102
RTVSPropertyOp19
 70
     1
102
RTVSPropertyOp20
 70
     1
102
RTVSPropertyOp21
 70
     1
102
RTVSPropertyOp22
 70
     1
102
RTVSPropertyOp23
 70
     1
102
RTVSPropertyOp24
 70
     1
102
RTVSPropertyOp25
 70
     1
102
RTVSPropertyOp26
 70
     1
102
RTVSPropertyOp27
 70
     1
  0
XRECORD
  5
197
102
{ACAD_REACTORS
330
196
102
}
330
196
100
AcDbXrecord
280
     1
102
RTVSPropertyOp0
 70
     1
102
RTVSPropertyOp1
 70
     1
102
RTVSPropertyOp2
 70
     1
102
RTVSPropertyOp3
 70
     1
102
RTVSPropertyOp4
 70
     1
102
RTVSPropertyOp5
 70
     1
102
RTVSPropertyOp6
 70
     1
102
RTVSPropertyOp7
 70
     1
102
RTVSPropertyOp8
 70
     1
102
RTVSPropertyOp9
 70
     1
102
RTVSPropertyOp10
 70
     1
102
RTVSPropertyOp11
 70
     1
102
RTVSPropertyOp12
 70
     1
102
RTVSPropertyOp13
 70
     1
102
RTVSPropertyOp14
 70
     1
102
RTVSPropertyOp15
 70
     1
102
RTVSPropertyOp16
 70
     1
102
RTVSPropertyOp17
 70
     1
102
RTVSPropertyOp18
 70
     1
102
RTVSPropertyOp19
 70
     1
102
RTVSPropertyOp20
 70
     1
102
RTVSPropertyOp21
 70
     1
102
RTVSPropertyOp22
 70
     1
102
RTVSPropertyOp23
 70
     1
102
RTVSPropertyOp24
 70
     1
102
RTVSPropertyOp25
 70
     1
102
RTVSPropertyOp26
 70
     1
102
RTVSPropertyOp27
 70
     1
  0
XRECORD
  5
195
102
{ACAD_REACTORS
330
194
102
}
330
194
100
AcDbXrecord
280
     1
102
RTVSPropertyOp0
 70
     1
102
RTVSPropertyOp1
 70
     1
102
RTVSPropertyOp2
 70
     1
102
RTVSPropertyOp3
 70
     1
102
RTVSPropertyOp4
 70
     1
102
RTVSPropertyOp5
 70
     1
102
RTVSPropertyOp6
 70
     1
102
RTVSPropertyOp7
 70
     1
102
RTVSPropertyOp8
 70
     1
102
RTVSPropertyOp9
 70
     1
102
RTVSPropertyOp10
 70
     1
102
RTVSPropertyOp11
 70
     1
102
RTVSPropertyOp12
 70
     1
102
RTVSPropertyOp13
 70
     1
102
RTVSPropertyOp14
 70
     1
102
RTVSPropertyOp15
 70
     1
102
RTVSPropertyOp16
 70
     1
102
RTVSPropertyOp17
 70
     1
102
RTVSPropertyOp18
 70
     1
102
RTVSPropertyOp19
 70
     1
102
RTVSPropertyOp20
 70
     1
102
RTVSPropertyOp21
 70
     1
102
RTVSPropertyOp22
 70
     1
102
RTVSPropertyOp23
 70
     1
102
RTVSPropertyOp24
 70
     1
102
RTVSPropertyOp25
 70
     1
102
RTVSPropertyOp26
 70
     1
102
RTVSPropertyOp27
 70
     1
  0
XRECORD
  5
199
102
{ACAD_REACTORS
330
198
102
}
330
198
100
AcDbXrecord
280
     1
102
RTVSPropertyOp0
 70
     1
102
RTVSPropertyOp1
 70
     1
102
RTVSPropertyOp2
 70
     1
102
RTVSPropertyOp3
 70
     1
102
RTVSPropertyOp4
 70
     1
102
RTVSPropertyOp5
 70
     1
102
RTVSPropertyOp6
 70
     1
102
RTVSPropertyOp7
 70
     1
102
RTVSPropertyOp8
 70
     1
102
RTVSPropertyOp9
 70
     1
102
RTVSPropertyOp10
 70
     1
102
RTVSPropertyOp11
 70
     1
102
RTVSPropertyOp12
 70
     1
102
RTVSPropertyOp13
 70
     1
102
RTVSPropertyOp14
 70
     1
102
RTVSPropertyOp15
 70
     1
102
RTVSPropertyOp16
 70
     1
102
RTVSPropertyOp17
 70
     1
102
RTVSPropertyOp18
 70
     1
102
RTVSPropertyOp19
 70
     1
102
RTVSPropertyOp20
 70
     1
102
RTVSPropertyOp21
 70
     1
102
RTVSPropertyOp22
 70
     1
102
RTVSPropertyOp23
 70
     1
102
RTVSPropertyOp24
 70
     1
102
RTVSPropertyOp25
 70
     1
102
RTVSPropertyOp26
 70
     1
102
RTVSPropertyOp27
 70
     1
  0
XRECORD
  5
1A1
102
{ACAD_REACTORS
330
1A0
102
}
330
1A0
100
AcDbXrecord
280
     1
102
RTVSPropertyOp0
 70
     1
102
RTVSPropertyOp1
 70
     1
102
RTVSPropertyOp2
 70
     1
102
RTVSPropertyOp3
 70
     1
102
RTVSPropertyOp4
 70
     1
102
RTVSPropertyOp5
 70
     1
102
RTVSPropertyOp6
 70
     1
102
RTVSPropertyOp7
 70
     1
102
RTVSPropertyOp8
 70
     1
102
RTVSPropertyOp9
 70
     1
102
RTVSPropertyOp10
 70
     1
102
RTVSPropertyOp11
 70
     1
102
RTVSPropertyOp12
 70
     1
102
RTVSPropertyOp13
 70
     1
102
RTVSPropertyOp14
 70
     1
102
RTVSPropertyOp15
 70
     1
102
RTVSPropertyOp16
 70
     1
102
RTVSPropertyOp17
 70
     1
102
RTVSPropertyOp18
 70
     1
102
RTVSPropertyOp19
 70
     1
102
RTVSPropertyOp20
 70
     1
102
RTVSPropertyOp21
 70
     1
102
RTVSPropertyOp22
 70
     1
102
RTVSPropertyOp23
 70
     1
102
RTVSPropertyOp24
 70
     1
102
RTVSPropertyOp25
 70
     1
102
RTVSPropertyOp26
 70
     1
102
RTVSPropertyOp27
 70
     1
  0
XRECORD
  5
1A9
102
{ACAD_REACTORS
330
1A8
102
}
330
1A8
100
AcDbXrecord
280
     1
102
RTVSPropertyOp0
 70
     1
102
RTVSPropertyOp1
 70
     1
102
RTVSPropertyOp2
 70
     1
102
RTVSPropertyOp3
 70
     1
102
RTVSPropertyOp4
 70
     1
102
RTVSPropertyOp5
 70
     1
102
RTVSPropertyOp6
 70
     1
102
RTVSPropertyOp7
 70
     1
102
RTVSPropertyOp8
 70
     1
102
RTVSPropertyOp9
 70
     1
102
RTVSPropertyOp10
 70
     1
102
RTVSPropertyOp11
 70
     1
102
RTVSPropertyOp12
 70
     1
102
RTVSPropertyOp13
 70
     1
102
RTVSPropertyOp14
 70
     1
102
RTVSPropertyOp15
 70
     1
102
RTVSPropertyOp16
 70
     1
102
RTVSPropertyOp17
 70
     1
102
RTVSPropertyOp18
 70
     1
102
RTVSPropertyOp19
 70
     1
102
RTVSPropertyOp20
 70
     1
102
RTVSPropertyOp21
 70
     1
102
RTVSPropertyOp22
 70
     1
102
RTVSPropertyOp23
 70
     1
102
RTVSPropertyOp24
 70
     1
102
RTVSPropertyOp25
 70
     1
102
RTVSPropertyOp26
 70
     1
102
RTVSPropertyOp27
 70
     1
  0
XRECORD
  5
19D
102
{ACAD_REACTORS
330
19C
102
}
330
19C
100
AcDbXrecord
280
     1
102
RTVSPropertyOp0
 70
     1
102
RTVSPropertyOp1
 70
     1
102
RTVSPropertyOp2
 70
     1
102
RTVSPropertyOp3
 70
     1
102
RTVSPropertyOp4
 70
     1
102
RTVSPropertyOp5
 70
     1
102
RTVSPropertyOp6
 70
     1
102
RTVSPropertyOp7
 70
     1
102
RTVSPropertyOp8
 70
     1
102
RTVSPropertyOp9
 70
     1
102
RTVSPropertyOp10
 70
     1
102
RTVSPropertyOp11
 70
     1
102
RTVSPropertyOp12
 70
     1
102
RTVSPropertyOp13
 70
     1
102
RTVSPropertyOp14
 70
     1
102
RTVSPropertyOp15
 70
     1
102
RTVSPropertyOp16
 70
     1
102
RTVSPropertyOp17
 70
     1
102
RTVSPropertyOp18
 70
     1
102
RTVSPropertyOp19
 70
     1
102
RTVSPropertyOp20
 70
     1
102
RTVSPropertyOp21
 70
     1
102
RTVSPropertyOp22
 70
     1
102
RTVSPropertyOp23
 70
     1
102
RTVSPropertyOp24
 70
     1
102
RTVSPropertyOp25
 70
     1
102
RTVSPropertyOp26
 70
     1
102
RTVSPropertyOp27
 70
     1
  0
XRECORD
  5
19F
102
{ACAD_REACTORS
330
19E
102
}
330
19E
100
AcDbXrecord
280
     1
102
RTVSPropertyOp0
 70
     1
102
RTVSPropertyOp1
 70
     1
102
RTVSPropertyOp2
 70
     1
102
RTVSPropertyOp3
 70
     1
102
RTVSPropertyOp4
 70
     1
102
RTVSPropertyOp5
 70
     1
102
RTVSPropertyOp6
 70
     1
102
RTVSPropertyOp7
 70
     1
102
RTVSPropertyOp8
 70
     1
102
RTVSPropertyOp9
 70
     1
102
RTVSPropertyOp10
 70
     1
102
RTVSPropertyOp11
 70
     1
102
RTVSPropertyOp12
 70
     1
102
RTVSPropertyOp13
 70
     1
102
RTVSPropertyOp14
 70
     1
102
RTVSPropertyOp15
 70
     1
102
RTVSPropertyOp16
 70
     1
102
RTVSPropertyOp17
 70
     1
102
RTVSPropertyOp18
 70
     1
102
RTVSPropertyOp19
 70
     1
102
RTVSPropertyOp20
 70
     1
102
RTVSPropertyOp21
 70
     1
102
RTVSPropertyOp22
 70
     1
102
RTVSPropertyOp23
 70
     1
102
RTVSPropertyOp24
 70
     1
102
RTVSPropertyOp25
 70
     1
102
RTVSPropertyOp26
 70
     1
102
RTVSPropertyOp27
 70
     1
  0
XRECORD
  5
1A7
102
{ACAD_REACTORS
330
1A6
102
}
330
1A6
100
AcDbXrecord
280
     1
102
RTVSPropertyOp0
 70
     1
102
RTVSPropertyOp1
 70
     1
102
RTVSPropertyOp2
 70
     1
102
RTVSPropertyOp3
 70
     1
102
RTVSPropertyOp4
 70
     1
102
RTVSPropertyOp5
 70
     1
102
RTVSPropertyOp6
 70
     1
102
RTVSPropertyOp7
 70
     1
102
RTVSPropertyOp8
 70
     1
102
RTVSPropertyOp9
 70
     1
102
RTVSPropertyOp10
 70
     1
102
RTVSPropertyOp11
 70
     1
102
RTVSPropertyOp12
 70
     1
102
RTVSPropertyOp13
 70
     1
102
RTVSPropertyOp14
 70
     1
102
RTVSPropertyOp15
 70
     1
102
RTVSPropertyOp16
 70
     1
102
RTVSPropertyOp17
 70
     1
102
RTVSPropertyOp18
 70
     1
102
RTVSPropertyOp19
 70
     1
102
RTVSPropertyOp20
 70
     1
102
RTVSPropertyOp21
 70
     1
102
RTVSPropertyOp22
 70
     1
102
RTVSPropertyOp23
 70
     1
102
RTVSPropertyOp24
 70
     1
102
RTVSPropertyOp25
 70
     1
102
RTVSPropertyOp26
 70
     1
102
RTVSPropertyOp27
 70
     1
  0
XRECORD
  5
18B
102
{ACAD_REACTORS
330
18A
102
}
330
18A
100
AcDbXrecord
280
     1
102
RTVSPropertyOp0
 70
     1
102
RTVSPropertyOp1
 70
     1
102
RTVSPropertyOp2
 70
     1
102
RTVSPropertyOp3
 70
     1
102
RTVSPropertyOp4
 70
     1
102
RTVSPropertyOp5
 70
     1
102
RTVSPropertyOp6
 70
     1
102
RTVSPropertyOp7
 70
     1
102
RTVSPropertyOp8
 70
     1
102
RTVSPropertyOp9
 70
     1
102
RTVSPropertyOp10
 70
     1
102
RTVSPropertyOp11
 70
     1
102
RTVSPropertyOp12
 70
     1
102
RTVSPropertyOp13
 70
     1
102
RTVSPropertyOp14
 70
     1
102
RTVSPropertyOp15
 70
     1
102
RTVSPropertyOp16
 70
     1
102
RTVSPropertyOp17
 70
     1
102
RTVSPropertyOp18
 70
     1
102
RTVSPropertyOp19
 70
     1
102
RTVSPropertyOp20
 70
     1
102
RTVSPropertyOp21
 70
     1
102
RTVSPropertyOp22
 70
     1
102
RTVSPropertyOp23
 70
     1
102
RTVSPropertyOp24
 70
     1
102
RTVSPropertyOp25
 70
     1
102
RTVSPropertyOp26
 70
     1
102
RTVSPropertyOp27
 70
     1
  0
XRECORD
  5
18D
102
{ACAD_REACTORS
330
18C
102
}
330
18C
100
AcDbXrecord
280
     1
102
RTVSPropertyOp0
 70
     1
102
RTVSPropertyOp1
 70
     1
102
RTVSPropertyOp2
 70
     1
102
RTVSPropertyOp3
 70
     1
102
RTVSPropertyOp4
 70
     1
102
RTVSPropertyOp5
 70
     1
102
RTVSPropertyOp6
 70
     1
102
RTVSPropertyOp7
 70
     1
102
RTVSPropertyOp8
 70
     1
102
RTVSPropertyOp9
 70
     1
102
RTVSPropertyOp10
 70
     1
102
RTVSPropertyOp11
 70
     1
102
RTVSPropertyOp12
 70
     1
102
RTVSPropertyOp13
 70
     1
102
RTVSPropertyOp14
 70
     1
102
RTVSPropertyOp15
 70
     1
102
RTVSPropertyOp16
 70
     1
102
RTVSPropertyOp17
 70
     1
102
RTVSPropertyOp18
 70
     1
102
RTVSPropertyOp19
 70
     1
102
RTVSPropertyOp20
 70
     1
102
RTVSPropertyOp21
 70
     1
102
RTVSPropertyOp22
 70
     1
102
RTVSPropertyOp23
 70
     1
102
RTVSPropertyOp24
 70
     1
102
RTVSPropertyOp25
 70
     1
102
RTVSPropertyOp26
 70
     1
102
RTVSPropertyOp27
 70
     1
  0
XRECORD
  5
18F
102
{ACAD_REACTORS
330
18E
102
}
330
18E
100
AcDbXrecord
280
     1
102
RTVSPropertyOp0
 70
     1
102
RTVSPropertyOp1
 70
     1
102
RTVSPropertyOp2
 70
     1
102
RTVSPropertyOp3
 70
     1
102
RTVSPropertyOp4
 70
     1
102
RTVSPropertyOp5
 70
     1
102
RTVSPropertyOp6
 70
     1
102
RTVSPropertyOp7
 70
     1
102
RTVSPropertyOp8
 70
     1
102
RTVSPropertyOp9
 70
     1
102
RTVSPropertyOp10
 70
     1
102
RTVSPropertyOp11
 70
     1
102
RTVSPropertyOp12
 70
     1
102
RTVSPropertyOp13
 70
     1
102
RTVSPropertyOp14
 70
     1
102
RTVSPropertyOp15
 70
     1
102
RTVSPropertyOp16
 70
     1
102
RTVSPropertyOp17
 70
     1
102
RTVSPropertyOp18
 70
     1
102
RTVSPropertyOp19
 70
     1
102
RTVSPropertyOp20
 70
     1
102
RTVSPropertyOp21
 70
     1
102
RTVSPropertyOp22
 70
     1
102
RTVSPropertyOp23
 70
     1
102
RTVSPropertyOp24
 70
     1
102
RTVSPropertyOp25
 70
     1
102
RTVSPropertyOp26
 70
     1
102
RTVSPropertyOp27
 70
     1
  0
XRECORD
  5
191
102
{ACAD_REACTORS
330
190
102
}
330
190
100
AcDbXrecord
280
     1
102
RTVSPropertyOp0
 70
     1
102
RTVSPropertyOp1
 70
     1
102
RTVSPropertyOp2
 70
     1
102
RTVSPropertyOp3
 70
     1
102
RTVSPropertyOp4
 70
     1
102
RTVSPropertyOp5
 70
     1
102
RTVSPropertyOp6
 70
     1
102
RTVSPropertyOp7
 70
     1
102
RTVSPropertyOp8
 70
     1
102
RTVSPropertyOp9
 70
     1
102
RTVSPropertyOp10
 70
     1
102
RTVSPropertyOp11
 70
     1
102
RTVSPropertyOp12
 70
     1
102
RTVSPropertyOp13
 70
     1
102
RTVSPropertyOp14
 70
     1
102
RTVSPropertyOp15
 70
     1
102
RTVSPropertyOp16
 70
     1
102
RTVSPropertyOp17
 70
     1
102
RTVSPropertyOp18
 70
     1
102
RTVSPropertyOp19
 70
     1
102
RTVSPropertyOp20
 70
     1
102
RTVSPropertyOp21
 70
     1
102
RTVSPropertyOp22
 70
     1
102
RTVSPropertyOp23
 70
     1
102
RTVSPropertyOp24
 70
     1
102
RTVSPropertyOp25
 70
     1
102
RTVSPropertyOp26
 70
     1
102
RTVSPropertyOp27
 70
     1
  0
XRECORD
  5
1A5
102
{ACAD_REACTORS
330
1A4
102
}
330
1A4
100
AcDbXrecord
280
     1
102
RTVSPropertyOp0
 70
     1
102
RTVSPropertyOp1
 70
     1
102
RTVSPropertyOp2
 70
     1
102
RTVSPropertyOp3
 70
     1
102
RTVSPropertyOp4
 70
     1
102
RTVSPropertyOp5
 70
     1
102
RTVSPropertyOp6
 70
     1
102
RTVSPropertyOp7
 70
     1
102
RTVSPropertyOp8
 70
     1
102
RTVSPropertyOp9
 70
     1
102
RTVSPropertyOp10
 70
     1
102
RTVSPropertyOp11
 70
     1
102
RTVSPropertyOp12
 70
     1
102
RTVSPropertyOp13
 70
     1
102
RTVSPropertyOp14
 70
     1
102
RTVSPropertyOp15
 70
     1
102
RTVSPropertyOp16
 70
     1
102
RTVSPropertyOp17
 70
     1
102
RTVSPropertyOp18
 70
     1
102
RTVSPropertyOp19
 70
     1
102
RTVSPropertyOp20
 70
     1
102
RTVSPropertyOp21
 70
     1
102
RTVSPropertyOp22
 70
     1
102
RTVSPropertyOp23
 70
     1
102
RTVSPropertyOp24
 70
     1
102
RTVSPropertyOp25
 70
     1
102
RTVSPropertyOp26
 70
     1
102
RTVSPropertyOp27
 70
     1
  0
XRECORD
  5
19B
102
{ACAD_REACTORS
330
19A
102
}
330
19A
100
AcDbXrecord
280
     1
102
RTVSPropertyOp0
 70
     1
102
RTVSPropertyOp1
 70
     1
102
RTVSPropertyOp2
 70
     1
102
RTVSPropertyOp3
 70
     1
102
RTVSPropertyOp4
 70
     1
102
RTVSPropertyOp5
 70
     1
102
RTVSPropertyOp6
 70
     1
102
RTVSPropertyOp7
 70
     1
102
RTVSPropertyOp8
 70
     1
102
RTVSPropertyOp9
 70
     1
102
RTVSPropertyOp10
 70
     1
102
RTVSPropertyOp11
 70
     1
102
RTVSPropertyOp12
 70
     1
102
RTVSPropertyOp13
 70
     1
102
RTVSPropertyOp14
 70
     1
102
RTVSPropertyOp15
 70
     1
102
RTVSPropertyOp16
 70
     1
102
RTVSPropertyOp17
 70
     1
102
RTVSPropertyOp18
 70
     1
102
RTVSPropertyOp19
 70
     1
102
RTVSPropertyOp20
 70
     1
102
RTVSPropertyOp21
 70
     1
102
RTVSPropertyOp22
 70
     1
102
RTVSPropertyOp23
 70
     1
102
RTVSPropertyOp24
 70
     1
102
RTVSPropertyOp25
 70
     1
102
RTVSPropertyOp26
 70
     1
102
RTVSPropertyOp27
 70
     1
  0
XRECORD
  5
1A3
102
{ACAD_REACTORS
330
1A2
102
}
330
1A2
100
AcDbXrecord
280
     1
102
RTVSPropertyOp0
 70
     1
102
RTVSPropertyOp1
 70
     1
102
RTVSPropertyOp2
 70
     1
102
RTVSPropertyOp3
 70
     1
102
RTVSPropertyOp4
 70
     1
102
RTVSPropertyOp5
 70
     1
102
RTVSPropertyOp6
 70
     1
102
RTVSPropertyOp7
 70
     1
102
RTVSPropertyOp8
 70
     1
102
RTVSPropertyOp9
 70
     1
102
RTVSPropertyOp10
 70
     1
102
RTVSPropertyOp11
 70
     1
102
RTVSPropertyOp12
 70
     1
102
RTVSPropertyOp13
 70
     1
102
RTVSPropertyOp14
 70
     1
102
RTVSPropertyOp15
 70
     1
102
RTVSPropertyOp16
 70
     1
102
RTVSPropertyOp17
 70
     1
102
RTVSPropertyOp18
 70
     1
102
RTVSPropertyOp19
 70
     1
102
RTVSPropertyOp20
 70
     1
102
RTVSPropertyOp21
 70
     1
102
RTVSPropertyOp22
 70
     1
102
RTVSPropertyOp23
 70
     1
102
RTVSPropertyOp24
 70
     1
102
RTVSPropertyOp25
 70
     1
102
RTVSPropertyOp26
 70
     1
102
RTVSPropertyOp27
 70
     1
  0
ENDSEC
  0
EOF
