  0
SECTION
  2
HEADER
  9
$ACADVER
  1
AC1014
  9
$ACADMAINTVER
 70
     9
  9
$DWGCODEPAGE
  3
ANSI_1250
  9
$INSBASE
 10
0.0
 20
0.0
 30
0.0
  9
$EXTMIN
 10
-30.8606
 20
-34.872
 30
0.0
  9
$EXTMAX
 10
31.0008
 20
34.788
 30
0.0
  9
$LIMMIN
 10
0.0
 20
0.0
  9
$LIMMAX
 10
12.0
 20
9.0
  9
$ORTHOMODE
 70
     0
  9
$REGENMODE
 70
     1
  9
$FILLMODE
 70
     1
  9
$QTEXTMODE
 70
     0
  9
$MIRRTEXT
 70
     1
  9
$DRAGMODE
 70
     2
  9
$LTSCALE
 40
1.0
  9
$OSMODE
 70
    37
  9
$ATTMODE
 70
     1
  9
$TEXTSIZE
 40
0.2
  9
$TRACEWID
 40
0.05
  9
$TEXTSTYLE
  7
STANDARD
  9
$CLAYER
  8
0
  9
$CELTYPE
  6
BYLAYER
  9
$CECOLOR
 62
   256
  9
$CELTSCALE
 40
1.0
  9
$DELOBJ
 70
     1
  9
$DISPSILH
 70
     0
  9
$DIMSCALE
 40
1.0
  9
$DIMASZ
 40
0.18
  9
$DIMEXO
 40
0.0625
  9
$DIMDLI
 40
0.38
  9
$DIMRND
 40
0.0
  9
$DIMDLE
 40
0.0
  9
$DIMEXE
 40
0.18
  9
$DIMTP
 40
0.0
  9
$DIMTM
 40
0.0
  9
$DIMTXT
 40
0.18
  9
$DIMCEN
 40
0.09
  9
$DIMTSZ
 40
0.0
  9
$DIMTOL
 70
     0
  9
$DIMLIM
 70
     0
  9
$DIMTIH
 70
     1
  9
$DIMTOH
 70
     1
  9
$DIMSE1
 70
     0
  9
$DIMSE2
 70
     0
  9
$DIMTAD
 70
     0
  9
$DIMZIN
 70
     0
  9
$DIMBLK
  1

  9
$DIMASO
 70
     1
  9
$DIMSHO
 70
     1
  9
$DIMPOST
  1

  9
$DIMAPOST
  1

  9
$DIMALT
 70
     0
  9
$DIMALTD
 70
     2
  9
$DIMALTF
 40
25.4
  9
$DIMLFAC
 40
1.0
  9
$DIMTOFL
 70
     0
  9
$DIMTVP
 40
0.0
  9
$DIMTIX
 70
     0
  9
$DIMSOXD
 70
     0
  9
$DIMSAH
 70
     0
  9
$DIMBLK1
  1

  9
$DIMBLK2
  1

  9
$DIMSTYLE
  2
STANDARD
  9
$DIMCLRD
 70
     0
  9
$DIMCLRE
 70
     0
  9
$DIMCLRT
 70
     0
  9
$DIMTFAC
 40
1.0
  9
$DIMGAP
 40
0.09
  9
$DIMJUST
 70
     0
  9
$DIMSD1
 70
     0
  9
$DIMSD2
 70
     0
  9
$DIMTOLJ
 70
     1
  9
$DIMTZIN
 70
     0
  9
$DIMALTZ
 70
     0
  9
$DIMALTTZ
 70
     0
  9
$DIMFIT
 70
     3
  9
$DIMUPT
 70
     0
  9
$DIMUNIT
 70
     2
  9
$DIMDEC
 70
     4
  9
$DIMTDEC
 70
     4
  9
$DIMALTU
 70
     2
  9
$DIMALTTD
 70
     2
  9
$DIMTXSTY
  7
STANDARD
  9
$DIMAUNIT
 70
     0
  9
$LUNITS
 70
     2
  9
$LUPREC
 70
     4
  9
$SKETCHINC
 40
0.1
  9
$FILLETRAD
 40
0.5
  9
$AUNITS
 70
     0
  9
$AUPREC
 70
     0
  9
$MENU
  1
.
  9
$ELEVATION
 40
0.0
  9
$PELEVATION
 40
0.0
  9
$THICKNESS
 40
0.0
  9
$LIMCHECK
 70
     0
  9
$CHAMFERA
 40
0.5
  9
$CHAMFERB
 40
0.5
  9
$CHAMFERC
 40
1.0
  9
$CHAMFERD
 40
0.0
  9
$SKPOLY
 70
     0
  9
$TDCREATE
 40
2456272.40600404
  9
$TDUPDATE
 40
2456272.406004051
  9
$TDINDWG
 40
0.0000000116
  9
$TDUSRTIMER
 40
0.0000000116
  9
$USRTIMER
 70
     1
  9
$ANGBASE
 50
0.0
  9
$ANGDIR
 70
     0
  9
$PDMODE
 70
     0
  9
$PDSIZE
 40
0.0
  9
$PLINEWID
 40
0.0
  9
$COORDS
 70
     1
  9
$SPLFRAME
 70
     0
  9
$SPLINETYPE
 70
     6
  9
$SPLINESEGS
 70
     8
  9
$ATTDIA
 70
     0
  9
$ATTREQ
 70
     1
  9
$HANDLING
 70
     1
  9
$HANDSEED
  5
A3
  9
$SURFTAB1
 70
     6
  9
$SURFTAB2
 70
     6
  9
$SURFTYPE
 70
     6
  9
$SURFU
 70
     6
  9
$SURFV
 70
     6
  9
$UCSNAME
  2

  9
$UCSORG
 10
0.0
 20
0.0
 30
0.0
  9
$UCSXDIR
 10
1.0
 20
0.0
 30
0.0
  9
$UCSYDIR
 10
0.0
 20
1.0
 30
0.0
  9
$PUCSNAME
  2

  9
$PUCSORG
 10
0.0
 20
0.0
 30
0.0
  9
$PUCSXDIR
 10
1.0
 20
0.0
 30
0.0
  9
$PUCSYDIR
 10
0.0
 20
1.0
 30
0.0
  9
$USERI1
 70
     0
  9
$USERI2
 70
     0
  9
$USERI3
 70
     0
  9
$USERI4
 70
     0
  9
$USERI5
 70
     0
  9
$USERR1
 40
0.0
  9
$USERR2
 40
0.0
  9
$USERR3
 40
0.0
  9
$USERR4
 40
0.0
  9
$USERR5
 40
0.0
  9
$WORLDVIEW
 70
     1
  9
$SHADEDGE
 70
     3
  9
$SHADEDIF
 70
    70
  9
$TILEMODE
 70
     1
  9
$MAXACTVP
 70
    64
  9
$PINSBASE
 10
0.0
 20
0.0
 30
0.0
  9
$PLIMCHECK
 70
     0
  9
$PEXTMIN
 10
1.000000000000000E+20
 20
1.000000000000000E+20
 30
1.000000000000000E+20
  9
$PEXTMAX
 10
-1.000000000000000E+20
 20
-1.000000000000000E+20
 30
-1.000000000000000E+20
  9
$PLIMMIN
 10
0.0
 20
0.0
  9
$PLIMMAX
 10
12.0
 20
9.0
  9
$UNITMODE
 70
     0
  9
$VISRETAIN
 70
     1
  9
$PLINEGEN
 70
     0
  9
$PSLTSCALE
 70
     1
  9
$TREEDEPTH
 70
  3020
  9
$PICKSTYLE
 70
     1
  9
$CMLSTYLE
  2
STANDARD
  9
$CMLJUST
 70
     0
  9
$CMLSCALE
 40
1.0
  9
$PROXYGRAPHICS
 70
     1
  9
$MEASUREMENT
 70
     0
  0
ENDSEC
  0
SECTION
  2
CLASSES
  0
CLASS
  1
ACDBDICTIONARYWDFLT
  2
AcDbDictionaryWithDefault
  3
ObjectDBX Classes
 90
        0
280
     0
281
     0
  0
CLASS
  1
VISUALSTYLE
  2
AcDbVisualStyle
  3
ObjectDBX Classes
 90
     4095
280
     0
281
     0
  0
CLASS
  1
MATERIAL
  2
AcDbMaterial
  3
ObjectDBX Classes
 90
     1153
280
     0
281
     0
  0
CLASS
  1
DICTIONARYVAR
  2
AcDbDictionaryVar
  3
ObjectDBX Classes
 90
        0
280
     0
281
     0
  0
CLASS
  1
XRECORD
  2
AcDbXrecord
  3
AutoCAD 2000
 90
        0
280
     0
281
     0
  0
CLASS
  1
LWPOLYLINE
  2
AcDbPolyline
  3
AutoCAD 2000
 90
        0
280
     0
281
     1
  0
CLASS
  1
HATCH
  2
AcDbHatch
  3
AutoCAD 2000
 90
        0
280
     0
281
     1
  0
CLASS
  1
ACDBPLACEHOLDER
  2
AcDbPlaceHolder
  3
ObjectDBX Classes
 90
        0
280
     0
281
     0
  0
CLASS
  1
LAYOUT
  2
AcDbLayout
  3
ObjectDBX Classes
 90
        0
280
     0
281
     0
  0
ENDSEC
  0
SECTION
  2
TABLES
  0
TABLE
  2
VPORT
  5
8
330
0
100
AcDbSymbolTable
 70
     1
  0
VPORT
  5
29
330
8
100
AcDbSymbolTableRecord
100
AcDbViewportTableRecord
  2
*ACTIVE
 70
     0
 10
0.0
 20
0.0
 11
1.0
 21
1.0
 12
10.42990654205607
 22
4.5
 13
0.0
 23
0.0
 14
0.5
 24
0.5
 15
0.5
 25
0.5
 16
0.0
 26
0.0
 36
1.0
 17
0.0
 27
0.0
 37
0.0
 40
9.0
 41
1.972972972850329
 42
50.0
 43
0.0
 44
0.0
 50
0.0
 51
0.0
 71
     0
 72
   100
 73
     1
 74
     3
 75
     0
 76
     0
 77
     0
 78
     0
  0
ENDTAB
  0
TABLE
  2
LTYPE
  5
5
330
0
100
AcDbSymbolTable
 70
     3
  0
LTYPE
  5
14
330
5
100
AcDbSymbolTableRecord
100
AcDbLinetypeTableRecord
  2
BYBLOCK
 70
     0
  3

 72
    65
 73
     0
 40
0.0
  0
LTYPE
  5
15
330
5
100
AcDbSymbolTableRecord
100
AcDbLinetypeTableRecord
  2
BYLAYER
 70
     0
  3

 72
    65
 73
     0
 40
0.0
  0
LTYPE
  5
16
330
5
100
AcDbSymbolTableRecord
100
AcDbLinetypeTableRecord
  2
CONTINUOUS
 70
     0
  3
Solid line
 72
    65
 73
     0
 40
0.0
  0
LTYPE
  5
44
330
5
100
AcDbSymbolTableRecord
100
AcDbLinetypeTableRecord
  2
NEW_LINE1
 70
     0
  3

 72
    65
 73
     4
 40
1.2
 49
0.5
 74
     4
 75
     0
340
0
 46
1.0
 50
0.0
 44
0.0
 45
0.0
 49
-0.3
 74
     4
 75
     0
340
0
 46
1.0
 50
0.0
 44
0.0
 45
0.0
 49
0.1
 74
     4
 75
     0
340
0
 46
1.0
 50
0.0
 44
0.0
 45
0.0
 49
-0.3
 74
     4
 75
     0
340
0
 46
1.0
 50
0.0
 44
0.0
 45
0.0
  0
LTYPE
  5
57
330
5
100
AcDbSymbolTableRecord
100
AcDbLinetypeTableRecord
  2
NEW_LINE2
 70
     0
  3

 72
    65
 73
     4
 40
1.2
 49
0.5
 74
     4
 75
     0
340
0
 46
1.0
 50
0.0
 44
0.0
 45
0.0
 49
-0.3
 74
     4
 75
     0
340
0
 46
1.0
 50
0.0
 44
0.0
 45
0.0
 49
0.1
 74
     4
 75
     0
340
0
 46
1.0
 50
0.0
 44
0.0
 45
0.0
 49
-0.3
 74
     4
 75
     0
340
0
 46
1.0
 50
0.0
 44
0.0
 45
0.0
  0
ENDTAB
  0
TABLE
  2
LAYER
  5
2
330
0
100
AcDbSymbolTable
 70
     2
  0
LAYER
  5
10
330
2
100
AcDbSymbolTableRecord
100
AcDbLayerTableRecord
  2
0
 70
     0
 62
     7
  6
CONTINUOUS
  0
LAYER
  5
40
330
2
100
AcDbSymbolTableRecord
100
AcDbLayerTableRecord
  2
DEFAULT_1
 70
     0
 62
     7
  6
CONTINUOUS
  0
ENDTAB
  0
TABLE
  2
STYLE
  5
3
330
0
100
AcDbSymbolTable
 70
     1
  0
STYLE
  5
11
330
3
100
AcDbSymbolTableRecord
100
AcDbTextStyleTableRecord
  2
STANDARD
 70
     0
 40
0.0
 41
1.0
 50
0.0
 71
     0
 42
0.2
  3
txt
  4

  0
ENDTAB
  0
TABLE
  2
VIEW
  5
6
330
0
100
AcDbSymbolTable
 70
     0
  0
ENDTAB
  0
TABLE
  2
UCS
  5
7
330
0
100
AcDbSymbolTable
 70
     0
  0
ENDTAB
  0
TABLE
  2
APPID
  5
9
330
0
100
AcDbSymbolTable
 70
     2
  0
APPID
  5
12
330
9
100
AcDbSymbolTableRecord
100
AcDbRegAppTableRecord
  2
ACAD
 70
     0
  0
APPID
  5
3F
330
9
100
AcDbSymbolTableRecord
100
AcDbRegAppTableRecord
  2
ODA
 70
     0
  0
ENDTAB
  0
TABLE
  2
DIMSTYLE
  5
A
330
0
100
AcDbSymbolTable
 70
     1
  0
DIMSTYLE
105
27
330
A
100
AcDbSymbolTableRecord
100
AcDbDimStyleTableRecord
  2
STANDARD
 70
     0
  3

  4

  5

  6

  7

 40
1.0
 41
0.18
 42
0.0625
 43
0.38
 44
0.18
 45
0.0
 46
0.0
 47
0.0
 48
0.0
140
0.18
141
0.09
142
0.0
143
25.4
144
1.0
145
0.0
146
1.0
147
0.09
 71
     0
 72
     0
 73
     1
 74
     1
 75
     0
 76
     0
 77
     0
 78
     0
170
     0
171
     2
172
     0
173
     0
174
     0
175
     0
176
     0
177
     0
178
     0
270
     2
271
     4
272
     4
273
     2
274
     2
340
11
275
     0
280
     0
281
     0
282
     0
283
     1
284
     0
285
     0
286
     0
287
     3
288
     0
  0
ENDTAB
  0
TABLE
  2
BLOCK_RECORD
  5
1
330
0
100
AcDbSymbolTable
 70
     1
  0
BLOCK_RECORD
  5
1F
330
1
100
AcDbSymbolTableRecord
100
AcDbBlockTableRecord
  2
*MODEL_SPACE
  0
BLOCK_RECORD
  5
1B
330
1
100
AcDbSymbolTableRecord
100
AcDbBlockTableRecord
  2
*PAPER_SPACE
  0
ENDTAB
  0
ENDSEC
  0
SECTION
  2
BLOCKS
  0
BLOCK
  5
20
330
1F
100
AcDbEntity
  8
0
100
AcDbBlockBegin
  2
*MODEL_SPACE
 70
     0
 10
0.0
 20
0.0
 30
0.0
  3
*MODEL_SPACE
  1

  0
ENDBLK
  5
21
330
1F
100
AcDbEntity
  8
0
100
AcDbBlockEnd
  0
BLOCK
  5
1C
330
1B
100
AcDbEntity
 67
     1
  8
0
100
AcDbBlockBegin
  2
*PAPER_SPACE
 70
     0
 10
0.0
 20
0.0
 30
0.0
  3
*PAPER_SPACE
  1

  0
ENDBLK
  5
1D
330
1B
100
AcDbEntity
 67
     1
  8
0
100
AcDbBlockEnd
  0
ENDSEC
  0
SECTION
  2
ENTITIES
  0
SPLINE
  5
41
330
1F
100
AcDbEntity
  8
DEFAULT_1
 62
   250
100
AcDbSpline
210
0.0
220
0.0
230
1.0
 70
    24
 71
     3
 72
     8
 73
     4
 74
     0
 42
0.0000000001
 43
0.0000000001
 40
0.0
 40
0.0
 40
0.0
 40
0.0
 40
1.0
 40
1.0
 40
1.0
 40
1.0
 10
-10.3463
 20
-27.2061
 30
0.0
 10
-10.3463
 20
-27.2061
 30
0.0
 10
-10.3463
 20
-34.5238
 30
0.0
 10
-10.3463
 20
-34.5238
 30
0.0
  0
SPLINE
  5
42
330
1F
100
AcDbEntity
  8
DEFAULT_1
 62
   250
100
AcDbSpline
210
0.0
220
0.0
230
1.0
 70
    24
 71
     3
 72
     8
 73
     4
 74
     0
 42
0.0000000001
 43
0.0000000001
 40
0.0
 40
0.0
 40
0.0
 40
0.0
 40
1.0
 40
1.0
 40
1.0
 40
1.0
 10
30.8597
 20
-27.2061
 30
0.0
 10
30.8597
 20
-27.2061
 30
0.0
 10
30.8597
 20
-34.5238
 30
0.0
 10
30.8597
 20
-34.5238
 30
0.0
  0
SPLINE
  5
43
330
1F
100
AcDbEntity
  8
DEFAULT_1
  6
NEW_LINE1
 62
   250
100
AcDbSpline
210
0.0
220
0.0
230
1.0
 70
    24
 71
     3
 72
     8
 73
     4
 74
     0
 42
0.0000000001
 43
0.0000000001
 40
0.0
 40
0.0
 40
0.0
 40
0.0
 40
1.0
 40
1.0
 40
1.0
 40
1.0
 10
4.6381
 20
34.788
 30
0.0
 10
4.6381
 20
34.788
 30
0.0
 10
4.6381
 20
1.5288
 30
0.0
 10
4.6381
 20
1.5288
 30
0.0
  0
SPLINE
  5
45
330
1F
100
AcDbEntity
  8
DEFAULT_1
 62
   250
100
AcDbSpline
210
0.0
220
0.0
230
1.0
 70
    24
 71
     3
 72
     8
 73
     4
 74
     0
 42
0.0000000001
 43
0.0000000001
 40
0.0
 40
0.0
 40
0.0
 40
0.0
 40
1.0
 40
1.0
 40
1.0
 40
1.0
 10
-9.4812
 20
-26.6612
 30
0.0
 10
-9.4812
 20
-26.6612
 30
0.0
 10
-28.9461
 20
-26.6612
 30
0.0
 10
-28.9461
 20
-26.6612
 30
0.0
  0
SPLINE
  5
46
330
1F
100
AcDbEntity
  8
DEFAULT_1
 62
   250
100
AcDbSpline
210
0.0
220
0.0
230
1.0
 70
    24
 71
     3
 72
     8
 73
     4
 74
     0
 42
0.0000000001
 43
0.0000000001
 40
0.0
 40
0.0
 40
0.0
 40
0.0
 40
1.0
 40
1.0
 40
1.0
 40
1.0
 10
-10.3463
 20
12.6718
 30
0.0
 10
-10.3463
 20
12.6718
 30
0.0
 10
-18.1154
 20
12.6718
 30
0.0
 10
-18.1154
 20
12.6718
 30
0.0
  0
SPLINE
  5
47
330
1F
100
AcDbEntity
  8
DEFAULT_1
 62
   250
100
AcDbSpline
210
0.0
220
0.0
230
1.0
 70
    24
 71
     3
 72
     8
 73
     4
 74
     0
 42
0.0000000001
 43
0.0000000001
 40
0.0
 40
0.0
 40
0.0
 40
0.0
 40
1.0
 40
1.0
 40
1.0
 40
1.0
 10
-20.6479
 20
32.5257
 30
0.0
 10
-20.6479
 20
32.5257
 30
0.0
 10
-28.104
 20
32.5257
 30
0.0
 10
-28.104
 20
32.5257
 30
0.0
  0
SPLINE
  5
48
330
1F
100
AcDbEntity
  8
DEFAULT_1
 62
   250
100
AcDbSpline
210
0.0
220
0.0
230
1.0
 70
    24
 71
     3
 72
     8
 73
     4
 74
     0
 42
0.0000000001
 43
0.0000000001
 40
0.0
 40
0.0
 40
0.0
 40
0.0
 40
1.0
 40
1.0
 40
1.0
 40
1.0
 10
29.9948
 20
-26.6612
 30
0.0
 10
29.9948
 20
-26.6612
 30
0.0
 10
-9.4812
 20
-26.6612
 30
0.0
 10
-9.4812
 20
-26.6612
 30
0.0
  0
SPLINE
  5
49
330
1F
100
AcDbEntity
  8
DEFAULT_1
 62
   250
100
AcDbSpline
210
0.0
220
0.0
230
1.0
 70
    24
 71
     3
 72
     8
 73
     4
 74
     0
 42
0.0000000001
 43
0.0000000001
 40
0.0
 40
0.0
 40
0.0
 40
0.0
 40
1.0
 40
1.0
 40
1.0
 40
1.0
 10
30.8597
 20
-25.1627
 30
0.0
 10
30.8597
 20
-25.1627
 30
0.0
 10
-10.3463
 20
-25.1627
 30
0.0
 10
-10.3463
 20
-25.1627
 30
0.0
  0
SPLINE
  5
4A
330
1F
100
AcDbEntity
  8
DEFAULT_1
 62
   250
100
AcDbSpline
210
0.0
220
0.0
230
1.0
 70
    24
 71
     3
 72
     8
 73
     4
 74
     0
 42
0.0000000001
 43
0.0000000001
 40
0.0
 40
0.0
 40
0.0
 40
0.0
 40
1.0
 40
1.0
 40
1.0
 40
1.0
 10
-10.3463
 20
-25.1627
 30
0.0
 10
-10.3463
 20
-25.1627
 30
0.0
 10
-9.4812
 20
-26.6612
 30
0.0
 10
-9.4812
 20
-26.6612
 30
0.0
  0
SPLINE
  5
4B
330
1F
100
AcDbEntity
  8
DEFAULT_1
 62
   250
100
AcDbSpline
210
0.0
220
0.0
230
1.0
 70
    24
 71
     3
 72
     8
 73
     4
 74
     0
 42
0.0000000001
 43
0.0000000001
 40
0.0
 40
0.0
 40
0.0
 40
0.0
 40
1.0
 40
1.0
 40
1.0
 40
1.0
 10
-20.6479
 20
23.1607
 30
0.0
 10
-20.6479
 20
23.1607
 30
0.0
 10
-20.6479
 20
32.5257
 30
0.0
 10
-20.6479
 20
32.5257
 30
0.0
  0
SPLINE
  5
4C
330
1F
100
AcDbEntity
  8
DEFAULT_1
 62
   250
100
AcDbSpline
210
0.0
220
0.0
230
1.0
 70
    24
 71
     3
 72
     8
 73
     4
 74
     0
 42
0.0000000001
 43
0.0000000001
 40
0.0
 40
0.0
 40
0.0
 40
0.0
 40
1.0
 40
1.0
 40
1.0
 40
1.0
 10
-15.9652
 20
13.7957
 30
0.0
 10
-15.9652
 20
13.7957
 30
0.0
 10
-20.6479
 20
23.1607
 30
0.0
 10
-20.6479
 20
23.1607
 30
0.0
  0
SPLINE
  5
4D
330
1F
100
AcDbEntity
  8
DEFAULT_1
 62
   250
100
AcDbSpline
210
0.0
220
0.0
230
1.0
 70
    24
 71
     3
 72
     8
 73
     4
 74
     0
 42
0.0000000001
 43
0.0000000001
 40
0.0
 40
0.0
 40
0.0
 40
0.0
 40
1.0
 40
1.0
 40
1.0
 40
1.0
 10
-15.9652
 20
13.7957
 30
0.0
 10
-15.9652
 20
13.7957
 30
0.0
 10
-10.3463
 20
12.6718
 30
0.0
 10
-10.3463
 20
12.6718
 30
0.0
  0
SPLINE
  5
4E
330
1F
100
AcDbEntity
  8
DEFAULT_1
 62
   250
100
AcDbSpline
210
0.0
220
0.0
230
1.0
 70
    24
 71
     3
 72
     8
 73
     4
 74
     0
 42
0.0000000001
 43
0.0000000001
 40
0.0
 40
0.0
 40
0.0
 40
0.0
 40
1.0
 40
1.0
 40
1.0
 40
1.0
 10
25.2408
 20
13.7957
 30
0.0
 10
25.2408
 20
13.7957
 30
0.0
 10
29.9233
 20
23.1607
 30
0.0
 10
29.9233
 20
23.1607
 30
0.0
  0
SPLINE
  5
4F
330
1F
100
AcDbEntity
  8
DEFAULT_1
 62
   250
100
AcDbSpline
210
0.0
220
0.0
230
1.0
 70
    24
 71
     3
 72
     8
 73
     4
 74
     0
 42
0.0000000001
 43
0.0000000001
 40
0.0
 40
0.0
 40
0.0
 40
0.0
 40
1.0
 40
1.0
 40
1.0
 40
1.0
 10
-15.9652
 20
13.7957
 30
0.0
 10
-15.9652
 20
13.7957
 30
0.0
 10
25.2408
 20
13.7957
 30
0.0
 10
25.2408
 20
13.7957
 30
0.0
  0
SPLINE
  5
50
330
1F
100
AcDbEntity
  8
DEFAULT_1
 62
   250
100
AcDbSpline
210
0.0
220
0.0
230
1.0
 70
    24
 71
     3
 72
     8
 73
     4
 74
     0
 42
0.0000000001
 43
0.0000000001
 40
0.0
 40
0.0
 40
0.0
 40
0.0
 40
1.0
 40
1.0
 40
1.0
 40
1.0
 10
30.8597
 20
12.6718
 30
0.0
 10
30.8597
 20
12.6718
 30
0.0
 10
25.2408
 20
13.7957
 30
0.0
 10
25.2408
 20
13.7957
 30
0.0
  0
SPLINE
  5
51
330
1F
100
AcDbEntity
  8
DEFAULT_1
 62
   250
100
AcDbSpline
210
0.0
220
0.0
230
1.0
 70
    24
 71
     3
 72
     8
 73
     4
 74
     0
 42
0.0000000001
 43
0.0000000001
 40
0.0
 40
0.0
 40
0.0
 40
0.0
 40
1.0
 40
1.0
 40
1.0
 40
1.0
 10
29.9233
 20
23.1607
 30
0.0
 10
29.9233
 20
23.1607
 30
0.0
 10
-20.6479
 20
23.1607
 30
0.0
 10
-20.6479
 20
23.1607
 30
0.0
  0
SPLINE
  5
52
330
1F
100
AcDbEntity
  8
DEFAULT_1
 62
   250
100
AcDbSpline
210
0.0
220
0.0
230
1.0
 70
    24
 71
     3
 72
     8
 73
     4
 74
     0
 42
0.0000000001
 43
0.0000000001
 40
0.0
 40
0.0
 40
0.0
 40
0.0
 40
1.0
 40
1.0
 40
1.0
 40
1.0
 10
29.9233
 20
23.1607
 30
0.0
 10
29.9233
 20
23.1607
 30
0.0
 10
29.9233
 20
32.5257
 30
0.0
 10
29.9233
 20
32.5257
 30
0.0
  0
SPLINE
  5
53
330
1F
100
AcDbEntity
  8
DEFAULT_1
 62
   250
100
AcDbSpline
210
0.0
220
0.0
230
1.0
 70
    24
 71
     3
 72
     8
 73
     4
 74
     0
 42
0.0000000001
 43
0.0000000001
 40
0.0
 40
0.0
 40
0.0
 40
0.0
 40
1.0
 40
1.0
 40
1.0
 40
1.0
 10
29.9233
 20
32.5257
 30
0.0
 10
29.9233
 20
32.5257
 30
0.0
 10
-20.6479
 20
32.5257
 30
0.0
 10
-20.6479
 20
32.5257
 30
0.0
  0
SPLINE
  5
54
330
1F
100
AcDbEntity
  8
DEFAULT_1
 62
   250
100
AcDbSpline
210
0.0
220
0.0
230
1.0
 70
    24
 71
     3
 72
     8
 73
     4
 74
     0
 42
0.0000000001
 43
0.0000000001
 40
0.0
 40
0.0
 40
0.0
 40
0.0
 40
1.0
 40
1.0
 40
1.0
 40
1.0
 10
30.8597
 20
-25.1627
 30
0.0
 10
30.8597
 20
-25.1627
 30
0.0
 10
29.9948
 20
-26.6612
 30
0.0
 10
29.9948
 20
-26.6612
 30
0.0
  0
SPLINE
  5
55
330
1F
100
AcDbEntity
  8
DEFAULT_1
 62
   250
100
AcDbSpline
210
0.0
220
0.0
230
1.0
 70
    24
 71
     3
 72
     8
 73
     4
 74
     0
 42
0.0000000001
 43
0.0000000001
 40
0.0
 40
0.0
 40
0.0
 40
0.0
 40
1.0
 40
1.0
 40
1.0
 40
1.0
 10
-10.3463
 20
12.6718
 30
0.0
 10
-10.3463
 20
12.6718
 30
0.0
 10
-10.3463
 20
-25.1627
 30
0.0
 10
-10.3463
 20
-25.1627
 30
0.0
  0
SPLINE
  5
56
330
1F
100
AcDbEntity
  8
DEFAULT_1
  6
NEW_LINE2
 62
   250
100
AcDbSpline
210
0.0
220
0.0
230
1.0
 70
    24
 71
     3
 72
     8
 73
     4
 74
     0
 42
0.0000000001
 43
0.0000000001
 40
0.0
 40
0.0
 40
0.0
 40
0.0
 40
1.0
 40
1.0
 40
1.0
 40
1.0
 10
10.2568
 20
-27.5886
 30
0.0
 10
10.2568
 20
-27.5886
 30
0.0
 10
10.2568
 20
15.3865
 30
0.0
 10
10.2568
 20
15.3865
 30
0.0
  0
SPLINE
  5
58
330
1F
100
AcDbEntity
  8
DEFAULT_1
 62
   250
100
AcDbSpline
210
0.0
220
0.0
230
1.0
 70
    24
 71
     3
 72
     8
 73
     4
 74
     0
 42
0.0000000001
 43
0.0000000001
 40
0.0
 40
0.0
 40
0.0
 40
0.0
 40
1.0
 40
1.0
 40
1.0
 40
1.0
 10
30.8597
 20
12.6718
 30
0.0
 10
30.8597
 20
12.6718
 30
0.0
 10
-10.3463
 20
12.6718
 30
0.0
 10
-10.3463
 20
12.6718
 30
0.0
  0
SPLINE
  5
59
330
1F
100
AcDbEntity
  8
DEFAULT_1
 62
   250
100
AcDbSpline
210
0.0
220
0.0
230
1.0
 70
    24
 71
     3
 72
     8
 73
     4
 74
     0
 42
0.0000000001
 43
0.0000000001
 40
0.0
 40
0.0
 40
0.0
 40
0.0
 40
1.0
 40
1.0
 40
1.0
 40
1.0
 10
30.8597
 20
12.6718
 30
0.0
 10
30.8597
 20
12.6718
 30
0.0
 10
30.8597
 20
-25.1627
 30
0.0
 10
30.8597
 20
-25.1627
 30
0.0
  0
SPLINE
  5
5A
330
1F
100
AcDbEntity
  8
DEFAULT_1
 62
   250
100
AcDbSpline
210
0.0
220
0.0
230
1.0
 70
    11
 71
     3
 72
    84
 73
    80
 74
     0
 42
0.0000000001
 43
0.0000000001
 40
0.0
 40
0.0
 40
0.0
 40
0.0
 40
0.0476190476190476
 40
0.0476190476190476
 40
0.0476190476190476
 40
0.0476190476190476
 40
0.0952380952380952
 40
0.0952380952380952
 40
0.0952380952380952
 40
0.0952380952380952
 40
0.1428571428571428
 40
0.1428571428571428
 40
0.1428571428571428
 40
0.1428571428571428
 40
0.1904761904761905
 40
0.1904761904761905
 40
0.1904761904761905
 40
0.1904761904761905
 40
0.2380952380952381
 40
0.2380952380952381
 40
0.2380952380952381
 40
0.2380952380952381
 40
0.2857142857142857
 40
0.2857142857142857
 40
0.2857142857142857
 40
0.2857142857142857
 40
0.3333333333333333
 40
0.3333333333333333
 40
0.3333333333333333
 40
0.3333333333333333
 40
0.3809523809523809
 40
0.3809523809523809
 40
0.3809523809523809
 40
0.3809523809523809
 40
0.4285714285714285
 40
0.4285714285714285
 40
0.4285714285714285
 40
0.4285714285714285
 40
0.4761904761904762
 40
0.4761904761904762
 40
0.4761904761904762
 40
0.4761904761904762
 40
0.5238095238095238
 40
0.5238095238095238
 40
0.5238095238095238
 40
0.5238095238095238
 40
0.5714285714285714
 40
0.5714285714285714
 40
0.5714285714285714
 40
0.5714285714285714
 40
0.6190476190476191
 40
0.6190476190476191
 40
0.6190476190476191
 40
0.6190476190476191
 40
0.6666666666666666
 40
0.6666666666666666
 40
0.6666666666666666
 40
0.6666666666666666
 40
0.7142857142857143
 40
0.7142857142857143
 40
0.7142857142857143
 40
0.7142857142857143
 40
0.7619047619047619
 40
0.7619047619047619
 40
0.7619047619047619
 40
0.7619047619047619
 40
0.8095238095238095
 40
0.8095238095238095
 40
0.8095238095238095
 40
0.8095238095238095
 40
0.8571428571428571
 40
0.8571428571428571
 40
0.8571428571428571
 40
0.8571428571428571
 40
0.9047619047619048
 40
0.9047619047619048
 40
0.9047619047619048
 40
0.9047619047619048
 40
1.0
 40
1.0
 40
1.0
 40
1.0
 10
7.6321
 20
-29.4247
 30
0.0
 10
7.6321
 20
-29.4247
 30
0.0
 10
8.0433
 20
-28.9643
 30
0.0
 10
8.0433
 20
-28.9643
 30
0.0
 10
8.0433
 20
-28.9643
 30
0.0
 10
8.0433
 20
-28.9643
 30
0.0
 10
8.2857
 20
-29.1699
 30
0.0
 10
8.2857
 20
-29.1699
 30
0.0
 10
8.2857
 20
-29.1699
 30
0.0
 10
8.2857
 20
-29.1699
 30
0.0
 10
7.8553
 20
-29.6547
 30
0.0
 10
7.8553
 20
-29.6547
 30
0.0
 10
7.8553
 20
-29.6547
 30
0.0
 10
7.9957
 20
-29.8637
 30
0.0
 10
8.09
 20
-30.0468
 30
0.0
 10
8.1394
 20
-30.203
 30
0.0
 10
8.1394
 20
-30.203
 30
0.0
 10
8.2047
 20
-30.4088
 30
0.0
 10
8.2372
 20
-30.6394
 30
0.0
 10
8.2372
 20
-30.8936
 30
0.0
 10
8.2372
 20
-30.8936
 30
0.0
 10
8.2372
 20
-31.2613
 30
0.0
 10
8.1629
 20
-31.589
 30
0.0
 10
8.014
 20
-31.8756
 30
0.0
 10
8.014
 20
-31.8756
 30
0.0
 10
7.8652
 20
-32.1634
 30
0.0
 10
7.6571
 20
-32.3805
 30
0.0
 10
7.3888
 20
-32.5277
 30
0.0
 10
7.3888
 20
-32.5277
 30
0.0
 10
7.1195
 20
-32.674
 30
0.0
 10
6.8346
 20
-32.7475
 30
0.0
 10
6.5329
 20
-32.7475
 30
0.0
 10
6.5329
 20
-32.7475
 30
0.0
 10
6.3072
 20
-32.7475
 30
0.0
 10
6.1032
 20
-32.7159
 30
0.0
 10
5.9201
 20
-32.6523
 30
0.0
 10
5.9201
 20
-32.6523
 30
0.0
 10
5.7797
 20
-32.603
 30
0.0
 10
5.6159
 20
-32.5094
 30
0.0
 10
5.4277
 20
-32.3706
 30
0.0
 10
5.4277
 20
-32.3706
 30
0.0
 10
5.4277
 20
-32.3706
 30
0.0
 10
5.0164
 20
-32.8312
 30
0.0
 10
5.0164
 20
-32.8312
 30
0.0
 10
5.0164
 20
-32.8312
 30
0.0
 10
5.0164
 20
-32.8312
 30
0.0
 10
4.774
 20
-32.6256
 30
0.0
 10
4.774
 20
-32.6256
 30
0.0
 10
4.774
 20
-32.6256
 30
0.0
 10
4.774
 20
-32.6256
 30
0.0
 10
5.2053
 20
-32.1433
 30
0.0
 10
5.2053
 20
-32.1433
 30
0.0
 10
5.2053
 20
-32.1433
 30
0.0
 10
5.0449
 20
-31.9
 30
0.0
 10
4.9379
 20
-31.6919
 30
0.0
 10
4.8844
 20
-31.5197
 30
0.0
 10
4.8844
 20
-31.5197
 30
0.0
 10
4.8309
 20
-31.3475
 30
0.0
 10
4.8033
 20
-31.1401
 30
0.0
 10
4.8033
 20
-30.8986
 30
0.0
 10
4.8033
 20
-30.8986
 30
0.0
 10
4.8033
 20
-30.53
 30
0.0
 10
4.8769
 20
-30.2014
 30
0.0
 10
5.0239
 20
-29.9129
 30
0.0
 10
5.0239
 20
-29.9129
 30
0.0
 10
5.171
 20
-29.6245
 30
0.0
 10
5.3767
 20
-29.4064
 30
0.0
 10
5.6425
 20
-29.2577
 30
0.0
 10
5.6425
 20
-29.2577
 30
0.0
 10
5.9075
 20
-29.1097
 30
0.0
 10
6.2027
 20
-29.0352
 30
0.0
 10
6.5277
 20
-29.0352
 30
0.0
 10
6.5277
 20
-29.0352
 30
0.0
 10
6.7469
 20
-29.0352
 30
0.0
 10
6.9383
 20
-29.0636
 30
0.0
 10
7.1021
 20
-29.1223
 30
0.0
 10
7.1021
 20
-29.1223
 30
0.0
 10
7.266
 20
-29.1799
 30
0.0
 10
7.4432
 20
-29.281
 30
0.0
 10
7.6321
 20
-29.4247
 30
0.0
  0
SPLINE
  5
5B
330
1F
100
AcDbEntity
  8
DEFAULT_1
 62
   250
100
AcDbSpline
210
0.0
220
0.0
230
1.0
 70
    11
 71
     3
 72
    32
 73
    28
 74
     0
 42
0.0000000001
 43
0.0000000001
 40
0.0
 40
0.0
 40
0.0
 40
0.0
 40
0.125
 40
0.125
 40
0.125
 40
0.125
 40
0.25
 40
0.25
 40
0.25
 40
0.25
 40
0.375
 40
0.375
 40
0.375
 40
0.375
 40
0.5
 40
0.5
 40
0.5
 40
0.5
 40
0.625
 40
0.625
 40
0.625
 40
0.625
 40
0.75
 40
0.75
 40
0.75
 40
0.75
 40
1.0
 40
1.0
 40
1.0
 40
1.0
 10
7.3387
 20
-29.7549
 30
0.0
 10
7.1848
 20
-29.6346
 30
0.0
 10
7.0502
 20
-29.5518
 30
0.0
 10
6.9358
 20
-29.5076
 30
0.0
 10
6.9358
 20
-29.5076
 30
0.0
 10
6.8204
 20
-29.464
 30
0.0
 10
6.685
 20
-29.4415
 30
0.0
 10
6.5302
 20
-29.4415
 30
0.0
 10
6.5302
 20
-29.4415
 30
0.0
 10
6.1725
 20
-29.4415
 30
0.0
 10
5.8775
 20
-29.5627
 30
0.0
 10
5.6434
 20
-29.8051
 30
0.0
 10
5.6434
 20
-29.8051
 30
0.0
 10
5.4101
 20
-30.0476
 30
0.0
 10
5.2931
 20
-30.4095
 30
0.0
 10
5.2931
 20
-30.8918
 30
0.0
 10
5.2931
 20
-30.8918
 30
0.0
 10
5.2931
 20
-31.0807
 30
0.0
 10
5.3114
 20
-31.2488
 30
0.0
 10
5.3475
 20
-31.396
 30
0.0
 10
5.3475
 20
-31.396
 30
0.0
 10
5.3735
 20
-31.5055
 30
0.0
 10
5.4277
 20
-31.64
 30
0.0
 10
5.5114
 20
-31.7996
 30
0.0
 10
5.5114
 20
-31.7996
 30
0.0
 10
5.5114
 20
-31.7996
 30
0.0
 10
7.3387
 20
-29.7549
 30
0.0
 10
7.3387
 20
-29.7549
 30
0.0
  0
SPLINE
  5
5C
330
1F
100
AcDbEntity
  8
DEFAULT_1
 62
   250
100
AcDbSpline
210
0.0
220
0.0
230
1.0
 70
    11
 71
     3
 72
    28
 73
    24
 74
     0
 42
0.0000000001
 43
0.0000000001
 40
0.0
 40
0.0
 40
0.0
 40
0.0
 40
0.1428571428571428
 40
0.1428571428571428
 40
0.1428571428571428
 40
0.1428571428571428
 40
0.2857142857142857
 40
0.2857142857142857
 40
0.2857142857142857
 40
0.2857142857142857
 40
0.4285714285714285
 40
0.4285714285714285
 40
0.4285714285714285
 40
0.4285714285714285
 40
0.5714285714285714
 40
0.5714285714285714
 40
0.5714285714285714
 40
0.5714285714285714
 40
0.7142857142857143
 40
0.7142857142857143
 40
0.7142857142857143
 40
0.7142857142857143
 40
1.0
 40
1.0
 40
1.0
 40
1.0
 10
7.5393
 20
-30.0075
 30
0.0
 10
7.5393
 20
-30.0075
 30
0.0
 10
5.7195
 20
-32.0447
 30
0.0
 10
5.7195
 20
-32.0447
 30
0.0
 10
5.7195
 20
-32.0447
 30
0.0
 10
5.8448
 20
-32.1474
 30
0.0
 10
5.961
 20
-32.2194
 30
0.0
 10
6.0673
 20
-32.2602
 30
0.0
 10
6.0673
 20
-32.2602
 30
0.0
 10
6.2059
 20
-32.3146
 30
0.0
 10
6.3564
 20
-32.3413
 30
0.0
 10
6.5178
 20
-32.3413
 30
0.0
 10
6.5178
 20
-32.3413
 30
0.0
 10
6.8739
 20
-32.3413
 30
0.0
 10
7.1673
 20
-32.216
 30
0.0
 10
7.3996
 20
-31.9643
 30
0.0
 10
7.3996
 20
-31.9643
 30
0.0
 10
7.6312
 20
-31.7127
 30
0.0
 10
7.7474
 20
-31.3599
 30
0.0
 10
7.7474
 20
-30.906
 30
0.0
 10
7.7474
 20
-30.906
 30
0.0
 10
7.7474
 20
-30.5668
 30
0.0
 10
7.6781
 20
-30.2666
 30
0.0
 10
7.5393
 20
-30.0075
 30
0.0
  0
SPLINE
  5
5D
330
1F
100
AcDbEntity
  8
DEFAULT_1
 62
   250
100
AcDbSpline
210
0.0
220
0.0
230
1.0
 70
    11
 71
     3
 72
    40
 73
    36
 74
     0
 42
0.0000000001
 43
0.0000000001
 40
0.0
 40
0.0
 40
0.0
 40
0.0
 40
0.1
 40
0.1
 40
0.1
 40
0.1
 40
0.2
 40
0.2
 40
0.2
 40
0.2
 40
0.3
 40
0.3
 40
0.3
 40
0.3
 40
0.4
 40
0.4
 40
0.4
 40
0.4
 40
0.5
 40
0.5
 40
0.5
 40
0.5
 40
0.6
 40
0.6
 40
0.6
 40
0.6
 40
0.7
 40
0.7
 40
0.7
 40
0.7
 40
0.8
 40
0.8
 40
0.8
 40
0.8
 40
1.0
 40
1.0
 40
1.0
 40
1.0
 10
10.3405
 20
-32.6866
 30
0.0
 10
10.3405
 20
-32.6866
 30
0.0
 10
9.8999
 20
-32.6866
 30
0.0
 10
9.8999
 20
-32.6866
 30
0.0
 10
9.8999
 20
-32.6866
 30
0.0
 10
9.8999
 20
-32.6866
 30
0.0
 10
9.8999
 20
-29.8779
 30
0.0
 10
9.8999
 20
-29.8779
 30
0.0
 10
9.8999
 20
-29.8779
 30
0.0
 10
9.7936
 20
-29.979
 30
0.0
 10
9.655
 20
-30.0802
 30
0.0
 10
9.4828
 20
-30.1813
 30
0.0
 10
9.4828
 20
-30.1813
 30
0.0
 10
9.3097
 20
-30.2824
 30
0.0
 10
9.1551
 20
-30.3585
 30
0.0
 10
9.0179
 20
-30.4088
 30
0.0
 10
9.0179
 20
-30.4088
 30
0.0
 10
9.0179
 20
-30.4088
 30
0.0
 10
9.0179
 20
-29.9831
 30
0.0
 10
9.0179
 20
-29.9831
 30
0.0
 10
9.0179
 20
-29.9831
 30
0.0
 10
9.2646
 20
-29.8671
 30
0.0
 10
9.4803
 20
-29.7265
 30
0.0
 10
9.665
 20
-29.5619
 30
0.0
 10
9.665
 20
-29.5619
 30
0.0
 10
9.8489
 20
-29.3963
 30
0.0
 10
9.9801
 20
-29.2367
 30
0.0
 10
10.057
 20
-29.0812
 30
0.0
 10
10.057
 20
-29.0812
 30
0.0
 10
10.057
 20
-29.0812
 30
0.0
 10
10.3405
 20
-29.0812
 30
0.0
 10
10.3405
 20
-29.0812
 30
0.0
 10
10.3405
 20
-29.0812
 30
0.0
 10
10.3405
 20
-29.0812
 30
0.0
 10
10.3405
 20
-32.6866
 30
0.0
 10
10.3405
 20
-32.6866
 30
0.0
  0
SPLINE
  5
5E
330
1F
100
AcDbEntity
  8
DEFAULT_1
 62
   250
100
AcDbSpline
210
0.0
220
0.0
230
1.0
 70
    11
 71
     3
 72
    40
 73
    36
 74
     0
 42
0.0000000001
 43
0.0000000001
 40
0.0
 40
0.0
 40
0.0
 40
0.0
 40
0.1
 40
0.1
 40
0.1
 40
0.1
 40
0.2
 40
0.2
 40
0.2
 40
0.2
 40
0.3
 40
0.3
 40
0.3
 40
0.3
 40
0.4
 40
0.4
 40
0.4
 40
0.4
 40
0.5
 40
0.5
 40
0.5
 40
0.5
 40
0.6
 40
0.6
 40
0.6
 40
0.6
 40
0.7
 40
0.7
 40
0.7
 40
0.7
 40
0.8
 40
0.8
 40
0.8
 40
0.8
 40
1.0
 40
1.0
 40
1.0
 40
1.0
 10
12.758
 20
-32.6866
 30
0.0
 10
12.758
 20
-32.6866
 30
0.0
 10
12.3174
 20
-32.6866
 30
0.0
 10
12.3174
 20
-32.6866
 30
0.0
 10
12.3174
 20
-32.6866
 30
0.0
 10
12.3174
 20
-32.6866
 30
0.0
 10
12.3174
 20
-29.8779
 30
0.0
 10
12.3174
 20
-29.8779
 30
0.0
 10
12.3174
 20
-29.8779
 30
0.0
 10
12.2111
 20
-29.979
 30
0.0
 10
12.0725
 20
-30.0802
 30
0.0
 10
11.9003
 20
-30.1813
 30
0.0
 10
11.9003
 20
-30.1813
 30
0.0
 10
11.7272
 20
-30.2824
 30
0.0
 10
11.5726
 20
-30.3585
 30
0.0
 10
11.4354
 20
-30.4088
 30
0.0
 10
11.4354
 20
-30.4088
 30
0.0
 10
11.4354
 20
-30.4088
 30
0.0
 10
11.4354
 20
-29.9831
 30
0.0
 10
11.4354
 20
-29.9831
 30
0.0
 10
11.4354
 20
-29.9831
 30
0.0
 10
11.6821
 20
-29.8671
 30
0.0
 10
11.8978
 20
-29.7265
 30
0.0
 10
12.0825
 20
-29.5619
 30
0.0
 10
12.0825
 20
-29.5619
 30
0.0
 10
12.2664
 20
-29.3963
 30
0.0
 10
12.3976
 20
-29.2367
 30
0.0
 10
12.4745
 20
-29.0812
 30
0.0
 10
12.4745
 20
-29.0812
 30
0.0
 10
12.4745
 20
-29.0812
 30
0.0
 10
12.758
 20
-29.0812
 30
0.0
 10
12.758
 20
-29.0812
 30
0.0
 10
12.758
 20
-29.0812
 30
0.0
 10
12.758
 20
-29.0812
 30
0.0
 10
12.758
 20
-32.6866
 30
0.0
 10
12.758
 20
-32.6866
 30
0.0
  0
SPLINE
  5
5F
330
1F
100
AcDbEntity
  8
DEFAULT_1
 62
   250
100
AcDbSpline
210
0.0
220
0.0
230
1.0
 70
    11
 71
     3
 72
    52
 73
    48
 74
     0
 42
0.0000000001
 43
0.0000000001
 40
0.0
 40
0.0
 40
0.0
 40
0.0
 40
0.0769230769230769
 40
0.0769230769230769
 40
0.0769230769230769
 40
0.0769230769230769
 40
0.1538461538461539
 40
0.1538461538461539
 40
0.1538461538461539
 40
0.1538461538461539
 40
0.2307692307692308
 40
0.2307692307692308
 40
0.2307692307692308
 40
0.2307692307692308
 40
0.3076923076923077
 40
0.3076923076923077
 40
0.3076923076923077
 40
0.3076923076923077
 40
0.3846153846153846
 40
0.3846153846153846
 40
0.3846153846153846
 40
0.3846153846153846
 40
0.4615384615384616
 40
0.4615384615384616
 40
0.4615384615384616
 40
0.4615384615384616
 40
0.5384615384615384
 40
0.5384615384615384
 40
0.5384615384615384
 40
0.5384615384615384
 40
0.6153846153846154
 40
0.6153846153846154
 40
0.6153846153846154
 40
0.6153846153846154
 40
0.6923076923076923
 40
0.6923076923076923
 40
0.6923076923076923
 40
0.6923076923076923
 40
0.7692307692307693
 40
0.7692307692307693
 40
0.7692307692307693
 40
0.7692307692307693
 40
0.8461538461538461
 40
0.8461538461538461
 40
0.8461538461538461
 40
0.8461538461538461
 40
1.0
 40
1.0
 40
1.0
 40
1.0
 10
13.8872
 20
-30.9162
 30
0.0
 10
13.8872
 20
-30.4914
 30
0.0
 10
13.9307
 20
-30.1495
 30
0.0
 10
14.0185
 20
-29.8913
 30
0.0
 10
14.0185
 20
-29.8913
 30
0.0
 10
14.1054
 20
-29.6321
 30
0.0
 10
14.2359
 20
-29.4324
 30
0.0
 10
14.4081
 20
-29.2918
 30
0.0
 10
14.4081
 20
-29.2918
 30
0.0
 10
14.5803
 20
-29.1514
 30
0.0
 10
14.7967
 20
-29.0812
 30
0.0
 10
15.0574
 20
-29.0812
 30
0.0
 10
15.0574
 20
-29.0812
 30
0.0
 10
15.2506
 20
-29.0812
 30
0.0
 10
15.4195
 20
-29.1205
 30
0.0
 10
15.5648
 20
-29.1983
 30
0.0
 10
15.5648
 20
-29.1983
 30
0.0
 10
15.7104
 20
-29.2751
 30
0.0
 10
15.83
 20
-29.3873
 30
0.0
 10
15.9252
 20
-29.5335
 30
0.0
 10
15.9252
 20
-29.5335
 30
0.0
 10
16.0196
 20
-29.6798
 30
0.0
 10
16.0941
 20
-29.8578
 30
0.0
 10
16.1476
 20
-30.0676
 30
0.0
 10
16.1476
 20
-30.0676
 30
0.0
 10
16.2019
 20
-30.2774
 30
0.0
 10
16.2286
 20
-30.56
 30
0.0
 10
16.2286
 20
-30.9162
 30
0.0
 10
16.2286
 20
-30.9162
 30
0.0
 10
16.2286
 20
-31.3373
 30
0.0
 10
16.1852
 20
-31.6768
 30
0.0
 10
16.099
 20
-31.9359
 30
0.0
 10
16.099
 20
-31.9359
 30
0.0
 10
16.0121
 20
-32.195
 30
0.0
 10
15.8826
 20
-32.3948
 30
0.0
 10
15.7104
 20
-32.536
 30
0.0
 10
15.7104
 20
-32.536
 30
0.0
 10
15.5382
 20
-32.6773
 30
0.0
 10
15.3208
 20
-32.7475
 30
0.0
 10
15.0574
 20
-32.7475
 30
0.0
 10
15.0574
 20
-32.7475
 30
0.0
 10
14.7114
 20
-32.7475
 30
0.0
 10
14.4397
 20
-32.6238
 30
0.0
 10
14.2424
 20
-32.3756
 30
0.0
 10
14.2424
 20
-32.3756
 30
0.0
 10
14.0059
 20
-32.0772
 30
0.0
 10
13.8872
 20
-31.5899
 30
0.0
 10
13.8872
 20
-30.9162
 30
0.0
  0
SPLINE
  5
60
330
1F
100
AcDbEntity
  8
DEFAULT_1
 62
   250
100
AcDbSpline
210
0.0
220
0.0
230
1.0
 70
    11
 71
     3
 72
    36
 73
    32
 74
     0
 42
0.0000000001
 43
0.0000000001
 40
0.0
 40
0.0
 40
0.0
 40
0.0
 40
0.1111111111111111
 40
0.1111111111111111
 40
0.1111111111111111
 40
0.1111111111111111
 40
0.2222222222222222
 40
0.2222222222222222
 40
0.2222222222222222
 40
0.2222222222222222
 40
0.3333333333333333
 40
0.3333333333333333
 40
0.3333333333333333
 40
0.3333333333333333
 40
0.4444444444444444
 40
0.4444444444444444
 40
0.4444444444444444
 40
0.4444444444444444
 40
0.5555555555555556
 40
0.5555555555555556
 40
0.5555555555555556
 40
0.5555555555555556
 40
0.6666666666666666
 40
0.6666666666666666
 40
0.6666666666666666
 40
0.6666666666666666
 40
0.7777777777777778
 40
0.7777777777777778
 40
0.7777777777777778
 40
0.7777777777777778
 40
1.0
 40
1.0
 40
1.0
 40
1.0
 10
14.3404
 20
-30.9162
 30
0.0
 10
14.3404
 20
-31.5055
 30
0.0
 10
14.4097
 20
-31.8975
 30
0.0
 10
14.5476
 20
-32.093
 30
0.0
 10
14.5476
 20
-32.093
 30
0.0
 10
14.6855
 20
-32.2878
 30
0.0
 10
14.8552
 20
-32.3857
 30
0.0
 10
15.0574
 20
-32.3857
 30
0.0
 10
15.0574
 20
-32.3857
 30
0.0
 10
15.2606
 20
-32.3857
 30
0.0
 10
15.4303
 20
-32.2871
 30
0.0
 10
15.5682
 20
-32.0914
 30
0.0
 10
15.5682
 20
-32.0914
 30
0.0
 10
15.7061
 20
-31.8957
 30
0.0
 10
15.7756
 20
-31.5037
 30
0.0
 10
15.7756
 20
-30.9162
 30
0.0
 10
15.7756
 20
-30.9162
 30
0.0
 10
15.7756
 20
-30.3251
 30
0.0
 10
15.7061
 20
-29.9321
 30
0.0
 10
15.5682
 20
-29.7382
 30
0.0
 10
15.5682
 20
-29.7382
 30
0.0
 10
15.4303
 20
-29.5435
 30
0.0
 10
15.259
 20
-29.4466
 30
0.0
 10
15.0534
 20
-29.4466
 30
0.0
 10
15.0534
 20
-29.4466
 30
0.0
 10
14.8502
 20
-29.4466
 30
0.0
 10
14.6889
 20
-29.5326
 30
0.0
 10
14.5677
 20
-29.7039
 30
0.0
 10
14.5677
 20
-29.7039
 30
0.0
 10
14.4164
 20
-29.9222
 30
0.0
 10
14.3404
 20
-30.3268
 30
0.0
 10
14.3404
 20
-30.9162
 30
0.0
  0
SPLINE
  5
61
330
1F
100
AcDbEntity
  8
DEFAULT_1
 62
   250
100
AcDbSpline
210
0.0
220
0.0
230
1.0
 70
    11
 71
     3
 72
    20
 73
    16
 74
     0
 42
0.0000000001
 43
0.0000000001
 40
0.0
 40
0.0
 40
0.0
 40
0.0
 40
0.2
 40
0.2
 40
0.2
 40
0.2
 40
0.4
 40
0.4
 40
0.4
 40
0.4
 40
0.6
 40
0.6
 40
0.6
 40
0.6
 40
1.0
 40
1.0
 40
1.0
 40
1.0
 10
-10.0659
 20
-33.91
 30
0.0
 10
-10.0659
 20
-33.91
 30
0.0
 10
-4.7346
 20
-34.6884
 30
0.0
 10
-4.7346
 20
-34.6884
 30
0.0
 10
-4.7346
 20
-34.6884
 30
0.0
 10
-4.7346
 20
-34.6884
 30
0.0
 10
-4.7346
 20
-32.97
 30
0.0
 10
-4.7346
 20
-32.97
 30
0.0
 10
-4.7346
 20
-32.97
 30
0.0
 10
-4.7346
 20
-32.97
 30
0.0
 10
-10.0659
 20
-33.9075
 30
0.0
 10
-10.0659
 20
-33.9075
 30
0.0
 10
-10.0659
 20
-33.9075
 30
0.0
 10
-10.0659
 20
-33.9075
 30
0.0
 10
-10.0659
 20
-33.91
 30
0.0
 10
-10.0659
 20
-33.91
 30
0.0
  0
SPLINE
  5
62
330
1F
100
AcDbEntity
  8
DEFAULT_1
 62
   250
100
AcDbSpline
210
0.0
220
0.0
230
1.0
 70
    11
 71
     3
 72
    20
 73
    16
 74
     0
 42
0.0000000001
 43
0.0000000001
 40
0.0
 40
0.0
 40
0.0
 40
0.0
 40
0.2
 40
0.2
 40
0.2
 40
0.2
 40
0.4
 40
0.4
 40
0.4
 40
0.4
 40
0.6
 40
0.6
 40
0.6
 40
0.6
 40
1.0
 40
1.0
 40
1.0
 40
1.0
 10
30.8606
 20
-33.848
 30
0.0
 10
30.8606
 20
-33.848
 30
0.0
 10
25.5294
 20
-33.0697
 30
0.0
 10
25.5294
 20
-33.0697
 30
0.0
 10
25.5294
 20
-33.0697
 30
0.0
 10
25.5294
 20
-33.0697
 30
0.0
 10
25.5294
 20
-34.7879
 30
0.0
 10
25.5294
 20
-34.7879
 30
0.0
 10
25.5294
 20
-34.7879
 30
0.0
 10
25.5294
 20
-34.7879
 30
0.0
 10
30.8606
 20
-33.8504
 30
0.0
 10
30.8606
 20
-33.8504
 30
0.0
 10
30.8606
 20
-33.8504
 30
0.0
 10
30.8606
 20
-33.8504
 30
0.0
 10
30.8606
 20
-33.848
 30
0.0
 10
30.8606
 20
-33.848
 30
0.0
  0
SPLINE
  5
63
330
1F
100
AcDbEntity
  8
DEFAULT_1
 62
   250
100
AcDbSpline
210
0.0
220
0.0
230
1.0
 70
    24
 71
     3
 72
     8
 73
     4
 74
     0
 42
0.0000000001
 43
0.0000000001
 40
0.0
 40
0.0
 40
0.0
 40
0.0
 40
1.0
 40
1.0
 40
1.0
 40
1.0
 10
28.0932
 20
-33.8689
 30
0.0
 10
28.0932
 20
-33.8689
 30
0.0
 10
-9.0343
 20
-33.8689
 30
0.0
 10
-9.0343
 20
-33.8689
 30
0.0
  0
SPLINE
  5
64
330
1F
100
AcDbEntity
  8
DEFAULT_1
 62
   250
100
AcDbSpline
210
0.0
220
0.0
230
1.0
 70
    11
 71
     3
 72
    40
 73
    36
 74
     0
 42
0.0000000001
 43
0.0000000001
 40
0.0
 40
0.0
 40
0.0
 40
0.0
 40
0.1
 40
0.1
 40
0.1
 40
0.1
 40
0.2
 40
0.2
 40
0.2
 40
0.2
 40
0.3
 40
0.3
 40
0.3
 40
0.3
 40
0.4
 40
0.4
 40
0.4
 40
0.4
 40
0.5
 40
0.5
 40
0.5
 40
0.5
 40
0.6
 40
0.6
 40
0.6
 40
0.6
 40
0.7
 40
0.7
 40
0.7
 40
0.7
 40
0.8
 40
0.8
 40
0.8
 40
0.8
 40
1.0
 40
1.0
 40
1.0
 40
1.0
 10
-18.2272
 20
-9.5302
 30
0.0
 10
-18.2272
 20
-9.5302
 30
0.0
 10
-18.2272
 20
-9.9708
 30
0.0
 10
-18.2272
 20
-9.9708
 30
0.0
 10
-18.2272
 20
-9.9708
 30
0.0
 10
-18.2272
 20
-9.9708
 30
0.0
 10
-21.0359
 20
-9.9708
 30
0.0
 10
-21.0359
 20
-9.9708
 30
0.0
 10
-21.0359
 20
-9.9708
 30
0.0
 10
-20.9347
 20
-10.077
 30
0.0
 10
-20.8336
 20
-10.2156
 30
0.0
 10
-20.7325
 20
-10.3879
 30
0.0
 10
-20.7325
 20
-10.3879
 30
0.0
 10
-20.6314
 20
-10.561
 30
0.0
 10
-20.5553
 20
-10.7156
 30
0.0
 10
-20.505
 20
-10.8528
 30
0.0
 10
-20.505
 20
-10.8528
 30
0.0
 10
-20.505
 20
-10.8528
 30
0.0
 10
-20.9306
 20
-10.8528
 30
0.0
 10
-20.9306
 20
-10.8528
 30
0.0
 10
-20.9306
 20
-10.8528
 30
0.0
 10
-21.0467
 20
-10.6061
 30
0.0
 10
-21.1873
 20
-10.3903
 30
0.0
 10
-21.3518
 20
-10.2057
 30
0.0
 10
-21.3518
 20
-10.2057
 30
0.0
 10
-21.5175
 20
-10.0218
 30
0.0
 10
-21.6771
 20
-9.8906
 30
0.0
 10
-21.8326
 20
-9.8137
 30
0.0
 10
-21.8326
 20
-9.8137
 30
0.0
 10
-21.8326
 20
-9.8137
 30
0.0
 10
-21.8326
 20
-9.5302
 30
0.0
 10
-21.8326
 20
-9.5302
 30
0.0
 10
-21.8326
 20
-9.5302
 30
0.0
 10
-21.8326
 20
-9.5302
 30
0.0
 10
-18.2272
 20
-9.5302
 30
0.0
 10
-18.2272
 20
-9.5302
 30
0.0
  0
SPLINE
  5
65
330
1F
100
AcDbEntity
  8
DEFAULT_1
 62
   250
100
AcDbSpline
210
0.0
220
0.0
230
1.0
 70
    11
 71
     3
 72
    52
 73
    48
 74
     0
 42
0.0000000001
 43
0.0000000001
 40
0.0
 40
0.0
 40
0.0
 40
0.0
 40
0.0769230769230769
 40
0.0769230769230769
 40
0.0769230769230769
 40
0.0769230769230769
 40
0.1538461538461539
 40
0.1538461538461539
 40
0.1538461538461539
 40
0.1538461538461539
 40
0.2307692307692308
 40
0.2307692307692308
 40
0.2307692307692308
 40
0.2307692307692308
 40
0.3076923076923077
 40
0.3076923076923077
 40
0.3076923076923077
 40
0.3076923076923077
 40
0.3846153846153846
 40
0.3846153846153846
 40
0.3846153846153846
 40
0.3846153846153846
 40
0.4615384615384616
 40
0.4615384615384616
 40
0.4615384615384616
 40
0.4615384615384616
 40
0.5384615384615384
 40
0.5384615384615384
 40
0.5384615384615384
 40
0.5384615384615384
 40
0.6153846153846154
 40
0.6153846153846154
 40
0.6153846153846154
 40
0.6153846153846154
 40
0.6923076923076923
 40
0.6923076923076923
 40
0.6923076923076923
 40
0.6923076923076923
 40
0.7692307692307693
 40
0.7692307692307693
 40
0.7692307692307693
 40
0.7692307692307693
 40
0.8461538461538461
 40
0.8461538461538461
 40
0.8461538461538461
 40
0.8461538461538461
 40
1.0
 40
1.0
 40
1.0
 40
1.0
 10
-19.9976
 20
-8.401
 30
0.0
 10
-20.4224
 20
-8.401
 30
0.0
 10
-20.7643
 20
-8.3574
 30
0.0
 10
-21.0225
 20
-8.2696
 30
0.0
 10
-21.0225
 20
-8.2696
 30
0.0
 10
-21.2816
 20
-8.1827
 30
0.0
 10
-21.4814
 20
-8.0523
 30
0.0
 10
-21.622
 20
-7.8801
 30
0.0
 10
-21.622
 20
-7.8801
 30
0.0
 10
-21.7624
 20
-7.7079
 30
0.0
 10
-21.8326
 20
-7.4914
 30
0.0
 10
-21.8326
 20
-7.2307
 30
0.0
 10
-21.8326
 20
-7.2307
 30
0.0
 10
-21.8326
 20
-7.0375
 30
0.0
 10
-21.7933
 20
-6.8687
 30
0.0
 10
-21.7154
 20
-6.7233
 30
0.0
 10
-21.7154
 20
-6.7233
 30
0.0
 10
-21.6387
 20
-6.5778
 30
0.0
 10
-21.5265
 20
-6.4582
 30
0.0
 10
-21.3803
 20
-6.3629
 30
0.0
 10
-21.3803
 20
-6.3629
 30
0.0
 10
-21.234
 20
-6.2685
 30
0.0
 10
-21.0559
 20
-6.1941
 30
0.0
 10
-20.8462
 20
-6.1406
 30
0.0
 10
-20.8462
 20
-6.1406
 30
0.0
 10
-20.6363
 20
-6.0862
 30
0.0
 10
-20.3538
 20
-6.0596
 30
0.0
 10
-19.9976
 20
-6.0596
 30
0.0
 10
-19.9976
 20
-6.0596
 30
0.0
 10
-19.5764
 20
-6.0596
 30
0.0
 10
-19.237
 20
-6.1029
 30
0.0
 10
-18.9779
 20
-6.1891
 30
0.0
 10
-18.9779
 20
-6.1891
 30
0.0
 10
-18.7188
 20
-6.276
 30
0.0
 10
-18.519
 20
-6.4056
 30
0.0
 10
-18.3777
 20
-6.5778
 30
0.0
 10
-18.3777
 20
-6.5778
 30
0.0
 10
-18.2365
 20
-6.75
 30
0.0
 10
-18.1663
 20
-6.9673
 30
0.0
 10
-18.1663
 20
-7.2307
 30
0.0
 10
-18.1663
 20
-7.2307
 30
0.0
 10
-18.1663
 20
-7.5767
 30
0.0
 10
-18.2899
 20
-7.8485
 30
0.0
 10
-18.5382
 20
-8.0457
 30
0.0
 10
-18.5382
 20
-8.0457
 30
0.0
 10
-18.8366
 20
-8.2823
 30
0.0
 10
-19.3239
 20
-8.401
 30
0.0
 10
-19.9976
 20
-8.401
 30
0.0
  0
SPLINE
  5
66
330
1F
100
AcDbEntity
  8
DEFAULT_1
 62
   250
100
AcDbSpline
210
0.0
220
0.0
230
1.0
 70
    11
 71
     3
 72
    36
 73
    32
 74
     0
 42
0.0000000001
 43
0.0000000001
 40
0.0
 40
0.0
 40
0.0
 40
0.0
 40
0.1111111111111111
 40
0.1111111111111111
 40
0.1111111111111111
 40
0.1111111111111111
 40
0.2222222222222222
 40
0.2222222222222222
 40
0.2222222222222222
 40
0.2222222222222222
 40
0.3333333333333333
 40
0.3333333333333333
 40
0.3333333333333333
 40
0.3333333333333333
 40
0.4444444444444444
 40
0.4444444444444444
 40
0.4444444444444444
 40
0.4444444444444444
 40
0.5555555555555556
 40
0.5555555555555556
 40
0.5555555555555556
 40
0.5555555555555556
 40
0.6666666666666666
 40
0.6666666666666666
 40
0.6666666666666666
 40
0.6666666666666666
 40
0.7777777777777778
 40
0.7777777777777778
 40
0.7777777777777778
 40
0.7777777777777778
 40
1.0
 40
1.0
 40
1.0
 40
1.0
 10
-19.9976
 20
-7.9478
 30
0.0
 10
-19.4083
 20
-7.9478
 30
0.0
 10
-19.0163
 20
-7.8785
 30
0.0
 10
-18.8208
 20
-7.7406
 30
0.0
 10
-18.8208
 20
-7.7406
 30
0.0
 10
-18.626
 20
-7.6027
 30
0.0
 10
-18.5281
 20
-7.433
 30
0.0
 10
-18.5281
 20
-7.2307
 30
0.0
 10
-18.5281
 20
-7.2307
 30
0.0
 10
-18.5281
 20
-7.0276
 30
0.0
 10
-18.6267
 20
-6.8579
 30
0.0
 10
-18.8224
 20
-6.7199
 30
0.0
 10
-18.8224
 20
-6.7199
 30
0.0
 10
-19.0181
 20
-6.582
 30
0.0
 10
-19.4101
 20
-6.5126
 30
0.0
 10
-19.9976
 20
-6.5126
 30
0.0
 10
-19.9976
 20
-6.5126
 30
0.0
 10
-20.5887
 20
-6.5126
 30
0.0
 10
-20.9817
 20
-6.582
 30
0.0
 10
-21.1755
 20
-6.7199
 30
0.0
 10
-21.1755
 20
-6.7199
 30
0.0
 10
-21.3703
 20
-6.8579
 30
0.0
 10
-21.4672
 20
-7.0292
 30
0.0
 10
-21.4672
 20
-7.2348
 30
0.0
 10
-21.4672
 20
-7.2348
 30
0.0
 10
-21.4672
 20
-7.4379
 30
0.0
 10
-21.3812
 20
-7.5993
 30
0.0
 10
-21.2098
 20
-7.7205
 30
0.0
 10
-21.2098
 20
-7.7205
 30
0.0
 10
-20.9916
 20
-7.8717
 30
0.0
 10
-20.5869
 20
-7.9478
 30
0.0
 10
-19.9976
 20
-7.9478
 30
0.0
  0
SPLINE
  5
67
330
1F
100
AcDbEntity
  8
DEFAULT_1
 62
   250
100
AcDbSpline
210
0.0
220
0.0
230
1.0
 70
    11
 71
     3
 72
    92
 73
    88
 74
     0
 42
0.0000000001
 43
0.0000000001
 40
0.0
 40
0.0
 40
0.0
 40
0.0
 40
0.0434782608695652
 40
0.0434782608695652
 40
0.0434782608695652
 40
0.0434782608695652
 40
0.0869565217391304
 40
0.0869565217391304
 40
0.0869565217391304
 40
0.0869565217391304
 40
0.1304347826086956
 40
0.1304347826086956
 40
0.1304347826086956
 40
0.1304347826086956
 40
0.1739130434782609
 40
0.1739130434782609
 40
0.1739130434782609
 40
0.1739130434782609
 40
0.2173913043478261
 40
0.2173913043478261
 40
0.2173913043478261
 40
0.2173913043478261
 40
0.2608695652173913
 40
0.2608695652173913
 40
0.2608695652173913
 40
0.2608695652173913
 40
0.3043478260869565
 40
0.3043478260869565
 40
0.3043478260869565
 40
0.3043478260869565
 40
0.3478260869565217
 40
0.3478260869565217
 40
0.3478260869565217
 40
0.3478260869565217
 40
0.391304347826087
 40
0.391304347826087
 40
0.391304347826087
 40
0.391304347826087
 40
0.4347826086956522
 40
0.4347826086956522
 40
0.4347826086956522
 40
0.4347826086956522
 40
0.4782608695652174
 40
0.4782608695652174
 40
0.4782608695652174
 40
0.4782608695652174
 40
0.5217391304347826
 40
0.5217391304347826
 40
0.5217391304347826
 40
0.5217391304347826
 40
0.5652173913043478
 40
0.5652173913043478
 40
0.5652173913043478
 40
0.5652173913043478
 40
0.6086956521739131
 40
0.6086956521739131
 40
0.6086956521739131
 40
0.6086956521739131
 40
0.6521739130434783
 40
0.6521739130434783
 40
0.6521739130434783
 40
0.6521739130434783
 40
0.6956521739130435
 40
0.6956521739130435
 40
0.6956521739130435
 40
0.6956521739130435
 40
0.7391304347826086
 40
0.7391304347826086
 40
0.7391304347826086
 40
0.7391304347826086
 40
0.782608695652174
 40
0.782608695652174
 40
0.782608695652174
 40
0.782608695652174
 40
0.8260869565217391
 40
0.8260869565217391
 40
0.8260869565217391
 40
0.8260869565217391
 40
0.8695652173913043
 40
0.8695652173913043
 40
0.8695652173913043
 40
0.8695652173913043
 40
0.9130434782608695
 40
0.9130434782608695
 40
0.9130434782608695
 40
0.9130434782608695
 40
1.0
 40
1.0
 40
1.0
 40
1.0
 10
-19.1677
 20
-5.6115
 30
0.0
 10
-19.1677
 20
-5.6115
 30
0.0
 10
-19.207
 20
-5.1484
 30
0.0
 10
-19.207
 20
-5.1484
 30
0.0
 10
-19.207
 20
-5.1484
 30
0.0
 10
-18.9813
 20
-5.1141
 30
0.0
 10
-18.8124
 20
-5.0347
 30
0.0
 10
-18.6987
 20
-4.9101
 30
0.0
 10
-18.6987
 20
-4.9101
 30
0.0
 10
-18.585
 20
-4.7848
 30
0.0
 10
-18.5281
 20
-4.6343
 30
0.0
 10
-18.5281
 20
-4.458
 30
0.0
 10
-18.5281
 20
-4.458
 30
0.0
 10
-18.5281
 20
-4.2456
 30
0.0
 10
-18.6084
 20
-4.0659
 30
0.0
 10
-18.768
 20
-3.9197
 30
0.0
 10
-18.768
 20
-3.9197
 30
0.0
 10
-18.9285
 20
-3.7725
 30
0.0
 10
-19.1409
 20
-3.6989
 30
0.0
 10
-19.4049
 20
-3.6989
 30
0.0
 10
-19.4049
 20
-3.6989
 30
0.0
 10
-19.6566
 20
-3.6989
 30
0.0
 10
-19.8547
 20
-3.7691
 30
0.0
 10
-20.0001
 20
-3.9104
 30
0.0
 10
-20.0001
 20
-3.9104
 30
0.0
 10
-20.1457
 20
-4.0517
 30
0.0
 10
-20.2184
 20
-4.2364
 30
0.0
 10
-20.2184
 20
-4.4654
 30
0.0
 10
-20.2184
 20
-4.4654
 30
0.0
 10
-20.2184
 20
-4.6076
 30
0.0
 10
-20.1858
 20
-4.7354
 30
0.0
 10
-20.1215
 20
-4.85
 30
0.0
 10
-20.1215
 20
-4.85
 30
0.0
 10
-20.057
 20
-4.9645
 30
0.0
 10
-19.9735
 20
-5.0539
 30
0.0
 10
-19.8706
 20
-5.1191
 30
0.0
 10
-19.8706
 20
-5.1191
 30
0.0
 10
-19.8706
 20
-5.1191
 30
0.0
 10
-19.9241
 20
-5.533
 30
0.0
 10
-19.9241
 20
-5.533
 30
0.0
 10
-19.9241
 20
-5.533
 30
0.0
 10
-19.9241
 20
-5.533
 30
0.0
 10
-21.7682
 20
-5.1852
 30
0.0
 10
-21.7682
 20
-5.1852
 30
0.0
 10
-21.7682
 20
-5.1852
 30
0.0
 10
-21.7682
 20
-5.1852
 30
0.0
 10
-21.7682
 20
-3.3997
 30
0.0
 10
-21.7682
 20
-3.3997
 30
0.0
 10
-21.7682
 20
-3.3997
 30
0.0
 10
-21.7682
 20
-3.3997
 30
0.0
 10
-21.3469
 20
-3.3997
 30
0.0
 10
-21.3469
 20
-3.3997
 30
0.0
 10
-21.3469
 20
-3.3997
 30
0.0
 10
-21.3469
 20
-3.3997
 30
0.0
 10
-21.3469
 20
-4.8324
 30
0.0
 10
-21.3469
 20
-4.8324
 30
0.0
 10
-21.3469
 20
-4.8324
 30
0.0
 10
-21.3469
 20
-4.8324
 30
0.0
 10
-20.3822
 20
-5.0263
 30
0.0
 10
-20.3822
 20
-5.0263
 30
0.0
 10
-20.3822
 20
-5.0263
 30
0.0
 10
-20.5327
 20
-4.8107
 30
0.0
 10
-20.6079
 20
-4.5841
 30
0.0
 10
-20.6079
 20
-4.3476
 30
0.0
 10
-20.6079
 20
-4.3476
 30
0.0
 10
-20.6079
 20
-4.0341
 30
0.0
 10
-20.4993
 20
-3.77
 30
0.0
 10
-20.282
 20
-3.5543
 30
0.0
 10
-20.282
 20
-3.5543
 30
0.0
 10
-20.0646
 20
-3.3387
 30
0.0
 10
-19.7854
 20
-3.2308
 30
0.0
 10
-19.4444
 20
-3.2308
 30
0.0
 10
-19.4444
 20
-3.2308
 30
0.0
 10
-19.1192
 20
-3.2308
 30
0.0
 10
-18.8382
 20
-3.3261
 30
0.0
 10
-18.6017
 20
-3.515
 30
0.0
 10
-18.6017
 20
-3.515
 30
0.0
 10
-18.3116
 20
-3.7457
 30
0.0
 10
-18.1663
 20
-4.0601
 30
0.0
 10
-18.1663
 20
-4.458
 30
0.0
 10
-18.1663
 20
-4.458
 30
0.0
 10
-18.1663
 20
-4.7848
 30
0.0
 10
-18.2572
 20
-5.0514
 30
0.0
 10
-18.4403
 20
-5.2579
 30
0.0
 10
-18.4403
 20
-5.2579
 30
0.0
 10
-18.6235
 20
-5.4644
 30
0.0
 10
-18.8659
 20
-5.5822
 30
0.0
 10
-19.1677
 20
-5.6115
 30
0.0
  0
SPLINE
  5
68
330
1F
100
AcDbEntity
  8
DEFAULT_1
 62
   250
100
AcDbSpline
210
0.0
220
0.0
230
1.0
 70
    11
 71
     3
 72
    20
 73
    16
 74
     0
 42
0.0000000001
 43
0.0000000001
 40
0.0
 40
0.0
 40
0.0
 40
0.0
 40
0.2
 40
0.2
 40
0.2
 40
0.2
 40
0.4
 40
0.4
 40
0.4
 40
0.4
 40
0.6
 40
0.6
 40
0.6
 40
0.6
 40
1.0
 40
1.0
 40
1.0
 40
1.0
 10
-17.4884
 20
-26.5377
 30
0.0
 10
-17.4884
 20
-26.5377
 30
0.0
 10
-16.7102
 20
-21.2066
 30
0.0
 10
-16.7102
 20
-21.2066
 30
0.0
 10
-16.7102
 20
-21.2066
 30
0.0
 10
-16.7102
 20
-21.2066
 30
0.0
 10
-18.4282
 20
-21.2066
 30
0.0
 10
-18.4282
 20
-21.2066
 30
0.0
 10
-18.4282
 20
-21.2066
 30
0.0
 10
-18.4282
 20
-21.2066
 30
0.0
 10
-17.4909
 20
-26.5377
 30
0.0
 10
-17.4909
 20
-26.5377
 30
0.0
 10
-17.4909
 20
-26.5377
 30
0.0
 10
-17.4909
 20
-26.5377
 30
0.0
 10
-17.4884
 20
-26.5377
 30
0.0
 10
-17.4884
 20
-26.5377
 30
0.0
  0
SPLINE
  5
69
330
1F
100
AcDbEntity
  8
DEFAULT_1
 62
   250
100
AcDbSpline
210
0.0
220
0.0
230
1.0
 70
    11
 71
     3
 72
    20
 73
    16
 74
     0
 42
0.0000000001
 43
0.0000000001
 40
0.0
 40
0.0
 40
0.0
 40
0.0
 40
0.2
 40
0.2
 40
0.2
 40
0.2
 40
0.4
 40
0.4
 40
0.4
 40
0.4
 40
0.6
 40
0.6
 40
0.6
 40
0.6
 40
1.0
 40
1.0
 40
1.0
 40
1.0
 10
-17.562
 20
12.3159
 30
0.0
 10
-17.562
 20
12.3159
 30
0.0
 10
-18.3404
 20
6.9844
 30
0.0
 10
-18.3404
 20
6.9844
 30
0.0
 10
-18.3404
 20
6.9844
 30
0.0
 10
-18.3404
 20
6.9844
 30
0.0
 10
-16.6222
 20
6.9844
 30
0.0
 10
-16.6222
 20
6.9844
 30
0.0
 10
-16.6222
 20
6.9844
 30
0.0
 10
-16.6222
 20
6.9844
 30
0.0
 10
-17.5597
 20
12.3159
 30
0.0
 10
-17.5597
 20
12.3159
 30
0.0
 10
-17.5597
 20
12.3159
 30
0.0
 10
-17.5597
 20
12.3159
 30
0.0
 10
-17.562
 20
12.3159
 30
0.0
 10
-17.562
 20
12.3159
 30
0.0
  0
SPLINE
  5
6A
330
1F
100
AcDbEntity
  8
DEFAULT_1
 62
   250
100
AcDbSpline
210
0.0
220
0.0
230
1.0
 70
    24
 71
     3
 72
     8
 73
     4
 74
     0
 42
0.0000000001
 43
0.0000000001
 40
0.0
 40
0.0
 40
0.0
 40
0.0
 40
1.0
 40
1.0
 40
1.0
 40
1.0
 10
-17.5421
 20
11.4779
 30
0.0
 10
-17.5421
 20
11.4779
 30
0.0
 10
-17.5421
 20
-25.5265
 30
0.0
 10
-17.5421
 20
-25.5265
 30
0.0
  0
SPLINE
  5
6B
330
1F
100
AcDbEntity
  8
DEFAULT_1
 62
   250
100
AcDbSpline
210
0.0
220
0.0
230
1.0
 70
    11
 71
     3
 72
    40
 73
    36
 74
     0
 42
0.0000000001
 43
0.0000000001
 40
0.0
 40
0.0
 40
0.0
 40
0.0
 40
0.1
 40
0.1
 40
0.1
 40
0.1
 40
0.2
 40
0.2
 40
0.2
 40
0.2
 40
0.3
 40
0.3
 40
0.3
 40
0.3
 40
0.4
 40
0.4
 40
0.4
 40
0.4
 40
0.5
 40
0.5
 40
0.5
 40
0.5
 40
0.6
 40
0.6
 40
0.6
 40
0.6
 40
0.7
 40
0.7
 40
0.7
 40
0.7
 40
0.8
 40
0.8
 40
0.8
 40
0.8
 40
1.0
 40
1.0
 40
1.0
 40
1.0
 10
17.6267
 20
3.4798
 30
0.0
 10
17.6267
 20
3.4798
 30
0.0
 10
17.1861
 20
3.4798
 30
0.0
 10
17.1861
 20
3.4798
 30
0.0
 10
17.1861
 20
3.4798
 30
0.0
 10
17.1861
 20
3.4798
 30
0.0
 10
17.1861
 20
6.2884
 30
0.0
 10
17.1861
 20
6.2884
 30
0.0
 10
17.1861
 20
6.2884
 30
0.0
 10
17.0799
 20
6.1873
 30
0.0
 10
16.9413
 20
6.0862
 30
0.0
 10
16.769
 20
5.9851
 30
0.0
 10
16.769
 20
5.9851
 30
0.0
 10
16.5959
 20
5.8839
 30
0.0
 10
16.4413
 20
5.8079
 30
0.0
 10
16.3041
 20
5.7576
 30
0.0
 10
16.3041
 20
5.7576
 30
0.0
 10
16.3041
 20
5.7576
 30
0.0
 10
16.3041
 20
6.1832
 30
0.0
 10
16.3041
 20
6.1832
 30
0.0
 10
16.3041
 20
6.1832
 30
0.0
 10
16.5508
 20
6.2993
 30
0.0
 10
16.7666
 20
6.4398
 30
0.0
 10
16.9512
 20
6.6044
 30
0.0
 10
16.9512
 20
6.6044
 30
0.0
 10
17.1351
 20
6.77
 30
0.0
 10
17.2663
 20
6.9296
 30
0.0
 10
17.3432
 20
7.0851
 30
0.0
 10
17.3432
 20
7.0851
 30
0.0
 10
17.3432
 20
7.0851
 30
0.0
 10
17.6267
 20
7.0851
 30
0.0
 10
17.6267
 20
7.0851
 30
0.0
 10
17.6267
 20
7.0851
 30
0.0
 10
17.6267
 20
7.0851
 30
0.0
 10
17.6267
 20
3.4798
 30
0.0
 10
17.6267
 20
3.4798
 30
0.0
  0
SPLINE
  5
6C
330
1F
100
AcDbEntity
  8
DEFAULT_1
 62
   250
100
AcDbSpline
210
0.0
220
0.0
230
1.0
 70
    11
 71
     3
 72
    92
 73
    88
 74
     0
 42
0.0000000001
 43
0.0000000001
 40
0.0
 40
0.0
 40
0.0
 40
0.0
 40
0.0434782608695652
 40
0.0434782608695652
 40
0.0434782608695652
 40
0.0434782608695652
 40
0.0869565217391304
 40
0.0869565217391304
 40
0.0869565217391304
 40
0.0869565217391304
 40
0.1304347826086956
 40
0.1304347826086956
 40
0.1304347826086956
 40
0.1304347826086956
 40
0.1739130434782609
 40
0.1739130434782609
 40
0.1739130434782609
 40
0.1739130434782609
 40
0.2173913043478261
 40
0.2173913043478261
 40
0.2173913043478261
 40
0.2173913043478261
 40
0.2608695652173913
 40
0.2608695652173913
 40
0.2608695652173913
 40
0.2608695652173913
 40
0.3043478260869565
 40
0.3043478260869565
 40
0.3043478260869565
 40
0.3043478260869565
 40
0.3478260869565217
 40
0.3478260869565217
 40
0.3478260869565217
 40
0.3478260869565217
 40
0.391304347826087
 40
0.391304347826087
 40
0.391304347826087
 40
0.391304347826087
 40
0.4347826086956522
 40
0.4347826086956522
 40
0.4347826086956522
 40
0.4347826086956522
 40
0.4782608695652174
 40
0.4782608695652174
 40
0.4782608695652174
 40
0.4782608695652174
 40
0.5217391304347826
 40
0.5217391304347826
 40
0.5217391304347826
 40
0.5217391304347826
 40
0.5652173913043478
 40
0.5652173913043478
 40
0.5652173913043478
 40
0.5652173913043478
 40
0.6086956521739131
 40
0.6086956521739131
 40
0.6086956521739131
 40
0.6086956521739131
 40
0.6521739130434783
 40
0.6521739130434783
 40
0.6521739130434783
 40
0.6521739130434783
 40
0.6956521739130435
 40
0.6956521739130435
 40
0.6956521739130435
 40
0.6956521739130435
 40
0.7391304347826086
 40
0.7391304347826086
 40
0.7391304347826086
 40
0.7391304347826086
 40
0.782608695652174
 40
0.782608695652174
 40
0.782608695652174
 40
0.782608695652174
 40
0.8260869565217391
 40
0.8260869565217391
 40
0.8260869565217391
 40
0.8260869565217391
 40
0.8695652173913043
 40
0.8695652173913043
 40
0.8695652173913043
 40
0.8695652173913043
 40
0.9130434782608695
 40
0.9130434782608695
 40
0.9130434782608695
 40
0.9130434782608695
 40
1.0
 40
1.0
 40
1.0
 40
1.0
 10
18.7559
 20
4.4203
 30
0.0
 10
18.7559
 20
4.4203
 30
0.0
 10
19.2191
 20
4.4595
 30
0.0
 10
19.2191
 20
4.4595
 30
0.0
 10
19.2191
 20
4.4595
 30
0.0
 10
19.2534
 20
4.2338
 30
0.0
 10
19.3328
 20
4.065
 30
0.0
 10
19.4574
 20
3.9513
 30
0.0
 10
19.4574
 20
3.9513
 30
0.0
 10
19.5827
 20
3.8375
 30
0.0
 10
19.7332
 20
3.7807
 30
0.0
 10
19.9095
 20
3.7807
 30
0.0
 10
19.9095
 20
3.7807
 30
0.0
 10
20.1219
 20
3.7807
 30
0.0
 10
20.3015
 20
3.861
 30
0.0
 10
20.4478
 20
4.0206
 30
0.0
 10
20.4478
 20
4.0206
 30
0.0
 10
20.5949
 20
4.181
 30
0.0
 10
20.6685
 20
4.3934
 30
0.0
 10
20.6685
 20
4.6575
 30
0.0
 10
20.6685
 20
4.6575
 30
0.0
 10
20.6685
 20
4.9092
 30
0.0
 10
20.5983
 20
5.1073
 30
0.0
 10
20.457
 20
5.2527
 30
0.0
 10
20.457
 20
5.2527
 30
0.0
 10
20.3157
 20
5.3982
 30
0.0
 10
20.1311
 20
5.4709
 30
0.0
 10
19.902
 20
5.4709
 30
0.0
 10
19.902
 20
5.4709
 30
0.0
 10
19.7598
 20
5.4709
 30
0.0
 10
19.6321
 20
5.4384
 30
0.0
 10
19.5174
 20
5.3741
 30
0.0
 10
19.5174
 20
5.3741
 30
0.0
 10
19.403
 20
5.3096
 30
0.0
 10
19.3136
 20
5.226
 30
0.0
 10
19.2484
 20
5.1231
 30
0.0
 10
19.2484
 20
5.1231
 30
0.0
 10
19.2484
 20
5.1231
 30
0.0
 10
18.8345
 20
5.1766
 30
0.0
 10
18.8345
 20
5.1766
 30
0.0
 10
18.8345
 20
5.1766
 30
0.0
 10
18.8345
 20
5.1766
 30
0.0
 10
19.1823
 20
7.0208
 30
0.0
 10
19.1823
 20
7.0208
 30
0.0
 10
19.1823
 20
7.0208
 30
0.0
 10
19.1823
 20
7.0208
 30
0.0
 10
20.9678
 20
7.0208
 30
0.0
 10
20.9678
 20
7.0208
 30
0.0
 10
20.9678
 20
7.0208
 30
0.0
 10
20.9678
 20
7.0208
 30
0.0
 10
20.9678
 20
6.5994
 30
0.0
 10
20.9678
 20
6.5994
 30
0.0
 10
20.9678
 20
6.5994
 30
0.0
 10
20.9678
 20
6.5994
 30
0.0
 10
19.535
 20
6.5994
 30
0.0
 10
19.535
 20
6.5994
 30
0.0
 10
19.535
 20
6.5994
 30
0.0
 10
19.535
 20
6.5994
 30
0.0
 10
19.3411
 20
5.6348
 30
0.0
 10
19.3411
 20
5.6348
 30
0.0
 10
19.3411
 20
5.6348
 30
0.0
 10
19.5567
 20
5.7853
 30
0.0
 10
19.7833
 20
5.8605
 30
0.0
 10
20.0198
 20
5.8605
 30
0.0
 10
20.0198
 20
5.8605
 30
0.0
 10
20.3333
 20
5.8605
 30
0.0
 10
20.5974
 20
5.7519
 30
0.0
 10
20.8132
 20
5.5345
 30
0.0
 10
20.8132
 20
5.5345
 30
0.0
 10
21.0287
 20
5.3172
 30
0.0
 10
21.1366
 20
5.038
 30
0.0
 10
21.1366
 20
4.697
 30
0.0
 10
21.1366
 20
4.697
 30
0.0
 10
21.1366
 20
4.3717
 30
0.0
 10
21.0414
 20
4.0908
 30
0.0
 10
20.8525
 20
3.8542
 30
0.0
 10
20.8525
 20
3.8542
 30
0.0
 10
20.6218
 20
3.5642
 30
0.0
 10
20.3074
 20
3.4188
 30
0.0
 10
19.9095
 20
3.4188
 30
0.0
 10
19.9095
 20
3.4188
 30
0.0
 10
19.5827
 20
3.4188
 30
0.0
 10
19.3161
 20
3.5098
 30
0.0
 10
19.1096
 20
3.6929
 30
0.0
 10
19.1096
 20
3.6929
 30
0.0
 10
18.9031
 20
3.8761
 30
0.0
 10
18.7852
 20
4.1185
 30
0.0
 10
18.7559
 20
4.4203
 30
0.0
  0
SPLINE
  5
6D
330
1F
100
AcDbEntity
  8
DEFAULT_1
 62
   250
100
AcDbSpline
210
0.0
220
0.0
230
1.0
 70
    11
 71
     3
 72
    20
 73
    16
 74
     0
 42
0.0000000001
 43
0.0000000001
 40
0.0
 40
0.0
 40
0.0
 40
0.0
 40
0.2
 40
0.2
 40
0.2
 40
0.2
 40
0.4
 40
0.4
 40
0.4
 40
0.4
 40
0.6
 40
0.6
 40
0.6
 40
0.6
 40
1.0
 40
1.0
 40
1.0
 40
1.0
 10
10.1493
 20
2.3232
 30
0.0
 10
10.1493
 20
2.3232
 30
0.0
 10
15.4806
 20
1.5448
 30
0.0
 10
15.4806
 20
1.5448
 30
0.0
 10
15.4806
 20
1.5448
 30
0.0
 10
15.4806
 20
1.5448
 30
0.0
 10
15.4806
 20
3.2631
 30
0.0
 10
15.4806
 20
3.2631
 30
0.0
 10
15.4806
 20
3.2631
 30
0.0
 10
15.4806
 20
3.2631
 30
0.0
 10
10.1493
 20
2.3257
 30
0.0
 10
10.1493
 20
2.3257
 30
0.0
 10
10.1493
 20
2.3257
 30
0.0
 10
10.1493
 20
2.3257
 30
0.0
 10
10.1493
 20
2.3232
 30
0.0
 10
10.1493
 20
2.3232
 30
0.0
  0
SPLINE
  5
6E
330
1F
100
AcDbEntity
  8
DEFAULT_1
 62
   250
100
AcDbSpline
210
0.0
220
0.0
230
1.0
 70
    11
 71
     3
 72
    20
 73
    16
 74
     0
 42
0.0000000001
 43
0.0000000001
 40
0.0
 40
0.0
 40
0.0
 40
0.0
 40
0.2
 40
0.2
 40
0.2
 40
0.2
 40
0.4
 40
0.4
 40
0.4
 40
0.4
 40
0.6
 40
0.6
 40
0.6
 40
0.6
 40
1.0
 40
1.0
 40
1.0
 40
1.0
 10
4.65
 20
2.4272
 30
0.0
 10
4.65
 20
2.4272
 30
0.0
 10
-0.6812
 20
3.2054
 30
0.0
 10
-0.6812
 20
3.2054
 30
0.0
 10
-0.6812
 20
3.2054
 30
0.0
 10
-0.6812
 20
3.2054
 30
0.0
 10
-0.6812
 20
1.4872
 30
0.0
 10
-0.6812
 20
1.4872
 30
0.0
 10
-0.6812
 20
1.4872
 30
0.0
 10
-0.6812
 20
1.4872
 30
0.0
 10
4.65
 20
2.4247
 30
0.0
 10
4.65
 20
2.4247
 30
0.0
 10
4.65
 20
2.4247
 30
0.0
 10
4.65
 20
2.4247
 30
0.0
 10
4.65
 20
2.4272
 30
0.0
 10
4.65
 20
2.4272
 30
0.0
  0
SPLINE
  5
6F
330
1F
100
AcDbEntity
  8
DEFAULT_1
 62
   250
100
AcDbSpline
210
0.0
220
0.0
230
1.0
 70
    24
 71
     3
 72
     8
 73
     4
 74
     0
 42
0.0000000001
 43
0.0000000001
 40
0.0
 40
0.0
 40
0.0
 40
0.0
 40
1.0
 40
1.0
 40
1.0
 40
1.0
 10
23.8482
 20
2.3642
 30
0.0
 10
23.8482
 20
2.3642
 30
0.0
 10
-2.7925
 20
2.3642
 30
0.0
 10
-2.7925
 20
2.3642
 30
0.0
  0
SPLINE
  5
70
330
1F
100
AcDbEntity
  8
DEFAULT_1
 62
   250
100
AcDbSpline
210
0.0
220
0.0
230
1.0
 70
    11
 71
     3
 72
    40
 73
    36
 74
     0
 42
0.0000000001
 43
0.0000000001
 40
0.0
 40
0.0
 40
0.0
 40
0.0
 40
0.1
 40
0.1
 40
0.1
 40
0.1
 40
0.2
 40
0.2
 40
0.2
 40
0.2
 40
0.3
 40
0.3
 40
0.3
 40
0.3
 40
0.4
 40
0.4
 40
0.4
 40
0.4
 40
0.5
 40
0.5
 40
0.5
 40
0.5
 40
0.6
 40
0.6
 40
0.6
 40
0.6
 40
0.7
 40
0.7
 40
0.7
 40
0.7
 40
0.8
 40
0.8
 40
0.8
 40
0.8
 40
1.0
 40
1.0
 40
1.0
 40
1.0
 10
-27.2553
 20
-9.5302
 30
0.0
 10
-27.2553
 20
-9.5302
 30
0.0
 10
-27.2553
 20
-9.9708
 30
0.0
 10
-27.2553
 20
-9.9708
 30
0.0
 10
-27.2553
 20
-9.9708
 30
0.0
 10
-27.2553
 20
-9.9708
 30
0.0
 10
-30.0639
 20
-9.9708
 30
0.0
 10
-30.0639
 20
-9.9708
 30
0.0
 10
-30.0639
 20
-9.9708
 30
0.0
 10
-29.9628
 20
-10.077
 30
0.0
 10
-29.8617
 20
-10.2156
 30
0.0
 10
-29.7605
 20
-10.3879
 30
0.0
 10
-29.7605
 20
-10.3879
 30
0.0
 10
-29.6594
 20
-10.561
 30
0.0
 10
-29.5833
 20
-10.7156
 30
0.0
 10
-29.5331
 20
-10.8528
 30
0.0
 10
-29.5331
 20
-10.8528
 30
0.0
 10
-29.5331
 20
-10.8528
 30
0.0
 10
-29.9587
 20
-10.8528
 30
0.0
 10
-29.9587
 20
-10.8528
 30
0.0
 10
-29.9587
 20
-10.8528
 30
0.0
 10
-30.0747
 20
-10.6061
 30
0.0
 10
-30.2153
 20
-10.3903
 30
0.0
 10
-30.3799
 20
-10.2057
 30
0.0
 10
-30.3799
 20
-10.2057
 30
0.0
 10
-30.5455
 20
-10.0218
 30
0.0
 10
-30.7051
 20
-9.8906
 30
0.0
 10
-30.8606
 20
-9.8137
 30
0.0
 10
-30.8606
 20
-9.8137
 30
0.0
 10
-30.8606
 20
-9.8137
 30
0.0
 10
-30.8606
 20
-9.5302
 30
0.0
 10
-30.8606
 20
-9.5302
 30
0.0
 10
-30.8606
 20
-9.5302
 30
0.0
 10
-30.8606
 20
-9.5302
 30
0.0
 10
-27.2553
 20
-9.5302
 30
0.0
 10
-27.2553
 20
-9.5302
 30
0.0
  0
SPLINE
  5
71
330
1F
100
AcDbEntity
  8
DEFAULT_1
 62
   250
100
AcDbSpline
210
0.0
220
0.0
230
1.0
 70
    11
 71
     3
 72
    92
 73
    88
 74
     0
 42
0.0000000001
 43
0.0000000001
 40
0.0
 40
0.0
 40
0.0
 40
0.0
 40
0.0434782608695652
 40
0.0434782608695652
 40
0.0434782608695652
 40
0.0434782608695652
 40
0.0869565217391304
 40
0.0869565217391304
 40
0.0869565217391304
 40
0.0869565217391304
 40
0.1304347826086956
 40
0.1304347826086956
 40
0.1304347826086956
 40
0.1304347826086956
 40
0.1739130434782609
 40
0.1739130434782609
 40
0.1739130434782609
 40
0.1739130434782609
 40
0.2173913043478261
 40
0.2173913043478261
 40
0.2173913043478261
 40
0.2173913043478261
 40
0.2608695652173913
 40
0.2608695652173913
 40
0.2608695652173913
 40
0.2608695652173913
 40
0.3043478260869565
 40
0.3043478260869565
 40
0.3043478260869565
 40
0.3043478260869565
 40
0.3478260869565217
 40
0.3478260869565217
 40
0.3478260869565217
 40
0.3478260869565217
 40
0.391304347826087
 40
0.391304347826087
 40
0.391304347826087
 40
0.391304347826087
 40
0.4347826086956522
 40
0.4347826086956522
 40
0.4347826086956522
 40
0.4347826086956522
 40
0.4782608695652174
 40
0.4782608695652174
 40
0.4782608695652174
 40
0.4782608695652174
 40
0.5217391304347826
 40
0.5217391304347826
 40
0.5217391304347826
 40
0.5217391304347826
 40
0.5652173913043478
 40
0.5652173913043478
 40
0.5652173913043478
 40
0.5652173913043478
 40
0.6086956521739131
 40
0.6086956521739131
 40
0.6086956521739131
 40
0.6086956521739131
 40
0.6521739130434783
 40
0.6521739130434783
 40
0.6521739130434783
 40
0.6521739130434783
 40
0.6956521739130435
 40
0.6956521739130435
 40
0.6956521739130435
 40
0.6956521739130435
 40
0.7391304347826086
 40
0.7391304347826086
 40
0.7391304347826086
 40
0.7391304347826086
 40
0.782608695652174
 40
0.782608695652174
 40
0.782608695652174
 40
0.782608695652174
 40
0.8260869565217391
 40
0.8260869565217391
 40
0.8260869565217391
 40
0.8260869565217391
 40
0.8695652173913043
 40
0.8695652173913043
 40
0.8695652173913043
 40
0.8695652173913043
 40
0.9130434782608695
 40
0.9130434782608695
 40
0.9130434782608695
 40
0.9130434782608695
 40
1.0
 40
1.0
 40
1.0
 40
1.0
 10
-28.1957
 20
-8.401
 30
0.0
 10
-28.1957
 20
-8.401
 30
0.0
 10
-28.235
 20
-7.9378
 30
0.0
 10
-28.235
 20
-7.9378
 30
0.0
 10
-28.235
 20
-7.9378
 30
0.0
 10
-28.0093
 20
-7.9035
 30
0.0
 10
-27.8405
 20
-7.8241
 30
0.0
 10
-27.7267
 20
-7.6995
 30
0.0
 10
-27.7267
 20
-7.6995
 30
0.0
 10
-27.613
 20
-7.5742
 30
0.0
 10
-27.5561
 20
-7.4237
 30
0.0
 10
-27.5561
 20
-7.2474
 30
0.0
 10
-27.5561
 20
-7.2474
 30
0.0
 10
-27.5561
 20
-7.035
 30
0.0
 10
-27.6365
 20
-6.8554
 30
0.0
 10
-27.796
 20
-6.7091
 30
0.0
 10
-27.796
 20
-6.7091
 30
0.0
 10
-27.9565
 20
-6.562
 30
0.0
 10
-28.1689
 20
-6.4884
 30
0.0
 10
-28.433
 20
-6.4884
 30
0.0
 10
-28.433
 20
-6.4884
 30
0.0
 10
-28.6846
 20
-6.4884
 30
0.0
 10
-28.8828
 20
-6.5586
 30
0.0
 10
-29.0282
 20
-6.6999
 30
0.0
 10
-29.0282
 20
-6.6999
 30
0.0
 10
-29.1737
 20
-6.8412
 30
0.0
 10
-29.2464
 20
-7.0258
 30
0.0
 10
-29.2464
 20
-7.2549
 30
0.0
 10
-29.2464
 20
-7.2549
 30
0.0
 10
-29.2464
 20
-7.3971
 30
0.0
 10
-29.2139
 20
-7.5248
 30
0.0
 10
-29.1495
 20
-7.6395
 30
0.0
 10
-29.1495
 20
-7.6395
 30
0.0
 10
-29.085
 20
-7.7539
 30
0.0
 10
-29.0015
 20
-7.8433
 30
0.0
 10
-28.8986
 20
-7.9085
 30
0.0
 10
-28.8986
 20
-7.9085
 30
0.0
 10
-28.8986
 20
-7.9085
 30
0.0
 10
-28.9521
 20
-8.3224
 30
0.0
 10
-28.9521
 20
-8.3224
 30
0.0
 10
-28.9521
 20
-8.3224
 30
0.0
 10
-28.9521
 20
-8.3224
 30
0.0
 10
-30.7963
 20
-7.9746
 30
0.0
 10
-30.7963
 20
-7.9746
 30
0.0
 10
-30.7963
 20
-7.9746
 30
0.0
 10
-30.7963
 20
-7.9746
 30
0.0
 10
-30.7963
 20
-6.1891
 30
0.0
 10
-30.7963
 20
-6.1891
 30
0.0
 10
-30.7963
 20
-6.1891
 30
0.0
 10
-30.7963
 20
-6.1891
 30
0.0
 10
-30.3749
 20
-6.1891
 30
0.0
 10
-30.3749
 20
-6.1891
 30
0.0
 10
-30.3749
 20
-6.1891
 30
0.0
 10
-30.3749
 20
-6.1891
 30
0.0
 10
-30.3749
 20
-7.6219
 30
0.0
 10
-30.3749
 20
-7.6219
 30
0.0
 10
-30.3749
 20
-7.6219
 30
0.0
 10
-30.3749
 20
-7.6219
 30
0.0
 10
-29.4102
 20
-7.8158
 30
0.0
 10
-29.4102
 20
-7.8158
 30
0.0
 10
-29.4102
 20
-7.8158
 30
0.0
 10
-29.5608
 20
-7.6002
 30
0.0
 10
-29.636
 20
-7.3736
 30
0.0
 10
-29.636
 20
-7.1371
 30
0.0
 10
-29.636
 20
-7.1371
 30
0.0
 10
-29.636
 20
-6.8236
 30
0.0
 10
-29.5274
 20
-6.5595
 30
0.0
 10
-29.31
 20
-6.3437
 30
0.0
 10
-29.31
 20
-6.3437
 30
0.0
 10
-29.0927
 20
-6.1282
 30
0.0
 10
-28.8135
 20
-6.0203
 30
0.0
 10
-28.4724
 20
-6.0203
 30
0.0
 10
-28.4724
 20
-6.0203
 30
0.0
 10
-28.1472
 20
-6.0203
 30
0.0
 10
-27.8662
 20
-6.1155
 30
0.0
 10
-27.6297
 20
-6.3044
 30
0.0
 10
-27.6297
 20
-6.3044
 30
0.0
 10
-27.3397
 20
-6.5351
 30
0.0
 10
-27.1943
 20
-6.8495
 30
0.0
 10
-27.1943
 20
-7.2474
 30
0.0
 10
-27.1943
 20
-7.2474
 30
0.0
 10
-27.1943
 20
-7.5742
 30
0.0
 10
-27.2853
 20
-7.8408
 30
0.0
 10
-27.4683
 20
-8.0473
 30
0.0
 10
-27.4683
 20
-8.0473
 30
0.0
 10
-27.6516
 20
-8.2538
 30
0.0
 10
-27.894
 20
-8.3717
 30
0.0
 10
-28.1957
 20
-8.401
 30
0.0
  0
SPLINE
  5
72
330
1F
100
AcDbEntity
  8
DEFAULT_1
 62
   250
100
AcDbSpline
210
0.0
220
0.0
230
1.0
 70
    11
 71
     3
 72
    68
 73
    64
 74
     0
 42
0.0000000001
 43
0.0000000001
 40
0.0
 40
0.0
 40
0.0
 40
0.0
 40
0.0588235294117647
 40
0.0588235294117647
 40
0.0588235294117647
 40
0.0588235294117647
 40
0.1176470588235294
 40
0.1176470588235294
 40
0.1176470588235294
 40
0.1176470588235294
 40
0.1764705882352941
 40
0.1764705882352941
 40
0.1764705882352941
 40
0.1764705882352941
 40
0.2352941176470588
 40
0.2352941176470588
 40
0.2352941176470588
 40
0.2352941176470588
 40
0.2941176470588235
 40
0.2941176470588235
 40
0.2941176470588235
 40
0.2941176470588235
 40
0.3529411764705883
 40
0.3529411764705883
 40
0.3529411764705883
 40
0.3529411764705883
 40
0.4117647058823529
 40
0.4117647058823529
 40
0.4117647058823529
 40
0.4117647058823529
 40
0.4705882352941176
 40
0.4705882352941176
 40
0.4705882352941176
 40
0.4705882352941176
 40
0.5294117647058824
 40
0.5294117647058824
 40
0.5294117647058824
 40
0.5294117647058824
 40
0.5882352941176471
 40
0.5882352941176471
 40
0.5882352941176471
 40
0.5882352941176471
 40
0.6470588235294118
 40
0.6470588235294118
 40
0.6470588235294118
 40
0.6470588235294118
 40
0.7058823529411765
 40
0.7058823529411765
 40
0.7058823529411765
 40
0.7058823529411765
 40
0.7647058823529411
 40
0.7647058823529411
 40
0.7647058823529411
 40
0.7647058823529411
 40
0.8235294117647058
 40
0.8235294117647058
 40
0.8235294117647058
 40
0.8235294117647058
 40
0.8823529411764706
 40
0.8823529411764706
 40
0.8823529411764706
 40
0.8823529411764706
 40
1.0
 40
1.0
 40
1.0
 40
1.0
 10
-29.2021
 20
-4.9326
 30
0.0
 10
-29.269
 20
-5.1159
 30
0.0
 10
-29.3642
 20
-5.2513
 30
0.0
 10
-29.4888
 20
-5.3398
 30
0.0
 10
-29.4888
 20
-5.3398
 30
0.0
 10
-29.6125
 20
-5.4276
 30
0.0
 10
-29.7614
 20
-5.4718
 30
0.0
 10
-29.9343
 20
-5.4718
 30
0.0
 10
-29.9343
 20
-5.4718
 30
0.0
 10
-30.1959
 20
-5.4718
 30
0.0
 10
-30.4151
 20
-5.3782
 30
0.0
 10
-30.5931
 20
-5.1902
 30
0.0
 10
-30.5931
 20
-5.1902
 30
0.0
 10
-30.7712
 20
-5.0021
 30
0.0
 10
-30.8606
 20
-4.753
 30
0.0
 10
-30.8606
 20
-4.4413
 30
0.0
 10
-30.8606
 20
-4.4413
 30
0.0
 10
-30.8606
 20
-4.1278
 30
0.0
 10
-30.7694
 20
-3.8752
 30
0.0
 10
-30.5873
 20
-3.6838
 30
0.0
 10
-30.5873
 20
-3.6838
 30
0.0
 10
-30.4049
 20
-3.4933
 30
0.0
 10
-30.1835
 20
-3.3979
 30
0.0
 10
-29.9219
 20
-3.3979
 30
0.0
 10
-29.9219
 20
-3.3979
 30
0.0
 10
-29.7556
 20
-3.3979
 30
0.0
 10
-29.6109
 20
-3.4414
 30
0.0
 10
-29.4872
 20
-3.5283
 30
0.0
 10
-29.4872
 20
-3.5283
 30
0.0
 10
-29.3642
 20
-3.6161
 30
0.0
 10
-29.269
 20
-3.7482
 30
0.0
 10
-29.2021
 20
-3.9262
 30
0.0
 10
-29.2021
 20
-3.9262
 30
0.0
 10
-29.1302
 20
-3.7064
 30
0.0
 10
-29.0148
 20
-3.5385
 30
0.0
 10
-28.8544
 20
-3.4231
 30
0.0
 10
-28.8544
 20
-3.4231
 30
0.0
 10
-28.6948
 20
-3.3085
 30
0.0
 10
-28.5034
 20
-3.2509
 30
0.0
 10
-28.2817
 20
-3.2509
 30
0.0
 10
-28.2817
 20
-3.2509
 30
0.0
 10
-27.9741
 20
-3.2509
 30
0.0
 10
-27.7166
 20
-3.3595
 30
0.0
 10
-27.5078
 20
-3.576
 30
0.0
 10
-27.5078
 20
-3.576
 30
0.0
 10
-27.2988
 20
-3.7933
 30
0.0
 10
-27.1943
 20
-4.0792
 30
0.0
 10
-27.1943
 20
-4.4336
 30
0.0
 10
-27.1943
 20
-4.4336
 30
0.0
 10
-27.1943
 20
-4.7882
 30
0.0
 10
-27.2988
 20
-5.0732
 30
0.0
 10
-27.5085
 20
-5.2906
 30
0.0
 10
-27.5085
 20
-5.2906
 30
0.0
 10
-27.7184
 20
-5.5079
 30
0.0
 10
-27.98
 20
-5.6165
 30
0.0
 10
-28.2935
 20
-5.6165
 30
0.0
 10
-28.2935
 20
-5.6165
 30
0.0
 10
-28.5266
 20
-5.6165
 30
0.0
 10
-28.7223
 20
-5.5571
 30
0.0
 10
-28.8803
 20
-5.4384
 30
0.0
 10
-28.8803
 20
-5.4384
 30
0.0
 10
-29.0374
 20
-5.3206
 30
0.0
 10
-29.1453
 20
-5.1518
 30
0.0
 10
-29.2021
 20
-4.9326
 30
0.0
  0
SPLINE
  5
73
330
1F
100
AcDbEntity
  8
DEFAULT_1
 62
   250
100
AcDbSpline
210
0.0
220
0.0
230
1.0
 70
    11
 71
     3
 72
    36
 73
    32
 74
     0
 42
0.0000000001
 43
0.0000000001
 40
0.0
 40
0.0
 40
0.0
 40
0.0
 40
0.1111111111111111
 40
0.1111111111111111
 40
0.1111111111111111
 40
0.1111111111111111
 40
0.2222222222222222
 40
0.2222222222222222
 40
0.2222222222222222
 40
0.2222222222222222
 40
0.3333333333333333
 40
0.3333333333333333
 40
0.3333333333333333
 40
0.3333333333333333
 40
0.4444444444444444
 40
0.4444444444444444
 40
0.4444444444444444
 40
0.4444444444444444
 40
0.5555555555555556
 40
0.5555555555555556
 40
0.5555555555555556
 40
0.5555555555555556
 40
0.6666666666666666
 40
0.6666666666666666
 40
0.6666666666666666
 40
0.6666666666666666
 40
0.7777777777777778
 40
0.7777777777777778
 40
0.7777777777777778
 40
0.7777777777777778
 40
1.0
 40
1.0
 40
1.0
 40
1.0
 10
-29.9494
 20
-5.0213
 30
0.0
 10
-29.7797
 20
-5.0213
 30
0.0
 10
-29.6409
 20
-4.9662
 30
0.0
 10
-29.5331
 20
-4.8575
 30
0.0
 10
-29.5331
 20
-4.8575
 30
0.0
 10
-29.4254
 20
-4.748
 30
0.0
 10
-29.371
 20
-4.6058
 30
0.0
 10
-29.371
 20
-4.4311
 30
0.0
 10
-29.371
 20
-4.4311
 30
0.0
 10
-29.371
 20
-4.2614
 30
0.0
 10
-29.4245
 20
-4.1219
 30
0.0
 10
-29.5315
 20
-4.0131
 30
0.0
 10
-29.5315
 20
-4.0131
 30
0.0
 10
-29.6384
 20
-3.9046
 30
0.0
 10
-29.7698
 20
-3.8511
 30
0.0
 10
-29.9244
 20
-3.8511
 30
0.0
 10
-29.9244
 20
-3.8511
 30
0.0
 10
-30.0865
 20
-3.8511
 30
0.0
 10
-30.2219
 20
-3.9062
 30
0.0
 10
-30.3322
 20
-4.0183
 30
0.0
 10
-30.3322
 20
-4.0183
 30
0.0
 10
-30.4426
 20
-4.1303
 30
0.0
 10
-30.4979
 20
-4.2691
 30
0.0
 10
-30.4979
 20
-4.4361
 30
0.0
 10
-30.4979
 20
-4.4361
 30
0.0
 10
-30.4979
 20
-4.6042
 30
0.0
 10
-30.4435
 20
-4.7437
 30
0.0
 10
-30.3365
 20
-4.855
 30
0.0
 10
-30.3365
 20
-4.855
 30
0.0
 10
-30.2286
 20
-4.9662
 30
0.0
 10
-30.0991
 20
-5.0213
 30
0.0
 10
-29.9494
 20
-5.0213
 30
0.0
  0
SPLINE
  5
74
330
1F
100
AcDbEntity
  8
DEFAULT_1
 62
   250
100
AcDbSpline
210
0.0
220
0.0
230
1.0
 70
    11
 71
     3
 72
    40
 73
    36
 74
     0
 42
0.0000000001
 43
0.0000000001
 40
0.0
 40
0.0
 40
0.0
 40
0.0
 40
0.1
 40
0.1
 40
0.1
 40
0.1
 40
0.2
 40
0.2
 40
0.2
 40
0.2
 40
0.3
 40
0.3
 40
0.3
 40
0.3
 40
0.4
 40
0.4
 40
0.4
 40
0.4
 40
0.5
 40
0.5
 40
0.5
 40
0.5
 40
0.6
 40
0.6
 40
0.6
 40
0.6
 40
0.7
 40
0.7
 40
0.7
 40
0.7
 40
0.8
 40
0.8
 40
0.8
 40
0.8
 40
1.0
 40
1.0
 40
1.0
 40
1.0
 10
-28.291
 20
-5.1635
 30
0.0
 10
-28.1655
 20
-5.1635
 30
0.0
 10
-28.0436
 20
-5.1333
 30
0.0
 10
-27.9265
 20
-5.0739
 30
0.0
 10
-27.9265
 20
-5.0739
 30
0.0
 10
-27.8087
 20
-5.0146
 30
0.0
 10
-27.7175
 20
-4.9261
 30
0.0
 10
-27.6532
 20
-4.8082
 30
0.0
 10
-27.6532
 20
-4.8082
 30
0.0
 10
-27.5888
 20
-4.6902
 30
0.0
 10
-27.5561
 20
-4.5641
 30
0.0
 10
-27.5561
 20
-4.4286
 30
0.0
 10
-27.5561
 20
-4.4286
 30
0.0
 10
-27.5561
 20
-4.218
 30
0.0
 10
-27.6238
 20
-4.0441
 30
0.0
 10
-27.7601
 20
-3.907
 30
0.0
 10
-27.7601
 20
-3.907
 30
0.0
 10
-27.8956
 20
-3.77
 30
0.0
 10
-28.0678
 20
-3.7014
 30
0.0
 10
-28.2768
 20
-3.7014
 30
0.0
 10
-28.2768
 20
-3.7014
 30
0.0
 10
-28.4891
 20
-3.7014
 30
0.0
 10
-28.6645
 20
-3.7716
 30
0.0
 10
-28.8033
 20
-3.9129
 30
0.0
 10
-28.8033
 20
-3.9129
 30
0.0
 10
-28.9421
 20
-4.0542
 30
0.0
 10
-29.0115
 20
-4.2314
 30
0.0
 10
-29.0115
 20
-4.4437
 30
0.0
 10
-29.0115
 20
-4.4437
 30
0.0
 10
-29.0115
 20
-4.651
 30
0.0
 10
-28.943
 20
-4.8225
 30
0.0
 10
-28.8058
 20
-4.9586
 30
0.0
 10
-28.8058
 20
-4.9586
 30
0.0
 10
-28.6679
 20
-5.0949
 30
0.0
 10
-28.4966
 20
-5.1635
 30
0.0
 10
-28.291
 20
-5.1635
 30
0.0
  0
SPLINE
  5
75
330
1F
100
AcDbEntity
  8
DEFAULT_1
 62
   250
100
AcDbSpline
210
0.0
220
0.0
230
1.0
 70
    11
 71
     3
 72
    20
 73
    16
 74
     0
 42
0.0000000001
 43
0.0000000001
 40
0.0
 40
0.0
 40
0.0
 40
0.0
 40
0.2
 40
0.2
 40
0.2
 40
0.2
 40
0.4
 40
0.4
 40
0.4
 40
0.4
 40
0.6
 40
0.6
 40
0.6
 40
0.6
 40
1.0
 40
1.0
 40
1.0
 40
1.0
 10
-26.5165
 20
-26.5377
 30
0.0
 10
-26.5165
 20
-26.5377
 30
0.0
 10
-25.7383
 20
-21.2066
 30
0.0
 10
-25.7383
 20
-21.2066
 30
0.0
 10
-25.7383
 20
-21.2066
 30
0.0
 10
-25.7383
 20
-21.2066
 30
0.0
 10
-27.4562
 20
-21.2066
 30
0.0
 10
-27.4562
 20
-21.2066
 30
0.0
 10
-27.4562
 20
-21.2066
 30
0.0
 10
-27.4562
 20
-21.2066
 30
0.0
 10
-26.519
 20
-26.5377
 30
0.0
 10
-26.519
 20
-26.5377
 30
0.0
 10
-26.519
 20
-26.5377
 30
0.0
 10
-26.519
 20
-26.5377
 30
0.0
 10
-26.5165
 20
-26.5377
 30
0.0
 10
-26.5165
 20
-26.5377
 30
0.0
  0
SPLINE
  5
76
330
1F
100
AcDbEntity
  8
DEFAULT_1
 62
   250
100
AcDbSpline
210
0.0
220
0.0
230
1.0
 70
    11
 71
     3
 72
    20
 73
    16
 74
     0
 42
0.0000000001
 43
0.0000000001
 40
0.0
 40
0.0
 40
0.0
 40
0.0
 40
0.2
 40
0.2
 40
0.2
 40
0.2
 40
0.4
 40
0.4
 40
0.4
 40
0.4
 40
0.6
 40
0.6
 40
0.6
 40
0.6
 40
1.0
 40
1.0
 40
1.0
 40
1.0
 10
-26.5901
 20
32.3498
 30
0.0
 10
-26.5901
 20
32.3498
 30
0.0
 10
-27.3685
 20
27.0182
 30
0.0
 10
-27.3685
 20
27.0182
 30
0.0
 10
-27.3685
 20
27.0182
 30
0.0
 10
-27.3685
 20
27.0182
 30
0.0
 10
-25.6503
 20
27.0182
 30
0.0
 10
-25.6503
 20
27.0182
 30
0.0
 10
-25.6503
 20
27.0182
 30
0.0
 10
-25.6503
 20
27.0182
 30
0.0
 10
-26.5877
 20
32.3498
 30
0.0
 10
-26.5877
 20
32.3498
 30
0.0
 10
-26.5877
 20
32.3498
 30
0.0
 10
-26.5877
 20
32.3498
 30
0.0
 10
-26.5901
 20
32.3498
 30
0.0
 10
-26.5901
 20
32.3498
 30
0.0
  0
SPLINE
  5
77
330
1F
100
AcDbEntity
  8
DEFAULT_1
 62
   250
100
AcDbSpline
210
0.0
220
0.0
230
1.0
 70
    24
 71
     3
 72
     8
 73
     4
 74
     0
 42
0.0000000001
 43
0.0000000001
 40
0.0
 40
0.0
 40
0.0
 40
0.0
 40
1.0
 40
1.0
 40
1.0
 40
1.0
 10
-26.5702
 20
31.6259
 30
0.0
 10
-26.5702
 20
31.6259
 30
0.0
 10
-26.5702
 20
-25.5265
 30
0.0
 10
-26.5702
 20
-25.5265
 30
0.0
  0
ENDSEC
  0
SECTION
  2
OBJECTS
  0
DICTIONARY
  5
C
330
0
100
AcDbDictionary
  3
ACAD_GROUP
350
D
  3
ACAD_LAYOUT
350
1A
  3
ACAD_MATERIAL
350
3B
  3
ACAD_MLEADERSTYLE
350
9A
  3
ACAD_MLINESTYLE
350
17
  3
ACAD_PLOTSETTINGS
350
19
  3
ACAD_VISUALSTYLE
350
2A
  3
ACDBHEADERROUNDTRIPXREC
350
78
  3
ACDBVARIABLEDICTIONARY
350
98
  0
DICTIONARY
  5
D
102
{ACAD_REACTORS
330
C
102
}
330
C
100
AcDbDictionary
  0
DICTIONARY
  5
1A
102
{ACAD_REACTORS
330
C
102
}
330
C
100
AcDbDictionary
  0
DICTIONARY
  5
3B
102
{ACAD_REACTORS
330
C
102
}
330
C
100
AcDbDictionary
  3
BYBLOCK
350
3D
  3
BYLAYER
350
3C
  3
GLOBAL
350
3E
  0
DICTIONARY
  5
9A
102
{ACAD_REACTORS
330
C
102
}
330
C
100
AcDbDictionary
  0
DICTIONARY
  5
17
102
{ACAD_REACTORS
330
C
102
}
330
C
100
AcDbDictionary
  3
STANDARD
350
18
  0
DICTIONARY
  5
19
102
{ACAD_REACTORS
330
C
102
}
330
C
100
AcDbDictionary
  0
DICTIONARY
  5
2A
102
{ACAD_REACTORS
330
C
102
}
330
C
100
AcDbDictionary
  3
2DWIREFRAME
350
2F
  3
3D_HIDDEN
350
31
  3
3DWIREFRAME
350
30
  3
BASIC
350
32
  3
BRIGHTEN
350
36
  3
COLORCHANGE
350
3A
  3
CONCEPTUAL
350
34
  3
DIM
350
35
  3
FACEPATTERN
350
39
  3
FLAT
350
2B
  3
FLATWITHEDGES
350
2C
  3
GOURAUD
350
2D
  3
GOURAUDWITHEDGES
350
2E
  3
LINEPATTERN
350
38
  3
REALISTIC
350
33
  3
THICKEN
350
37
  0
DICTIONARY
  5
78
102
{ACAD_REACTORS
330
C
102
}
330
C
100
AcDbDictionary
  3
CEPSNTYPE
350
81
  3
DIMSTYLEDATA
350
97
  3
FINGERPRINTGUID
350
82
  3
HYPERLINKBASE
350
7B
  3
INSUNITS
350
80
  3
LAYOUTDICT
350
7D
  3
LWETCUNION
350
7F
  3
PLOTSETDICT
350
7E
  3
PSVPSCALE
350
84
  3
PUCSBASE
350
87
  3
PUCSORGBACK
350
8D
  3
PUCSORGBOTTOM
350
89
  3
PUCSORGFRONT
350
8C
  3
PUCSORGLEFT
350
8A
  3
PUCSORGRIGHT
350
8B
  3
PUCSORGTOP
350
88
  3
PUCSORTHOREF
350
85
  3
PUCSORTHOVIEW
350
86
  3
STYLESHEET
350
7C
  3
TSTACKALIGN
350
79
  3
TSTACKSIZE
350
7A
  3
UCSBASE
350
90
  3
UCSORGBACK
350
96
  3
UCSORGBOTTOM
350
92
  3
UCSORGFRONT
350
95
  3
UCSORGLEFT
350
93
  3
UCSORGRIGHT
350
94
  3
UCSORGTOP
350
91
  3
UCSORTHOREF
350
8E
  3
UCSORTHOVIEW
350
8F
  3
VERSIONGUID
350
83
  0
DICTIONARY
  5
98
102
{ACAD_REACTORS
330
C
102
}
330
C
100
AcDbDictionary
  3
DIMASSOC
350
9B
  3
HIDETEXT
350
9C
  0
MATERIAL
  5
3D
102
{ACAD_REACTORS
330
3B
102
}
102
{ACAD_XDICTIONARY
360
9F
102
}
330
3B
100
AcDbMaterial
  1
ByBlock
  0
MATERIAL
  5
3C
102
{ACAD_REACTORS
330
3B
102
}
102
{ACAD_XDICTIONARY
360
9D
102
}
330
3B
100
AcDbMaterial
  1
ByLayer
  0
MATERIAL
  5
3E
102
{ACAD_REACTORS
330
3B
102
}
102
{ACAD_XDICTIONARY
360
A1
102
}
330
3B
100
AcDbMaterial
  1
Global
  0
MLINESTYLE
  5
18
102
{ACAD_REACTORS
330
17
102
}
330
17
100
AcDbMlineStyle
  2
Standard
 70
     0
  3

 62
   256
 51
90.0
 52
90.0
 71
     2
 49
0.5
 62
   256
  6
BYLAYER
 49
-0.5
 62
   256
  6
BYLAYER
  0
ACAD_PROXY_OBJECT
  5
2F
102
{ACAD_REACTORS
330
2A
102
}
330
2A
100
AcDbProxyObject
 90
      499
 91
      501
 93
      436
310
42CC9915DA5C99599C985B595049028333333333333E3BF0000000000000FB0107901411070040501600405405064090741402480A0340
1001
ACAD
1000
AcDbSavedByObjectVersion
1070
     0
  0
ACAD_PROXY_OBJECT
  5
31
102
{ACAD_REACTORS
330
2A
102
}
330
2A
100
AcDbProxyObject
 90
      499
 91
      501
 93
      500
310
424CD108121A5919195B90640502408333333333333E3BF0000000000000FB01079024090700405020000000000001110200405405064090740C02480A0340
1001
ACAD
1000
AcDbSavedByObjectVersion
1070
     0
  0
ACAD_PROXY_OBJECT
  5
30
102
{ACAD_REACTORS
330
2A
102
}
330
2A
100
AcDbProxyObject
 90
      499
 91
      501
 93
      436
310
42CCD915DA5C99599C985B595059028333333333333E3BF0000000000000FB0107901411070040501600405405064090741402480A0340
1001
ACAD
1000
AcDbSavedByObjectVersion
1070
     0
  0
ACAD_PROXY_OBJECT
  5
32
102
{ACAD_REACTORS
330
2A
102
}
330
2A
100
AcDbProxyObject
 90
      499
 91
      501
 93
      388
310
4150985CDA58D07406404333333333333E3BF0000000000000FB0107A41107004050150841D405064090741402480A0350
1001
ACAD
1000
AcDbSavedByObjectVersion
1070
     0
  0
ACAD_PROXY_OBJECT
  5
36
102
{ACAD_REACTORS
330
2A
102
}
330
2A
100
AcDbProxyObject
 90
      499
 91
      501
 93
      428
310
42109C9A59DA1D195B90C409028333333333333E3BF0000000000000FB010790141107004050150841D405064090741402480A029950
1001
ACAD
1000
AcDbSavedByObjectVersion
1070
     0
  0
ACAD_PROXY_OBJECT
  5
3A
102
{ACAD_REACTORS
330
2A
102
}
330
2A
100
AcDbProxyObject
 90
      499
 91
      501
 93
      452
310
42D0DBDB1BDC90DA185B99D95104090240C333333333333E3BF0000000000000FB0108901411070040501508421405064090741402480A0350
1001
ACAD
1000
AcDbSavedByObjectVersion
1070
     0
  0
ACAD_PROXY_OBJECT
  5
34
102
{ACAD_REACTORS
330
2A
102
}
330
2A
100
AcDbProxyObject
 90
      499
 91
      501
 93
      500
310
4290DBDB98D95C1D1D585B10940D028333333333333E3BF0000000000000FB0107902409070040501000000000000111010841D405064090740C02480A0340
1001
ACAD
1000
AcDbSavedByObjectVersion
1070
     0
  0
ACAD_PROXY_OBJECT
  5
35
102
{ACAD_REACTORS
330
2A
102
}
330
2A
100
AcDbProxyObject
 90
      499
 91
      501
 93
      412
310
40D11A5B50B409028333333333333E3BF0000000000000FB010790141107004050150841D405064090741402480A02677FFFFFD0
1001
ACAD
1000
AcDbSavedByObjectVersion
1070
     0
  0
ACAD_PROXY_OBJECT
  5
39
102
{ACAD_REACTORS
330
2A
102
}
330
2A
100
AcDbProxyObject
 90
      499
 91
      501
 93
      444
310
42D19858D95C185D1D195C9B90F409028333333333333E3BF0000000000000FB010790141107004050150841D405064090741402480A0350
1001
ACAD
1000
AcDbSavedByObjectVersion
1070
     0
  0
ACAD_PROXY_OBJECT
  5
2B
102
{ACAD_REACTORS
330
2A
102
}
330
2A
100
AcDbProxyObject
 90
      499
 91
      501
 93
      388
310
41119B185D240901404333333333333E3BF0000000000000F9010740A41107004050150841D405064090741402480A1B50
1001
ACAD
1000
AcDbSavedByObjectVersion
1070
     0
  0
ACAD_PROXY_OBJECT
  5
2C
102
{ACAD_REACTORS
330
2A
102
}
330
2A
100
AcDbProxyObject
 90
      499
 91
      501
 93
      476
310
43519B185D15DA5D1A115919D95CD0140901404333333333333E3BF0000000000000F9010740901411070040501600405405064090741402480A1B50
1001
ACAD
1000
AcDbSavedByObjectVersion
1070
     0
  0
ACAD_PROXY_OBJECT
  5
2D
102
{ACAD_REACTORS
330
2A
102
}
330
2A
100
AcDbProxyObject
 90
      499
 91
      501
 93
      412
310
41D1DBDD5C985D5910240902404333333333333E3BF0000000000000F9010740A411070040501641D405064090741402480A1B50
1001
ACAD
1000
AcDbSavedByObjectVersion
1070
     0
  0
ACAD_PROXY_OBJECT
  5
2E
102
{ACAD_REACTORS
330
2A
102
}
330
2A
100
AcDbProxyObject
 90
      499
 91
      501
 93
      500
310
4411DBDD5C985D5915DA5D1A115919D95CD0340902404333333333333E3BF0000000000000F9010740901411070040501600405405064090741402480A1B50
1001
ACAD
1000
AcDbSavedByObjectVersion
1070
     0
  0
ACAD_PROXY_OBJECT
  5
38
102
{ACAD_REACTORS
330
2A
102
}
330
2A
100
AcDbProxyObject
 90
      499
 91
      501
 93
      444
310
42D31A5B995C185D1D195C9B90E409028333333333333E3BF0000000000000FB010790141107004050750841D405064090741402483A0350
1001
ACAD
1000
AcDbSavedByObjectVersion
1070
     0
  0
ACAD_PROXY_OBJECT
  5
33
102
{ACAD_REACTORS
330
2A
102
}
330
2A
100
AcDbProxyObject
 90
      499
 91
      501
 93
      420
310
425499585B1A5CDD1A58D08409028333333333333E3BF0000000000000FB01079019070040501508421405064090741402480A1B40
1001
ACAD
1000
AcDbSavedByObjectVersion
1070
     0
  0
ACAD_PROXY_OBJECT
  5
37
102
{ACAD_REACTORS
330
2A
102
}
330
2A
100
AcDbProxyObject
 90
      499
 91
      501
 93
      412
310
41D51A1A58DAD95B90D409028333333333333E3BF0000000000000FB010790141107004050150C41D405064090741402480A0350
1001
ACAD
1000
AcDbSavedByObjectVersion
1070
     0
  0
XRECORD
  5
81
102
{ACAD_REACTORS
330
78
102
}
330
78
100
AcDbXrecord
 90
        0
  0
XRECORD
  5
97
102
{ACAD_REACTORS
330
78
102
}
330
78
100
AcDbXrecord
1000
DSTYLE
1002
{
1070
   340
340
11
1002
}
  0
XRECORD
  5
82
102
{ACAD_REACTORS
330
78
102
}
330
78
100
AcDbXrecord
  1
{BF581CF5-72D4-44E0-A34C-15222AF39D8C}
  0
XRECORD
  5
7B
102
{ACAD_REACTORS
330
78
102
}
330
78
100
AcDbXrecord
  1

  0
XRECORD
  5
80
102
{ACAD_REACTORS
330
78
102
}
330
78
100
AcDbXrecord
 90
        4
  0
XRECORD
  5
7D
102
{ACAD_REACTORS
330
78
102
}
330
78
100
AcDbXrecord
340
1A
  0
XRECORD
  5
7F
102
{ACAD_REACTORS
330
78
102
}
330
78
100
AcDbXrecord
 90
    10781
  0
XRECORD
  5
7E
102
{ACAD_REACTORS
330
78
102
}
330
78
100
AcDbXrecord
340
19
  0
XRECORD
  5
84
102
{ACAD_REACTORS
330
78
102
}
330
78
100
AcDbXrecord
 40
0.0
  0
XRECORD
  5
87
102
{ACAD_REACTORS
330
78
102
}
330
78
100
AcDbXrecord
340
0
  0
XRECORD
  5
8D
102
{ACAD_REACTORS
330
78
102
}
330
78
100
AcDbXrecord
 10
0.0
 20
0.0
 30
0.0
  0
XRECORD
  5
89
102
{ACAD_REACTORS
330
78
102
}
330
78
100
AcDbXrecord
 10
0.0
 20
0.0
 30
0.0
  0
XRECORD
  5
8C
102
{ACAD_REACTORS
330
78
102
}
330
78
100
AcDbXrecord
 10
0.0
 20
0.0
 30
0.0
  0
XRECORD
  5
8A
102
{ACAD_REACTORS
330
78
102
}
330
78
100
AcDbXrecord
 10
0.0
 20
0.0
 30
0.0
  0
XRECORD
  5
8B
102
{ACAD_REACTORS
330
78
102
}
330
78
100
AcDbXrecord
 10
0.0
 20
0.0
 30
0.0
  0
XRECORD
  5
88
102
{ACAD_REACTORS
330
78
102
}
330
78
100
AcDbXrecord
 10
0.0
 20
0.0
 30
0.0
  0
XRECORD
  5
85
102
{ACAD_REACTORS
330
78
102
}
330
78
100
AcDbXrecord
340
0
  0
XRECORD
  5
86
102
{ACAD_REACTORS
330
78
102
}
330
78
100
AcDbXrecord
 70
     0
  0
XRECORD
  5
7C
102
{ACAD_REACTORS
330
78
102
}
330
78
100
AcDbXrecord
  1

  0
XRECORD
  5
79
102
{ACAD_REACTORS
330
78
102
}
330
78
100
AcDbXrecord
 90
        1
  0
XRECORD
  5
7A
102
{ACAD_REACTORS
330
78
102
}
330
78
100
AcDbXrecord
 90
       70
  0
XRECORD
  5
90
102
{ACAD_REACTORS
330
78
102
}
330
78
100
AcDbXrecord
340
0
  0
XRECORD
  5
96
102
{ACAD_REACTORS
330
78
102
}
330
78
100
AcDbXrecord
 10
0.0
 20
0.0
 30
0.0
  0
XRECORD
  5
92
102
{ACAD_REACTORS
330
78
102
}
330
78
100
AcDbXrecord
 10
0.0
 20
0.0
 30
0.0
  0
XRECORD
  5
95
102
{ACAD_REACTORS
330
78
102
}
330
78
100
AcDbXrecord
 10
0.0
 20
0.0
 30
0.0
  0
XRECORD
  5
93
102
{ACAD_REACTORS
330
78
102
}
330
78
100
AcDbXrecord
 10
0.0
 20
0.0
 30
0.0
  0
XRECORD
  5
94
102
{ACAD_REACTORS
330
78
102
}
330
78
100
AcDbXrecord
 10
0.0
 20
0.0
 30
0.0
  0
XRECORD
  5
91
102
{ACAD_REACTORS
330
78
102
}
330
78
100
AcDbXrecord
 10
0.0
 20
0.0
 30
0.0
  0
XRECORD
  5
8E
102
{ACAD_REACTORS
330
78
102
}
330
78
100
AcDbXrecord
340
0
  0
XRECORD
  5
8F
102
{ACAD_REACTORS
330
78
102
}
330
78
100
AcDbXrecord
 70
     0
  0
XRECORD
  5
83
102
{ACAD_REACTORS
330
78
102
}
330
78
100
AcDbXrecord
  1
{FAEB1C32-E019-11D5-929B-00C0DF256EC4}
  0
DICTIONARYVAR
  5
9B
102
{ACAD_REACTORS
330
98
102
}
330
98
100
DictionaryVariables
280
     0
  1
2
  0
DICTIONARYVAR
  5
9C
102
{ACAD_REACTORS
330
98
102
}
330
98
100
DictionaryVariables
280
     0
  1
1
  0
DICTIONARY
  5
9F
330
3D
100
AcDbDictionary
280
     1
  3
ACAD_XREC_ROUNDTRIP
360
A0
  0
DICTIONARY
  5
9D
330
3C
100
AcDbDictionary
280
     1
  3
ACAD_XREC_ROUNDTRIP
360
9E
  0
DICTIONARY
  5
A1
330
3E
100
AcDbDictionary
280
     1
  3
ACAD_XREC_ROUNDTRIP
360
A2
  0
XRECORD
  5
A0
102
{ACAD_REACTORS
330
9F
102
}
330
9F
100
AcDbXrecord
102
MATERIAL
148
0.0
149
0.0
149
0.0
 93
        0
 94
      127
282
     0
 72
     1
 77
     1
171
     1
175
     1
179
     1
273
     0
  0
XRECORD
  5
9E
102
{ACAD_REACTORS
330
9D
102
}
330
9D
100
AcDbXrecord
102
MATERIAL
148
0.0
149
0.0
149
0.0
 93
        0
 94
      127
282
     0
 72
     1
 77
     1
171
     1
175
     1
179
     1
273
     0
  0
XRECORD
  5
A2
102
{ACAD_REACTORS
330
A1
102
}
330
A1
100
AcDbXrecord
102
MATERIAL
148
0.0
149
0.0
149
0.0
 93
        0
 94
      127
282
     0
 72
     1
 77
     1
171
     1
175
     1
179
     1
273
     0
  0
ENDSEC
  0
EOF
