  0
SECTION
  2
HEADER
  9
$ACADVER
  1
AC1014
  9
$ACADMAINTVER
 70
     9
  9
$DWGCODEPAGE
  3
ANSI_1250
  9
$INSBASE
 10
0.0
 20
0.0
 30
0.0
  9
$EXTMIN
 10
-47.1221
 20
-46.3741
 30
0.0
  9
$EXTMAX
 10
47.1221
 20
46.3746
 30
0.0
  9
$LIMMIN
 10
0.0
 20
0.0
  9
$LIMMAX
 10
12.0
 20
9.0
  9
$ORTHOMODE
 70
     0
  9
$REGENMODE
 70
     1
  9
$FILLMODE
 70
     1
  9
$QTEXTMODE
 70
     0
  9
$MIRRTEXT
 70
     1
  9
$DRAGMODE
 70
     2
  9
$LTSCALE
 40
1.0
  9
$OSMODE
 70
    37
  9
$ATTMODE
 70
     1
  9
$TEXTSIZE
 40
0.2
  9
$TRACEWID
 40
0.05
  9
$TEXTSTYLE
  7
STANDARD
  9
$CLAYER
  8
0
  9
$CELTYPE
  6
BYLAYER
  9
$CECOLOR
 62
   256
  9
$CELTSCALE
 40
1.0
  9
$DELOBJ
 70
     1
  9
$DISPSILH
 70
     0
  9
$DIMSCALE
 40
1.0
  9
$DIMASZ
 40
0.18
  9
$DIMEXO
 40
0.0625
  9
$DIMDLI
 40
0.38
  9
$DIMRND
 40
0.0
  9
$DIMDLE
 40
0.0
  9
$DIMEXE
 40
0.18
  9
$DIMTP
 40
0.0
  9
$DIMTM
 40
0.0
  9
$DIMTXT
 40
0.18
  9
$DIMCEN
 40
0.09
  9
$DIMTSZ
 40
0.0
  9
$DIMTOL
 70
     0
  9
$DIMLIM
 70
     0
  9
$DIMTIH
 70
     1
  9
$DIMTOH
 70
     1
  9
$DIMSE1
 70
     0
  9
$DIMSE2
 70
     0
  9
$DIMTAD
 70
     0
  9
$DIMZIN
 70
     0
  9
$DIMBLK
  1

  9
$DIMASO
 70
     1
  9
$DIMSHO
 70
     1
  9
$DIMPOST
  1

  9
$DIMAPOST
  1

  9
$DIMALT
 70
     0
  9
$DIMALTD
 70
     2
  9
$DIMALTF
 40
25.4
  9
$DIMLFAC
 40
1.0
  9
$DIMTOFL
 70
     0
  9
$DIMTVP
 40
0.0
  9
$DIMTIX
 70
     0
  9
$DIMSOXD
 70
     0
  9
$DIMSAH
 70
     0
  9
$DIMBLK1
  1

  9
$DIMBLK2
  1

  9
$DIMSTYLE
  2
STANDARD
  9
$DIMCLRD
 70
     0
  9
$DIMCLRE
 70
     0
  9
$DIMCLRT
 70
     0
  9
$DIMTFAC
 40
1.0
  9
$DIMGAP
 40
0.09
  9
$DIMJUST
 70
     0
  9
$DIMSD1
 70
     0
  9
$DIMSD2
 70
     0
  9
$DIMTOLJ
 70
     1
  9
$DIMTZIN
 70
     0
  9
$DIMALTZ
 70
     0
  9
$DIMALTTZ
 70
     0
  9
$DIMFIT
 70
     3
  9
$DIMUPT
 70
     0
  9
$DIMUNIT
 70
     2
  9
$DIMDEC
 70
     4
  9
$DIMTDEC
 70
     4
  9
$DIMALTU
 70
     2
  9
$DIMALTTD
 70
     2
  9
$DIMTXSTY
  7
STANDARD
  9
$DIMAUNIT
 70
     0
  9
$LUNITS
 70
     2
  9
$LUPREC
 70
     4
  9
$SKETCHINC
 40
0.1
  9
$FILLETRAD
 40
0.5
  9
$AUNITS
 70
     0
  9
$AUPREC
 70
     0
  9
$MENU
  1
.
  9
$ELEVATION
 40
0.0
  9
$PELEVATION
 40
0.0
  9
$THICKNESS
 40
0.0
  9
$LIMCHECK
 70
     0
  9
$CHAMFERA
 40
0.5
  9
$CHAMFERB
 40
0.5
  9
$CHAMFERC
 40
1.0
  9
$CHAMFERD
 40
0.0
  9
$SKPOLY
 70
     0
  9
$TDCREATE
 40
2456266.367357176
  9
$TDUPDATE
 40
2456266.367357187
  9
$TDINDWG
 40
0.0000000116
  9
$TDUSRTIMER
 40
0.0000000116
  9
$USRTIMER
 70
     1
  9
$ANGBASE
 50
0.0
  9
$ANGDIR
 70
     0
  9
$PDMODE
 70
     0
  9
$PDSIZE
 40
0.0
  9
$PLINEWID
 40
0.0
  9
$COORDS
 70
     1
  9
$SPLFRAME
 70
     0
  9
$SPLINETYPE
 70
     6
  9
$SPLINESEGS
 70
     8
  9
$ATTDIA
 70
     0
  9
$ATTREQ
 70
     1
  9
$HANDLING
 70
     1
  9
$HANDSEED
  5
10B
  9
$SURFTAB1
 70
     6
  9
$SURFTAB2
 70
     6
  9
$SURFTYPE
 70
     6
  9
$SURFU
 70
     6
  9
$SURFV
 70
     6
  9
$UCSNAME
  2

  9
$UCSORG
 10
0.0
 20
0.0
 30
0.0
  9
$UCSXDIR
 10
1.0
 20
0.0
 30
0.0
  9
$UCSYDIR
 10
0.0
 20
1.0
 30
0.0
  9
$PUCSNAME
  2

  9
$PUCSORG
 10
0.0
 20
0.0
 30
0.0
  9
$PUCSXDIR
 10
1.0
 20
0.0
 30
0.0
  9
$PUCSYDIR
 10
0.0
 20
1.0
 30
0.0
  9
$USERI1
 70
     0
  9
$USERI2
 70
     0
  9
$USERI3
 70
     0
  9
$USERI4
 70
     0
  9
$USERI5
 70
     0
  9
$USERR1
 40
0.0
  9
$USERR2
 40
0.0
  9
$USERR3
 40
0.0
  9
$USERR4
 40
0.0
  9
$USERR5
 40
0.0
  9
$WORLDVIEW
 70
     1
  9
$SHADEDGE
 70
     3
  9
$SHADEDIF
 70
    70
  9
$TILEMODE
 70
     1
  9
$MAXACTVP
 70
    64
  9
$PINSBASE
 10
0.0
 20
0.0
 30
0.0
  9
$PLIMCHECK
 70
     0
  9
$PEXTMIN
 10
1.000000000000000E+20
 20
1.000000000000000E+20
 30
1.000000000000000E+20
  9
$PEXTMAX
 10
-1.000000000000000E+20
 20
-1.000000000000000E+20
 30
-1.000000000000000E+20
  9
$PLIMMIN
 10
0.0
 20
0.0
  9
$PLIMMAX
 10
12.0
 20
9.0
  9
$UNITMODE
 70
     0
  9
$VISRETAIN
 70
     1
  9
$PLINEGEN
 70
     0
  9
$PSLTSCALE
 70
     1
  9
$TREEDEPTH
 70
  3020
  9
$PICKSTYLE
 70
     1
  9
$CMLSTYLE
  2
STANDARD
  9
$CMLJUST
 70
     0
  9
$CMLSCALE
 40
1.0
  9
$PROXYGRAPHICS
 70
     1
  9
$MEASUREMENT
 70
     0
  0
ENDSEC
  0
SECTION
  2
CLASSES
  0
CLASS
  1
ACDBDICTIONARYWDFLT
  2
AcDbDictionaryWithDefault
  3
ObjectDBX Classes
 90
        0
280
     0
281
     0
  0
CLASS
  1
VISUALSTYLE
  2
AcDbVisualStyle
  3
ObjectDBX Classes
 90
     4095
280
     0
281
     0
  0
CLASS
  1
MATERIAL
  2
AcDbMaterial
  3
ObjectDBX Classes
 90
     1153
280
     0
281
     0
  0
CLASS
  1
DICTIONARYVAR
  2
AcDbDictionaryVar
  3
ObjectDBX Classes
 90
        0
280
     0
281
     0
  0
CLASS
  1
XRECORD
  2
AcDbXrecord
  3
AutoCAD 2000
 90
        0
280
     0
281
     0
  0
CLASS
  1
LWPOLYLINE
  2
AcDbPolyline
  3
AutoCAD 2000
 90
        0
280
     0
281
     1
  0
CLASS
  1
HATCH
  2
AcDbHatch
  3
AutoCAD 2000
 90
        0
280
     0
281
     1
  0
CLASS
  1
ACDBPLACEHOLDER
  2
AcDbPlaceHolder
  3
ObjectDBX Classes
 90
        0
280
     0
281
     0
  0
CLASS
  1
LAYOUT
  2
AcDbLayout
  3
ObjectDBX Classes
 90
        0
280
     0
281
     0
  0
ENDSEC
  0
SECTION
  2
TABLES
  0
TABLE
  2
VPORT
  5
8
330
0
100
AcDbSymbolTable
 70
     1
  0
VPORT
  5
29
330
8
100
AcDbSymbolTableRecord
100
AcDbViewportTableRecord
  2
*ACTIVE
 70
     0
 10
0.0
 20
0.0
 11
1.0
 21
1.0
 12
10.42990654205607
 22
4.5
 13
0.0
 23
0.0
 14
0.5
 24
0.5
 15
0.5
 25
0.5
 16
0.0
 26
0.0
 36
1.0
 17
0.0
 27
0.0
 37
0.0
 40
9.0
 41
1.972972972850329
 42
50.0
 43
0.0
 44
0.0
 50
0.0
 51
0.0
 71
     0
 72
   100
 73
     1
 74
     3
 75
     0
 76
     0
 77
     0
 78
     0
  0
ENDTAB
  0
TABLE
  2
LTYPE
  5
5
330
0
100
AcDbSymbolTable
 70
     4
  0
LTYPE
  5
14
330
5
100
AcDbSymbolTableRecord
100
AcDbLinetypeTableRecord
  2
BYBLOCK
 70
     0
  3

 72
    65
 73
     0
 40
0.0
  0
LTYPE
  5
15
330
5
100
AcDbSymbolTableRecord
100
AcDbLinetypeTableRecord
  2
BYLAYER
 70
     0
  3

 72
    65
 73
     0
 40
0.0
  0
LTYPE
  5
16
330
5
100
AcDbSymbolTableRecord
100
AcDbLinetypeTableRecord
  2
CONTINUOUS
 70
     0
  3
Solid line
 72
    65
 73
     0
 40
0.0
  0
LTYPE
  5
6D
330
5
100
AcDbSymbolTableRecord
100
AcDbLinetypeTableRecord
  2
NEW_LINE1
 70
     0
  3

 72
    65
 73
     4
 40
1.2
 49
0.5
 74
     4
 75
     0
340
0
 46
1.0
 50
0.0
 44
0.0
 45
0.0
 49
-0.3
 74
     4
 75
     0
340
0
 46
1.0
 50
0.0
 44
0.0
 45
0.0
 49
0.1
 74
     4
 75
     0
340
0
 46
1.0
 50
0.0
 44
0.0
 45
0.0
 49
-0.3
 74
     4
 75
     0
340
0
 46
1.0
 50
0.0
 44
0.0
 45
0.0
  0
LTYPE
  5
6F
330
5
100
AcDbSymbolTableRecord
100
AcDbLinetypeTableRecord
  2
NEW_LINE2
 70
     0
  3

 72
    65
 73
     4
 40
1.2
 49
0.5
 74
     4
 75
     0
340
0
 46
1.0
 50
0.0
 44
0.0
 45
0.0
 49
-0.3
 74
     4
 75
     0
340
0
 46
1.0
 50
0.0
 44
0.0
 45
0.0
 49
0.1
 74
     4
 75
     0
340
0
 46
1.0
 50
0.0
 44
0.0
 45
0.0
 49
-0.3
 74
     4
 75
     0
340
0
 46
1.0
 50
0.0
 44
0.0
 45
0.0
  0
LTYPE
  5
71
330
5
100
AcDbSymbolTableRecord
100
AcDbLinetypeTableRecord
  2
NEW_LINE3
 70
     0
  3

 72
    65
 73
     4
 40
1.2
 49
0.5
 74
     4
 75
     0
340
0
 46
1.0
 50
0.0
 44
0.0
 45
0.0
 49
-0.3
 74
     4
 75
     0
340
0
 46
1.0
 50
0.0
 44
0.0
 45
0.0
 49
0.1
 74
     4
 75
     0
340
0
 46
1.0
 50
0.0
 44
0.0
 45
0.0
 49
-0.3
 74
     4
 75
     0
340
0
 46
1.0
 50
0.0
 44
0.0
 45
0.0
  0
ENDTAB
  0
TABLE
  2
LAYER
  5
2
330
0
100
AcDbSymbolTable
 70
     2
  0
LAYER
  5
10
330
2
100
AcDbSymbolTableRecord
100
AcDbLayerTableRecord
  2
0
 70
     0
 62
     7
  6
CONTINUOUS
  0
LAYER
  5
40
330
2
100
AcDbSymbolTableRecord
100
AcDbLayerTableRecord
  2
DEFAULT_1
 70
     0
 62
     7
  6
CONTINUOUS
  0
ENDTAB
  0
TABLE
  2
STYLE
  5
3
330
0
100
AcDbSymbolTable
 70
     1
  0
STYLE
  5
11
330
3
100
AcDbSymbolTableRecord
100
AcDbTextStyleTableRecord
  2
STANDARD
 70
     0
 40
0.0
 41
1.0
 50
0.0
 71
     0
 42
0.2
  3
txt
  4

  0
ENDTAB
  0
TABLE
  2
VIEW
  5
6
330
0
100
AcDbSymbolTable
 70
     0
  0
ENDTAB
  0
TABLE
  2
UCS
  5
7
330
0
100
AcDbSymbolTable
 70
     0
  0
ENDTAB
  0
TABLE
  2
APPID
  5
9
330
0
100
AcDbSymbolTable
 70
     2
  0
APPID
  5
12
330
9
100
AcDbSymbolTableRecord
100
AcDbRegAppTableRecord
  2
ACAD
 70
     0
  0
APPID
  5
3F
330
9
100
AcDbSymbolTableRecord
100
AcDbRegAppTableRecord
  2
ODA
 70
     0
  0
ENDTAB
  0
TABLE
  2
DIMSTYLE
  5
A
330
0
100
AcDbSymbolTable
 70
     1
  0
DIMSTYLE
105
27
330
A
100
AcDbSymbolTableRecord
100
AcDbDimStyleTableRecord
  2
STANDARD
 70
     0
  3

  4

  5

  6

  7

 40
1.0
 41
0.18
 42
0.0625
 43
0.38
 44
0.18
 45
0.0
 46
0.0
 47
0.0
 48
0.0
140
0.18
141
0.09
142
0.0
143
25.4
144
1.0
145
0.0
146
1.0
147
0.09
 71
     0
 72
     0
 73
     1
 74
     1
 75
     0
 76
     0
 77
     0
 78
     0
170
     0
171
     2
172
     0
173
     0
174
     0
175
     0
176
     0
177
     0
178
     0
270
     2
271
     4
272
     4
273
     2
274
     2
340
11
275
     0
280
     0
281
     0
282
     0
283
     1
284
     0
285
     0
286
     0
287
     3
288
     0
  0
ENDTAB
  0
TABLE
  2
BLOCK_RECORD
  5
1
330
0
100
AcDbSymbolTable
 70
     1
  0
BLOCK_RECORD
  5
1F
330
1
100
AcDbSymbolTableRecord
100
AcDbBlockTableRecord
  2
*MODEL_SPACE
  0
BLOCK_RECORD
  5
1B
330
1
100
AcDbSymbolTableRecord
100
AcDbBlockTableRecord
  2
*PAPER_SPACE
  0
ENDTAB
  0
ENDSEC
  0
SECTION
  2
BLOCKS
  0
BLOCK
  5
20
330
1F
100
AcDbEntity
  8
0
100
AcDbBlockBegin
  2
*MODEL_SPACE
 70
     0
 10
0.0
 20
0.0
 30
0.0
  3
*MODEL_SPACE
  1

  0
ENDBLK
  5
21
330
1F
100
AcDbEntity
  8
0
100
AcDbBlockEnd
  0
BLOCK
  5
1C
330
1B
100
AcDbEntity
 67
     1
  8
0
100
AcDbBlockBegin
  2
*PAPER_SPACE
 70
     0
 10
0.0
 20
0.0
 30
0.0
  3
*PAPER_SPACE
  1

  0
ENDBLK
  5
1D
330
1B
100
AcDbEntity
 67
     1
  8
0
100
AcDbBlockEnd
  0
ENDSEC
  0
SECTION
  2
ENTITIES
  0
SPLINE
  5
41
330
1F
100
AcDbEntity
  8
DEFAULT_1
 62
   250
100
AcDbSpline
210
0.0
220
0.0
230
1.0
 70
    11
 71
     3
 72
    84
 73
    80
 74
     0
 42
0.0000000001
 43
0.0000000001
 40
0.0
 40
0.0
 40
0.0
 40
0.0
 40
0.0476190476190476
 40
0.0476190476190476
 40
0.0476190476190476
 40
0.0476190476190476
 40
0.0952380952380952
 40
0.0952380952380952
 40
0.0952380952380952
 40
0.0952380952380952
 40
0.1428571428571428
 40
0.1428571428571428
 40
0.1428571428571428
 40
0.1428571428571428
 40
0.1904761904761905
 40
0.1904761904761905
 40
0.1904761904761905
 40
0.1904761904761905
 40
0.2380952380952381
 40
0.2380952380952381
 40
0.2380952380952381
 40
0.2380952380952381
 40
0.2857142857142857
 40
0.2857142857142857
 40
0.2857142857142857
 40
0.2857142857142857
 40
0.3333333333333333
 40
0.3333333333333333
 40
0.3333333333333333
 40
0.3333333333333333
 40
0.3809523809523809
 40
0.3809523809523809
 40
0.3809523809523809
 40
0.3809523809523809
 40
0.4285714285714285
 40
0.4285714285714285
 40
0.4285714285714285
 40
0.4285714285714285
 40
0.4761904761904762
 40
0.4761904761904762
 40
0.4761904761904762
 40
0.4761904761904762
 40
0.5238095238095238
 40
0.5238095238095238
 40
0.5238095238095238
 40
0.5238095238095238
 40
0.5714285714285714
 40
0.5714285714285714
 40
0.5714285714285714
 40
0.5714285714285714
 40
0.6190476190476191
 40
0.6190476190476191
 40
0.6190476190476191
 40
0.6190476190476191
 40
0.6666666666666666
 40
0.6666666666666666
 40
0.6666666666666666
 40
0.6666666666666666
 40
0.7142857142857143
 40
0.7142857142857143
 40
0.7142857142857143
 40
0.7142857142857143
 40
0.7619047619047619
 40
0.7619047619047619
 40
0.7619047619047619
 40
0.7619047619047619
 40
0.8095238095238095
 40
0.8095238095238095
 40
0.8095238095238095
 40
0.8095238095238095
 40
0.8571428571428571
 40
0.8571428571428571
 40
0.8571428571428571
 40
0.8571428571428571
 40
0.9047619047619048
 40
0.9047619047619048
 40
0.9047619047619048
 40
0.9047619047619048
 40
1.0
 40
1.0
 40
1.0
 40
1.0
 10
-29.6736
 20
37.1667
 30
0.0
 10
-29.6736
 20
37.1667
 30
0.0
 10
-29.4422
 20
37.4258
 30
0.0
 10
-29.4422
 20
37.4258
 30
0.0
 10
-29.4422
 20
37.4258
 30
0.0
 10
-29.4422
 20
37.4258
 30
0.0
 10
-29.3058
 20
37.3101
 30
0.0
 10
-29.3058
 20
37.3101
 30
0.0
 10
-29.3058
 20
37.3101
 30
0.0
 10
-29.3058
 20
37.3101
 30
0.0
 10
-29.548
 20
37.0373
 30
0.0
 10
-29.548
 20
37.0373
 30
0.0
 10
-29.548
 20
37.0373
 30
0.0
 10
-29.469
 20
36.9197
 30
0.0
 10
-29.4159
 20
36.8167
 30
0.0
 10
-29.3881
 20
36.7288
 30
0.0
 10
-29.3881
 20
36.7288
 30
0.0
 10
-29.3514
 20
36.613
 30
0.0
 10
-29.3331
 20
36.4832
 30
0.0
 10
-29.3331
 20
36.3402
 30
0.0
 10
-29.3331
 20
36.3402
 30
0.0
 10
-29.3331
 20
36.1333
 30
0.0
 10
-29.3749
 20
35.9489
 30
0.0
 10
-29.4587
 20
35.7876
 30
0.0
 10
-29.4587
 20
35.7876
 30
0.0
 10
-29.5424
 20
35.6257
 30
0.0
 10
-29.6595
 20
35.5035
 30
0.0
 10
-29.8105
 20
35.4207
 30
0.0
 10
-29.8105
 20
35.4207
 30
0.0
 10
-29.962
 20
35.3384
 30
0.0
 10
-30.1223
 20
35.297
 30
0.0
 10
-30.2921
 20
35.297
 30
0.0
 10
-30.2921
 20
35.297
 30
0.0
 10
-30.4191
 20
35.297
 30
0.0
 10
-30.5339
 20
35.3148
 30
0.0
 10
-30.6369
 20
35.3506
 30
0.0
 10
-30.6369
 20
35.3506
 30
0.0
 10
-30.7159
 20
35.3783
 30
0.0
 10
-30.8081
 20
35.431
 30
0.0
 10
-30.914
 20
35.5091
 30
0.0
 10
-30.914
 20
35.5091
 30
0.0
 10
-30.914
 20
35.5091
 30
0.0
 10
-31.1454
 20
35.2499
 30
0.0
 10
-31.1454
 20
35.2499
 30
0.0
 10
-31.1454
 20
35.2499
 30
0.0
 10
-31.1454
 20
35.2499
 30
0.0
 10
-31.2818
 20
35.3656
 30
0.0
 10
-31.2818
 20
35.3656
 30
0.0
 10
-31.2818
 20
35.3656
 30
0.0
 10
-31.2818
 20
35.3656
 30
0.0
 10
-31.0391
 20
35.637
 30
0.0
 10
-31.0391
 20
35.637
 30
0.0
 10
-31.0391
 20
35.637
 30
0.0
 10
-31.1294
 20
35.7739
 30
0.0
 10
-31.1896
 20
35.891
 30
0.0
 10
-31.2197
 20
35.9879
 30
0.0
 10
-31.2197
 20
35.9879
 30
0.0
 10
-31.2498
 20
36.0848
 30
0.0
 10
-31.2653
 20
36.2015
 30
0.0
 10
-31.2653
 20
36.3374
 30
0.0
 10
-31.2653
 20
36.3374
 30
0.0
 10
-31.2653
 20
36.5448
 30
0.0
 10
-31.2239
 20
36.7297
 30
0.0
 10
-31.1412
 20
36.892
 30
0.0
 10
-31.1412
 20
36.892
 30
0.0
 10
-31.0584
 20
37.0543
 30
0.0
 10
-30.9427
 20
37.177
 30
0.0
 10
-30.7931
 20
37.2607
 30
0.0
 10
-30.7931
 20
37.2607
 30
0.0
 10
-30.644
 20
37.344
 30
0.0
 10
-30.4779
 20
37.3859
 30
0.0
 10
-30.295
 20
37.3859
 30
0.0
 10
-30.295
 20
37.3859
 30
0.0
 10
-30.1717
 20
37.3859
 30
0.0
 10
-30.064
 20
37.3699
 30
0.0
 10
-29.9718
 20
37.3369
 30
0.0
 10
-29.9718
 20
37.3369
 30
0.0
 10
-29.8796
 20
37.3045
 30
0.0
 10
-29.7799
 20
37.2476
 30
0.0
 10
-29.6736
 20
37.1667
 30
0.0
  0
SPLINE
  5
42
330
1F
100
AcDbEntity
  8
DEFAULT_1
 62
   250
100
AcDbSpline
210
0.0
220
0.0
230
1.0
 70
    11
 71
     3
 72
    32
 73
    28
 74
     0
 42
0.0000000001
 43
0.0000000001
 40
0.0
 40
0.0
 40
0.0
 40
0.0
 40
0.125
 40
0.125
 40
0.125
 40
0.125
 40
0.25
 40
0.25
 40
0.25
 40
0.25
 40
0.375
 40
0.375
 40
0.375
 40
0.375
 40
0.5
 40
0.5
 40
0.5
 40
0.5
 40
0.625
 40
0.625
 40
0.625
 40
0.625
 40
0.75
 40
0.75
 40
0.75
 40
0.75
 40
1.0
 40
1.0
 40
1.0
 40
1.0
 10
-29.8387
 20
36.9809
 30
0.0
 10
-29.9253
 20
37.0486
 30
0.0
 10
-30.001
 20
37.0952
 30
0.0
 10
-30.0654
 20
37.1201
 30
0.0
 10
-30.0654
 20
37.1201
 30
0.0
 10
-30.1303
 20
37.1446
 30
0.0
 10
-30.2065
 20
37.1573
 30
0.0
 10
-30.2936
 20
37.1573
 30
0.0
 10
-30.2936
 20
37.1573
 30
0.0
 10
-30.4949
 20
37.1573
 30
0.0
 10
-30.6609
 20
37.0891
 30
0.0
 10
-30.7926
 20
36.9527
 30
0.0
 10
-30.7926
 20
36.9527
 30
0.0
 10
-30.9239
 20
36.8162
 30
0.0
 10
-30.9897
 20
36.6126
 30
0.0
 10
-30.9897
 20
36.3412
 30
0.0
 10
-30.9897
 20
36.3412
 30
0.0
 10
-30.9897
 20
36.2349
 30
0.0
 10
-30.9794
 20
36.1403
 30
0.0
 10
-30.9591
 20
36.0575
 30
0.0
 10
-30.9591
 20
36.0575
 30
0.0
 10
-30.9445
 20
35.9959
 30
0.0
 10
-30.914
 20
35.9202
 30
0.0
 10
-30.8669
 20
35.8304
 30
0.0
 10
-30.8669
 20
35.8304
 30
0.0
 10
-30.8669
 20
35.8304
 30
0.0
 10
-29.8387
 20
36.9809
 30
0.0
 10
-29.8387
 20
36.9809
 30
0.0
  0
SPLINE
  5
43
330
1F
100
AcDbEntity
  8
DEFAULT_1
 62
   250
100
AcDbSpline
210
0.0
220
0.0
230
1.0
 70
    11
 71
     3
 72
    28
 73
    24
 74
     0
 42
0.0000000001
 43
0.0000000001
 40
0.0
 40
0.0
 40
0.0
 40
0.0
 40
0.1428571428571428
 40
0.1428571428571428
 40
0.1428571428571428
 40
0.1428571428571428
 40
0.2857142857142857
 40
0.2857142857142857
 40
0.2857142857142857
 40
0.2857142857142857
 40
0.4285714285714285
 40
0.4285714285714285
 40
0.4285714285714285
 40
0.4285714285714285
 40
0.5714285714285714
 40
0.5714285714285714
 40
0.5714285714285714
 40
0.5714285714285714
 40
0.7142857142857143
 40
0.7142857142857143
 40
0.7142857142857143
 40
0.7142857142857143
 40
1.0
 40
1.0
 40
1.0
 40
1.0
 10
-29.7258
 20
36.8388
 30
0.0
 10
-29.7258
 20
36.8388
 30
0.0
 10
-30.7498
 20
35.6925
 30
0.0
 10
-30.7498
 20
35.6925
 30
0.0
 10
-30.7498
 20
35.6925
 30
0.0
 10
-30.6793
 20
35.6347
 30
0.0
 10
-30.6139
 20
35.5942
 30
0.0
 10
-30.5541
 20
35.5712
 30
0.0
 10
-30.5541
 20
35.5712
 30
0.0
 10
-30.4761
 20
35.5406
 30
0.0
 10
-30.3914
 20
35.5256
 30
0.0
 10
-30.3006
 20
35.5256
 30
0.0
 10
-30.3006
 20
35.5256
 30
0.0
 10
-30.1002
 20
35.5256
 30
0.0
 10
-29.9351
 20
35.5961
 30
0.0
 10
-29.8044
 20
35.7377
 30
0.0
 10
-29.8044
 20
35.7377
 30
0.0
 10
-29.6741
 20
35.8793
 30
0.0
 10
-29.6087
 20
36.0778
 30
0.0
 10
-29.6087
 20
36.3332
 30
0.0
 10
-29.6087
 20
36.3332
 30
0.0
 10
-29.6087
 20
36.5241
 30
0.0
 10
-29.6477
 20
36.693
 30
0.0
 10
-29.7258
 20
36.8388
 30
0.0
  0
SPLINE
  5
44
330
1F
100
AcDbEntity
  8
DEFAULT_1
 62
   250
100
AcDbSpline
210
0.0
220
0.0
230
1.0
 70
    11
 71
     3
 72
    48
 73
    44
 74
     0
 42
0.0000000001
 43
0.0000000001
 40
0.0
 40
0.0
 40
0.0
 40
0.0
 40
0.0833333333333333
 40
0.0833333333333333
 40
0.0833333333333333
 40
0.0833333333333333
 40
0.1666666666666667
 40
0.1666666666666667
 40
0.1666666666666667
 40
0.1666666666666667
 40
0.25
 40
0.25
 40
0.25
 40
0.25
 40
0.3333333333333333
 40
0.3333333333333333
 40
0.3333333333333333
 40
0.3333333333333333
 40
0.4166666666666667
 40
0.4166666666666667
 40
0.4166666666666667
 40
0.4166666666666667
 40
0.5
 40
0.5
 40
0.5
 40
0.5
 40
0.5833333333333334
 40
0.5833333333333334
 40
0.5833333333333334
 40
0.5833333333333334
 40
0.6666666666666666
 40
0.6666666666666666
 40
0.6666666666666666
 40
0.6666666666666666
 40
0.75
 40
0.75
 40
0.75
 40
0.75
 40
0.8333333333333334
 40
0.8333333333333334
 40
0.8333333333333334
 40
0.8333333333333334
 40
1.0
 40
1.0
 40
1.0
 40
1.0
 10
-29.0673
 20
37.0867
 30
0.0
 10
-29.0673
 20
37.0867
 30
0.0
 10
-29.0673
 20
37.3252
 30
0.0
 10
-29.0673
 20
37.3252
 30
0.0
 10
-29.0673
 20
37.3252
 30
0.0
 10
-29.0673
 20
37.3252
 30
0.0
 10
-27.7597
 20
37.3252
 30
0.0
 10
-27.7597
 20
37.3252
 30
0.0
 10
-27.7597
 20
37.3252
 30
0.0
 10
-27.7597
 20
37.3252
 30
0.0
 10
-27.7597
 20
37.1323
 30
0.0
 10
-27.7597
 20
37.1323
 30
0.0
 10
-27.7597
 20
37.1323
 30
0.0
 10
-27.8881
 20
36.9955
 30
0.0
 10
-28.0156
 20
36.8134
 30
0.0
 10
-28.1421
 20
36.5867
 30
0.0
 10
-28.1421
 20
36.5867
 30
0.0
 10
-28.2682
 20
36.36
 30
0.0
 10
-28.366
 20
36.1262
 30
0.0
 10
-28.4347
 20
35.8868
 30
0.0
 10
-28.4347
 20
35.8868
 30
0.0
 10
-28.4845
 20
35.7175
 30
0.0
 10
-28.516
 20
35.5326
 30
0.0
 10
-28.5297
 20
35.3313
 30
0.0
 10
-28.5297
 20
35.3313
 30
0.0
 10
-28.5297
 20
35.3313
 30
0.0
 10
-28.7846
 20
35.3313
 30
0.0
 10
-28.7846
 20
35.3313
 30
0.0
 10
-28.7846
 20
35.3313
 30
0.0
 10
-28.7818
 20
35.4903
 30
0.0
 10
-28.7508
 20
35.6822
 30
0.0
 10
-28.691
 20
35.9075
 30
0.0
 10
-28.691
 20
35.9075
 30
0.0
 10
-28.6313
 20
36.1323
 30
0.0
 10
-28.5457
 20
36.3496
 30
0.0
 10
-28.4342
 20
36.5585
 30
0.0
 10
-28.4342
 20
36.5585
 30
0.0
 10
-28.3223
 20
36.7673
 30
0.0
 10
-28.2037
 20
36.9437
 30
0.0
 10
-28.0777
 20
37.0867
 30
0.0
 10
-28.0777
 20
37.0867
 30
0.0
 10
-28.0777
 20
37.0867
 30
0.0
 10
-29.0673
 20
37.0867
 30
0.0
 10
-29.0673
 20
37.0867
 30
0.0
  0
SPLINE
  5
45
330
1F
100
AcDbEntity
  8
DEFAULT_1
 62
   250
100
AcDbSpline
210
0.0
220
0.0
230
1.0
 70
    11
 71
     3
 72
    52
 73
    48
 74
     0
 42
0.0000000001
 43
0.0000000001
 40
0.0
 40
0.0
 40
0.0
 40
0.0
 40
0.0769230769230769
 40
0.0769230769230769
 40
0.0769230769230769
 40
0.0769230769230769
 40
0.1538461538461539
 40
0.1538461538461539
 40
0.1538461538461539
 40
0.1538461538461539
 40
0.2307692307692308
 40
0.2307692307692308
 40
0.2307692307692308
 40
0.2307692307692308
 40
0.3076923076923077
 40
0.3076923076923077
 40
0.3076923076923077
 40
0.3076923076923077
 40
0.3846153846153846
 40
0.3846153846153846
 40
0.3846153846153846
 40
0.3846153846153846
 40
0.4615384615384616
 40
0.4615384615384616
 40
0.4615384615384616
 40
0.4615384615384616
 40
0.5384615384615384
 40
0.5384615384615384
 40
0.5384615384615384
 40
0.5384615384615384
 40
0.6153846153846154
 40
0.6153846153846154
 40
0.6153846153846154
 40
0.6153846153846154
 40
0.6923076923076923
 40
0.6923076923076923
 40
0.6923076923076923
 40
0.6923076923076923
 40
0.7692307692307693
 40
0.7692307692307693
 40
0.7692307692307693
 40
0.7692307692307693
 40
0.8461538461538461
 40
0.8461538461538461
 40
0.8461538461538461
 40
0.8461538461538461
 40
1.0
 40
1.0
 40
1.0
 40
1.0
 10
-27.5142
 20
36.3275
 30
0.0
 10
-27.5142
 20
36.5665
 30
0.0
 10
-27.4897
 20
36.7589
 30
0.0
 10
-27.4403
 20
36.9042
 30
0.0
 10
-27.4403
 20
36.9042
 30
0.0
 10
-27.3914
 20
37.05
 30
0.0
 10
-27.318
 20
37.1624
 30
0.0
 10
-27.2211
 20
37.2415
 30
0.0
 10
-27.2211
 20
37.2415
 30
0.0
 10
-27.1242
 20
37.3205
 30
0.0
 10
-27.0024
 20
37.36
 30
0.0
 10
-26.8557
 20
37.36
 30
0.0
 10
-26.8557
 20
37.36
 30
0.0
 10
-26.747
 20
37.36
 30
0.0
 10
-26.652
 20
37.3379
 30
0.0
 10
-26.5702
 20
37.2941
 30
0.0
 10
-26.5702
 20
37.2941
 30
0.0
 10
-26.4883
 20
37.2509
 30
0.0
 10
-26.421
 20
37.1878
 30
0.0
 10
-26.3674
 20
37.1055
 30
0.0
 10
-26.3674
 20
37.1055
 30
0.0
 10
-26.3143
 20
37.0232
 30
0.0
 10
-26.2724
 20
36.923
 30
0.0
 10
-26.2423
 20
36.805
 30
0.0
 10
-26.2423
 20
36.805
 30
0.0
 10
-26.2117
 20
36.6869
 30
0.0
 10
-26.1967
 20
36.5279
 30
0.0
 10
-26.1967
 20
36.3275
 30
0.0
 10
-26.1967
 20
36.3275
 30
0.0
 10
-26.1967
 20
36.0905
 30
0.0
 10
-26.2211
 20
35.8995
 30
0.0
 10
-26.2696
 20
35.7537
 30
0.0
 10
-26.2696
 20
35.7537
 30
0.0
 10
-26.3185
 20
35.6079
 30
0.0
 10
-26.3914
 20
35.4955
 30
0.0
 10
-26.4883
 20
35.416
 30
0.0
 10
-26.4883
 20
35.416
 30
0.0
 10
-26.5852
 20
35.3365
 30
0.0
 10
-26.7075
 20
35.297
 30
0.0
 10
-26.8557
 20
35.297
 30
0.0
 10
-26.8557
 20
35.297
 30
0.0
 10
-27.0504
 20
35.297
 30
0.0
 10
-27.2033
 20
35.3666
 30
0.0
 10
-27.3143
 20
35.5063
 30
0.0
 10
-27.3143
 20
35.5063
 30
0.0
 10
-27.4474
 20
35.6742
 30
0.0
 10
-27.5142
 20
35.9484
 30
0.0
 10
-27.5142
 20
36.3275
 30
0.0
  0
SPLINE
  5
46
330
1F
100
AcDbEntity
  8
DEFAULT_1
 62
   250
100
AcDbSpline
210
0.0
220
0.0
230
1.0
 70
    11
 71
     3
 72
    36
 73
    32
 74
     0
 42
0.0000000001
 43
0.0000000001
 40
0.0
 40
0.0
 40
0.0
 40
0.0
 40
0.1111111111111111
 40
0.1111111111111111
 40
0.1111111111111111
 40
0.1111111111111111
 40
0.2222222222222222
 40
0.2222222222222222
 40
0.2222222222222222
 40
0.2222222222222222
 40
0.3333333333333333
 40
0.3333333333333333
 40
0.3333333333333333
 40
0.3333333333333333
 40
0.4444444444444444
 40
0.4444444444444444
 40
0.4444444444444444
 40
0.4444444444444444
 40
0.5555555555555556
 40
0.5555555555555556
 40
0.5555555555555556
 40
0.5555555555555556
 40
0.6666666666666666
 40
0.6666666666666666
 40
0.6666666666666666
 40
0.6666666666666666
 40
0.7777777777777778
 40
0.7777777777777778
 40
0.7777777777777778
 40
0.7777777777777778
 40
1.0
 40
1.0
 40
1.0
 40
1.0
 10
-27.2592
 20
36.3275
 30
0.0
 10
-27.2592
 20
35.9959
 30
0.0
 10
-27.2202
 20
35.7753
 30
0.0
 10
-27.1426
 20
35.6653
 30
0.0
 10
-27.1426
 20
35.6653
 30
0.0
 10
-27.065
 20
35.5557
 30
0.0
 10
-26.9695
 20
35.5006
 30
0.0
 10
-26.8557
 20
35.5006
 30
0.0
 10
-26.8557
 20
35.5006
 30
0.0
 10
-26.7414
 20
35.5006
 30
0.0
 10
-26.6459
 20
35.5561
 30
0.0
 10
-26.5683
 20
35.6662
 30
0.0
 10
-26.5683
 20
35.6662
 30
0.0
 10
-26.4907
 20
35.7763
 30
0.0
 10
-26.4516
 20
35.9969
 30
0.0
 10
-26.4516
 20
36.3275
 30
0.0
 10
-26.4516
 20
36.3275
 30
0.0
 10
-26.4516
 20
36.6601
 30
0.0
 10
-26.4907
 20
36.8812
 30
0.0
 10
-26.5683
 20
36.9903
 30
0.0
 10
-26.5683
 20
36.9903
 30
0.0
 10
-26.6459
 20
37.0999
 30
0.0
 10
-26.7423
 20
37.1544
 30
0.0
 10
-26.858
 20
37.1544
 30
0.0
 10
-26.858
 20
37.1544
 30
0.0
 10
-26.9723
 20
37.1544
 30
0.0
 10
-27.0631
 20
37.106
 30
0.0
 10
-27.1313
 20
37.0096
 30
0.0
 10
-27.1313
 20
37.0096
 30
0.0
 10
-27.2164
 20
36.8868
 30
0.0
 10
-27.2592
 20
36.6591
 30
0.0
 10
-27.2592
 20
36.3275
 30
0.0
  0
SPLINE
  5
47
330
1F
100
AcDbEntity
  8
DEFAULT_1
 62
   250
100
AcDbSpline
210
0.0
220
0.0
230
1.0
 70
    24
 71
     3
 72
     8
 73
     4
 74
     0
 42
0.0000000001
 43
0.0000000001
 40
0.0
 40
0.0
 40
0.0
 40
0.0
 40
1.0
 40
1.0
 40
1.0
 40
1.0
 10
-37.0635
 20
29.8589
 30
0.0
 10
-37.0635
 20
29.8589
 30
0.0
 10
-37.0635
 20
35.2953
 30
0.0
 10
-37.0635
 20
35.2953
 30
0.0
  0
SPLINE
  5
48
330
1F
100
AcDbEntity
  8
DEFAULT_1
 62
   250
100
AcDbSpline
210
0.0
220
0.0
230
1.0
 70
    24
 71
     3
 72
     8
 73
     4
 74
     0
 42
0.0000000001
 43
0.0000000001
 40
0.0
 40
0.0
 40
0.0
 40
0.0
 40
1.0
 40
1.0
 40
1.0
 40
1.0
 10
-21.043
 20
29.8589
 30
0.0
 10
-21.043
 20
29.8589
 30
0.0
 10
-21.043
 20
35.474
 30
0.0
 10
-21.043
 20
35.474
 30
0.0
  0
SPLINE
  5
49
330
1F
100
AcDbEntity
  8
DEFAULT_1
 62
   250
100
AcDbSpline
210
0.0
220
0.0
230
1.0
 70
    24
 71
     3
 72
     8
 73
     4
 74
     0
 42
0.0000000001
 43
0.0000000001
 40
0.0
 40
0.0
 40
0.0
 40
0.0
 40
1.0
 40
1.0
 40
1.0
 40
1.0
 10
-21.5988
 20
34.9127
 30
0.0
 10
-21.5988
 20
34.9127
 30
0.0
 10
-36.4437
 20
34.9127
 30
0.0
 10
-36.4437
 20
34.9127
 30
0.0
  0
SPLINE
  5
4A
330
1F
100
AcDbEntity
  8
DEFAULT_1
 62
   250
100
AcDbSpline
210
0.0
220
0.0
230
1.0
 70
    11
 71
     3
 72
    40
 73
    36
 74
     0
 42
0.0000000001
 43
0.0000000001
 40
0.0
 40
0.0
 40
0.0
 40
0.0
 40
0.1
 40
0.1
 40
0.1
 40
0.1
 40
0.2
 40
0.2
 40
0.2
 40
0.2
 40
0.3
 40
0.3
 40
0.3
 40
0.3
 40
0.4
 40
0.4
 40
0.4
 40
0.4
 40
0.5
 40
0.5
 40
0.5
 40
0.5
 40
0.6
 40
0.6
 40
0.6
 40
0.6
 40
0.7
 40
0.7
 40
0.7
 40
0.7
 40
0.8
 40
0.8
 40
0.8
 40
0.8
 40
1.0
 40
1.0
 40
1.0
 40
1.0
 10
-44.5726
 20
-33.8907
 30
0.0
 10
-44.5726
 20
-33.8907
 30
0.0
 10
-44.5726
 20
-34.1386
 30
0.0
 10
-44.5726
 20
-34.1386
 30
0.0
 10
-44.5726
 20
-34.1386
 30
0.0
 10
-44.5726
 20
-34.1386
 30
0.0
 10
-46.153
 20
-34.1386
 30
0.0
 10
-46.153
 20
-34.1386
 30
0.0
 10
-46.153
 20
-34.1386
 30
0.0
 10
-46.0961
 20
-34.1984
 30
0.0
 10
-46.0392
 20
-34.2764
 30
0.0
 10
-45.9823
 20
-34.3733
 30
0.0
 10
-45.9823
 20
-34.3733
 30
0.0
 10
-45.9254
 20
-34.4707
 30
0.0
 10
-45.8826
 20
-34.5577
 30
0.0
 10
-45.8543
 20
-34.6349
 30
0.0
 10
-45.8543
 20
-34.6349
 30
0.0
 10
-45.8543
 20
-34.6349
 30
0.0
 10
-46.0938
 20
-34.6349
 30
0.0
 10
-46.0938
 20
-34.6349
 30
0.0
 10
-46.0938
 20
-34.6349
 30
0.0
 10
-46.1591
 20
-34.4961
 30
0.0
 10
-46.2382
 20
-34.3747
 30
0.0
 10
-46.3308
 20
-34.2708
 30
0.0
 10
-46.3308
 20
-34.2708
 30
0.0
 10
-46.424
 20
-34.1673
 30
0.0
 10
-46.5138
 20
-34.0935
 30
0.0
 10
-46.6013
 20
-34.0502
 30
0.0
 10
-46.6013
 20
-34.0502
 30
0.0
 10
-46.6013
 20
-34.0502
 30
0.0
 10
-46.6013
 20
-33.8907
 30
0.0
 10
-46.6013
 20
-33.8907
 30
0.0
 10
-46.6013
 20
-33.8907
 30
0.0
 10
-46.6013
 20
-33.8907
 30
0.0
 10
-44.5726
 20
-33.8907
 30
0.0
 10
-44.5726
 20
-33.8907
 30
0.0
  0
SPLINE
  5
4B
330
1F
100
AcDbEntity
  8
DEFAULT_1
 62
   250
100
AcDbSpline
210
0.0
220
0.0
230
1.0
 70
    11
 71
     3
 72
    40
 73
    36
 74
     0
 42
0.0000000001
 43
0.0000000001
 40
0.0
 40
0.0
 40
0.0
 40
0.0
 40
0.1
 40
0.1
 40
0.1
 40
0.1
 40
0.2
 40
0.2
 40
0.2
 40
0.2
 40
0.3
 40
0.3
 40
0.3
 40
0.3
 40
0.4
 40
0.4
 40
0.4
 40
0.4
 40
0.5
 40
0.5
 40
0.5
 40
0.5
 40
0.6
 40
0.6
 40
0.6
 40
0.6
 40
0.7
 40
0.7
 40
0.7
 40
0.7
 40
0.8
 40
0.8
 40
0.8
 40
0.8
 40
1.0
 40
1.0
 40
1.0
 40
1.0
 10
-44.5726
 20
-32.5304
 30
0.0
 10
-44.5726
 20
-32.5304
 30
0.0
 10
-44.5726
 20
-32.7783
 30
0.0
 10
-44.5726
 20
-32.7783
 30
0.0
 10
-44.5726
 20
-32.7783
 30
0.0
 10
-44.5726
 20
-32.7783
 30
0.0
 10
-46.153
 20
-32.7783
 30
0.0
 10
-46.153
 20
-32.7783
 30
0.0
 10
-46.153
 20
-32.7783
 30
0.0
 10
-46.0961
 20
-32.8381
 30
0.0
 10
-46.0392
 20
-32.9161
 30
0.0
 10
-45.9823
 20
-33.013
 30
0.0
 10
-45.9823
 20
-33.013
 30
0.0
 10
-45.9254
 20
-33.1104
 30
0.0
 10
-45.8826
 20
-33.1974
 30
0.0
 10
-45.8543
 20
-33.2746
 30
0.0
 10
-45.8543
 20
-33.2746
 30
0.0
 10
-45.8543
 20
-33.2746
 30
0.0
 10
-46.0938
 20
-33.2746
 30
0.0
 10
-46.0938
 20
-33.2746
 30
0.0
 10
-46.0938
 20
-33.2746
 30
0.0
 10
-46.1591
 20
-33.1358
 30
0.0
 10
-46.2382
 20
-33.0144
 30
0.0
 10
-46.3308
 20
-32.9105
 30
0.0
 10
-46.3308
 20
-32.9105
 30
0.0
 10
-46.424
 20
-32.807
 30
0.0
 10
-46.5138
 20
-32.7332
 30
0.0
 10
-46.6013
 20
-32.6899
 30
0.0
 10
-46.6013
 20
-32.6899
 30
0.0
 10
-46.6013
 20
-32.6899
 30
0.0
 10
-46.6013
 20
-32.5304
 30
0.0
 10
-46.6013
 20
-32.5304
 30
0.0
 10
-46.6013
 20
-32.5304
 30
0.0
 10
-46.6013
 20
-32.5304
 30
0.0
 10
-44.5726
 20
-32.5304
 30
0.0
 10
-44.5726
 20
-32.5304
 30
0.0
  0
SPLINE
  5
4C
330
1F
100
AcDbEntity
  8
DEFAULT_1
 62
   250
100
AcDbSpline
210
0.0
220
0.0
230
1.0
 70
    11
 71
     3
 72
    92
 73
    88
 74
     0
 42
0.0000000001
 43
0.0000000001
 40
0.0
 40
0.0
 40
0.0
 40
0.0
 40
0.0434782608695652
 40
0.0434782608695652
 40
0.0434782608695652
 40
0.0434782608695652
 40
0.0869565217391304
 40
0.0869565217391304
 40
0.0869565217391304
 40
0.0869565217391304
 40
0.1304347826086956
 40
0.1304347826086956
 40
0.1304347826086956
 40
0.1304347826086956
 40
0.1739130434782609
 40
0.1739130434782609
 40
0.1739130434782609
 40
0.1739130434782609
 40
0.2173913043478261
 40
0.2173913043478261
 40
0.2173913043478261
 40
0.2173913043478261
 40
0.2608695652173913
 40
0.2608695652173913
 40
0.2608695652173913
 40
0.2608695652173913
 40
0.3043478260869565
 40
0.3043478260869565
 40
0.3043478260869565
 40
0.3043478260869565
 40
0.3478260869565217
 40
0.3478260869565217
 40
0.3478260869565217
 40
0.3478260869565217
 40
0.391304347826087
 40
0.391304347826087
 40
0.391304347826087
 40
0.391304347826087
 40
0.4347826086956522
 40
0.4347826086956522
 40
0.4347826086956522
 40
0.4347826086956522
 40
0.4782608695652174
 40
0.4782608695652174
 40
0.4782608695652174
 40
0.4782608695652174
 40
0.5217391304347826
 40
0.5217391304347826
 40
0.5217391304347826
 40
0.5217391304347826
 40
0.5652173913043478
 40
0.5652173913043478
 40
0.5652173913043478
 40
0.5652173913043478
 40
0.6086956521739131
 40
0.6086956521739131
 40
0.6086956521739131
 40
0.6086956521739131
 40
0.6521739130434783
 40
0.6521739130434783
 40
0.6521739130434783
 40
0.6521739130434783
 40
0.6956521739130435
 40
0.6956521739130435
 40
0.6956521739130435
 40
0.6956521739130435
 40
0.7391304347826086
 40
0.7391304347826086
 40
0.7391304347826086
 40
0.7391304347826086
 40
0.782608695652174
 40
0.782608695652174
 40
0.782608695652174
 40
0.782608695652174
 40
0.8260869565217391
 40
0.8260869565217391
 40
0.8260869565217391
 40
0.8260869565217391
 40
0.8695652173913043
 40
0.8695652173913043
 40
0.8695652173913043
 40
0.8695652173913043
 40
0.9130434782608695
 40
0.9130434782608695
 40
0.9130434782608695
 40
0.9130434782608695
 40
1.0
 40
1.0
 40
1.0
 40
1.0
 10
-45.1018
 20
-31.895
 30
0.0
 10
-45.1018
 20
-31.895
 30
0.0
 10
-45.1239
 20
-31.6344
 30
0.0
 10
-45.1239
 20
-31.6344
 30
0.0
 10
-45.1239
 20
-31.6344
 30
0.0
 10
-44.9969
 20
-31.6151
 30
0.0
 10
-44.9019
 20
-31.5704
 30
0.0
 10
-44.8379
 20
-31.5003
 30
0.0
 10
-44.8379
 20
-31.5003
 30
0.0
 10
-44.7739
 20
-31.4298
 30
0.0
 10
-44.7419
 20
-31.3451
 30
0.0
 10
-44.7419
 20
-31.2459
 30
0.0
 10
-44.7419
 20
-31.2459
 30
0.0
 10
-44.7419
 20
-31.1264
 30
0.0
 10
-44.7871
 20
-31.0253
 30
0.0
 10
-44.8769
 20
-30.943
 30
0.0
 10
-44.8769
 20
-30.943
 30
0.0
 10
-44.9672
 20
-30.8602
 30
0.0
 10
-45.0867
 20
-30.8188
 30
0.0
 10
-45.2353
 20
-30.8188
 30
0.0
 10
-45.2353
 20
-30.8188
 30
0.0
 10
-45.3769
 20
-30.8188
 30
0.0
 10
-45.4884
 20
-30.8583
 30
0.0
 10
-45.5702
 20
-30.9378
 30
0.0
 10
-45.5702
 20
-30.9378
 30
0.0
 10
-45.6521
 20
-31.0173
 30
0.0
 10
-45.693
 20
-31.1212
 30
0.0
 10
-45.693
 20
-31.2501
 30
0.0
 10
-45.693
 20
-31.2501
 30
0.0
 10
-45.693
 20
-31.3301
 30
0.0
 10
-45.6747
 20
-31.402
 30
0.0
 10
-45.6385
 20
-31.4665
 30
0.0
 10
-45.6385
 20
-31.4665
 30
0.0
 10
-45.6022
 20
-31.5309
 30
0.0
 10
-45.5552
 20
-31.5812
 30
0.0
 10
-45.4973
 20
-31.6179
 30
0.0
 10
-45.4973
 20
-31.6179
 30
0.0
 10
-45.4973
 20
-31.6179
 30
0.0
 10
-45.5274
 20
-31.8508
 30
0.0
 10
-45.5274
 20
-31.8508
 30
0.0
 10
-45.5274
 20
-31.8508
 30
0.0
 10
-45.5274
 20
-31.8508
 30
0.0
 10
-46.5651
 20
-31.6551
 30
0.0
 10
-46.5651
 20
-31.6551
 30
0.0
 10
-46.5651
 20
-31.6551
 30
0.0
 10
-46.5651
 20
-31.6551
 30
0.0
 10
-46.5651
 20
-30.6504
 30
0.0
 10
-46.5651
 20
-30.6504
 30
0.0
 10
-46.5651
 20
-30.6504
 30
0.0
 10
-46.5651
 20
-30.6504
 30
0.0
 10
-46.328
 20
-30.6504
 30
0.0
 10
-46.328
 20
-30.6504
 30
0.0
 10
-46.328
 20
-30.6504
 30
0.0
 10
-46.328
 20
-30.6504
 30
0.0
 10
-46.328
 20
-31.4566
 30
0.0
 10
-46.328
 20
-31.4566
 30
0.0
 10
-46.328
 20
-31.4566
 30
0.0
 10
-46.328
 20
-31.4566
 30
0.0
 10
-45.7852
 20
-31.5657
 30
0.0
 10
-45.7852
 20
-31.5657
 30
0.0
 10
-45.7852
 20
-31.5657
 30
0.0
 10
-45.8699
 20
-31.4444
 30
0.0
 10
-45.9122
 20
-31.3169
 30
0.0
 10
-45.9122
 20
-31.1838
 30
0.0
 10
-45.9122
 20
-31.1838
 30
0.0
 10
-45.9122
 20
-31.0074
 30
0.0
 10
-45.8511
 20
-30.8588
 30
0.0
 10
-45.7288
 20
-30.7374
 30
0.0
 10
-45.7288
 20
-30.7374
 30
0.0
 10
-45.6065
 20
-30.6161
 30
0.0
 10
-45.4494
 20
-30.5554
 30
0.0
 10
-45.2575
 20
-30.5554
 30
0.0
 10
-45.2575
 20
-30.5554
 30
0.0
 10
-45.0745
 20
-30.5554
 30
0.0
 10
-44.9164
 20
-30.609
 30
0.0
 10
-44.7833
 20
-30.7153
 30
0.0
 10
-44.7833
 20
-30.7153
 30
0.0
 10
-44.6201
 20
-30.8451
 30
0.0
 10
-44.5383
 20
-31.022
 30
0.0
 10
-44.5383
 20
-31.2459
 30
0.0
 10
-44.5383
 20
-31.2459
 30
0.0
 10
-44.5383
 20
-31.4298
 30
0.0
 10
-44.5895
 20
-31.5798
 30
0.0
 10
-44.6925
 20
-31.696
 30
0.0
 10
-44.6925
 20
-31.696
 30
0.0
 10
-44.7956
 20
-31.8122
 30
0.0
 10
-44.932
 20
-31.8785
 30
0.0
 10
-45.1018
 20
-31.895
 30
0.0
  0
SPLINE
  5
4D
330
1F
100
AcDbEntity
  8
DEFAULT_1
 62
   250
100
AcDbSpline
210
0.0
220
0.0
230
1.0
 70
    24
 71
     3
 72
     8
 73
     4
 74
     0
 42
0.0000000001
 43
0.0000000001
 40
0.0
 40
0.0
 40
0.0
 40
0.0
 40
1.0
 40
1.0
 40
1.0
 40
1.0
 10
-27.1292
 20
-46.1613
 30
0.0
 10
-27.1292
 20
-46.1613
 30
0.0
 10
-44.7382
 20
-46.1613
 30
0.0
 10
-44.7382
 20
-46.1613
 30
0.0
  0
SPLINE
  5
4E
330
1F
100
AcDbEntity
  8
DEFAULT_1
 62
   250
100
AcDbSpline
210
0.0
220
0.0
230
1.0
 70
    24
 71
     3
 72
     8
 73
     4
 74
     0
 42
0.0000000001
 43
0.0000000001
 40
0.0
 40
0.0
 40
0.0
 40
0.0
 40
1.0
 40
1.0
 40
1.0
 40
1.0
 10
-20.8126
 20
-19.0623
 30
0.0
 10
-20.8126
 20
-19.0623
 30
0.0
 10
-44.8489
 20
-19.0623
 30
0.0
 10
-44.8489
 20
-19.0623
 30
0.0
  0
SPLINE
  5
4F
330
1F
100
AcDbEntity
  8
DEFAULT_1
 62
   250
100
AcDbSpline
210
0.0
220
0.0
230
1.0
 70
    24
 71
     3
 72
     8
 73
     4
 74
     0
 42
0.0000000001
 43
0.0000000001
 40
0.0
 40
0.0
 40
0.0
 40
0.0
 40
1.0
 40
1.0
 40
1.0
 40
1.0
 10
-44.1496
 20
-19.0623
 30
0.0
 10
-44.1496
 20
-19.0623
 30
0.0
 10
-44.1496
 20
-45.393
 30
0.0
 10
-44.1496
 20
-45.393
 30
0.0
  0
SPLINE
  5
50
330
1F
100
AcDbEntity
  8
DEFAULT_1
 62
   250
100
AcDbSpline
210
0.0
220
0.0
230
1.0
 70
    11
 71
     3
 72
    92
 73
    88
 74
     0
 42
0.0000000001
 43
0.0000000001
 40
0.0
 40
0.0
 40
0.0
 40
0.0
 40
0.0434782608695652
 40
0.0434782608695652
 40
0.0434782608695652
 40
0.0434782608695652
 40
0.0869565217391304
 40
0.0869565217391304
 40
0.0869565217391304
 40
0.0869565217391304
 40
0.1304347826086956
 40
0.1304347826086956
 40
0.1304347826086956
 40
0.1304347826086956
 40
0.1739130434782609
 40
0.1739130434782609
 40
0.1739130434782609
 40
0.1739130434782609
 40
0.2173913043478261
 40
0.2173913043478261
 40
0.2173913043478261
 40
0.2173913043478261
 40
0.2608695652173913
 40
0.2608695652173913
 40
0.2608695652173913
 40
0.2608695652173913
 40
0.3043478260869565
 40
0.3043478260869565
 40
0.3043478260869565
 40
0.3043478260869565
 40
0.3478260869565217
 40
0.3478260869565217
 40
0.3478260869565217
 40
0.3478260869565217
 40
0.391304347826087
 40
0.391304347826087
 40
0.391304347826087
 40
0.391304347826087
 40
0.4347826086956522
 40
0.4347826086956522
 40
0.4347826086956522
 40
0.4347826086956522
 40
0.4782608695652174
 40
0.4782608695652174
 40
0.4782608695652174
 40
0.4782608695652174
 40
0.5217391304347826
 40
0.5217391304347826
 40
0.5217391304347826
 40
0.5217391304347826
 40
0.5652173913043478
 40
0.5652173913043478
 40
0.5652173913043478
 40
0.5652173913043478
 40
0.6086956521739131
 40
0.6086956521739131
 40
0.6086956521739131
 40
0.6086956521739131
 40
0.6521739130434783
 40
0.6521739130434783
 40
0.6521739130434783
 40
0.6521739130434783
 40
0.6956521739130435
 40
0.6956521739130435
 40
0.6956521739130435
 40
0.6956521739130435
 40
0.7391304347826086
 40
0.7391304347826086
 40
0.7391304347826086
 40
0.7391304347826086
 40
0.782608695652174
 40
0.782608695652174
 40
0.782608695652174
 40
0.782608695652174
 40
0.8260869565217391
 40
0.8260869565217391
 40
0.8260869565217391
 40
0.8260869565217391
 40
0.8695652173913043
 40
0.8695652173913043
 40
0.8695652173913043
 40
0.8695652173913043
 40
0.9130434782608695
 40
0.9130434782608695
 40
0.9130434782608695
 40
0.9130434782608695
 40
1.0
 40
1.0
 40
1.0
 40
1.0
 10
-44.935
 20
-6.2709
 30
0.0
 10
-44.935
 20
-6.2709
 30
0.0
 10
-44.6965
 20
-6.2709
 30
0.0
 10
-44.6965
 20
-6.2709
 30
0.0
 10
-44.6965
 20
-6.2709
 30
0.0
 10
-44.6965
 20
-6.2709
 30
0.0
 10
-44.6965
 20
-7.6063
 30
0.0
 10
-44.6965
 20
-7.6063
 30
0.0
 10
-44.6965
 20
-7.6063
 30
0.0
 10
-44.7562
 20
-7.6082
 30
0.0
 10
-44.8136
 20
-7.5988
 30
0.0
 10
-44.8687
 20
-7.5776
 30
0.0
 10
-44.8687
 20
-7.5776
 30
0.0
 10
-44.9599
 20
-7.5437
 30
0.0
 10
-45.0493
 20
-7.4892
 30
0.0
 10
-45.1377
 20
-7.4144
 30
0.0
 10
-45.1377
 20
-7.4144
 30
0.0
 10
-45.2257
 20
-7.3391
 30
0.0
 10
-45.3277
 20
-7.2309
 30
0.0
 10
-45.4434
 20
-7.0898
 30
0.0
 10
-45.4434
 20
-7.0898
 30
0.0
 10
-45.6236
 20
-6.8702
 30
0.0
 10
-45.7661
 20
-6.7215
 30
0.0
 10
-45.8715
 20
-6.6444
 30
0.0
 10
-45.8715
 20
-6.6444
 30
0.0
 10
-45.9764
 20
-6.5673
 30
0.0
 10
-46.0761
 20
-6.5287
 30
0.0
 10
-46.1697
 20
-6.5287
 30
0.0
 10
-46.1697
 20
-6.5287
 30
0.0
 10
-46.268
 20
-6.5287
 30
0.0
 10
-46.3508
 20
-6.564
 30
0.0
 10
-46.4185
 20
-6.634
 30
0.0
 10
-46.4185
 20
-6.634
 30
0.0
 10
-46.4858
 20
-6.7046
 30
0.0
 10
-46.5196
 20
-6.7963
 30
0.0
 10
-46.5196
 20
-6.9092
 30
0.0
 10
-46.5196
 20
-6.9092
 30
0.0
 10
-46.5196
 20
-7.0287
 30
0.0
 10
-46.4839
 20
-7.1242
 30
0.0
 10
-46.4119
 20
-7.1957
 30
0.0
 10
-46.4119
 20
-7.1957
 30
0.0
 10
-46.3404
 20
-7.2676
 30
0.0
 10
-46.2412
 20
-7.3038
 30
0.0
 10
-46.1147
 20
-7.3048
 30
0.0
 10
-46.1147
 20
-7.3048
 30
0.0
 10
-46.1147
 20
-7.3048
 30
0.0
 10
-46.1405
 20
-7.5597
 30
0.0
 10
-46.1405
 20
-7.5597
 30
0.0
 10
-46.1405
 20
-7.5597
 30
0.0
 10
-46.331
 20
-7.5423
 30
0.0
 10
-46.4759
 20
-7.4765
 30
0.0
 10
-46.5756
 20
-7.3626
 30
0.0
 10
-46.5756
 20
-7.3626
 30
0.0
 10
-46.6753
 20
-7.2488
 30
0.0
 10
-46.7252
 20
-7.0955
 30
0.0
 10
-46.7252
 20
-6.9036
 30
0.0
 10
-46.7252
 20
-6.9036
 30
0.0
 10
-46.7252
 20
-6.7098
 30
0.0
 10
-46.6711
 20
-6.5564
 30
0.0
 10
-46.5639
 20
-6.4435
 30
0.0
 10
-46.5639
 20
-6.4435
 30
0.0
 10
-46.4561
 20
-6.3302
 30
0.0
 10
-46.323
 20
-6.2737
 30
0.0
 10
-46.164
 20
-6.2737
 30
0.0
 10
-46.164
 20
-6.2737
 30
0.0
 10
-46.0831
 20
-6.2737
 30
0.0
 10
-46.0036
 20
-6.2902
 30
0.0
 10
-45.9256
 20
-6.3236
 30
0.0
 10
-45.9256
 20
-6.3236
 30
0.0
 10
-45.8475
 20
-6.3565
 30
0.0
 10
-45.7652
 20
-6.4116
 30
0.0
 10
-45.6791
 20
-6.4882
 30
0.0
 10
-45.6791
 20
-6.4882
 30
0.0
 10
-45.5925
 20
-6.5649
 30
0.0
 10
-45.474
 20
-6.6924
 30
0.0
 10
-45.3235
 20
-6.8706
 30
0.0
 10
-45.3235
 20
-6.8706
 30
0.0
 10
-45.1984
 20
-7.0193
 30
0.0
 10
-45.1137
 20
-7.1148
 30
0.0
 10
-45.069
 20
-7.1571
 30
0.0
 10
-45.069
 20
-7.1571
 30
0.0
 10
-45.0248
 20
-7.1994
 30
0.0
 10
-44.9801
 20
-7.2342
 30
0.0
 10
-44.935
 20
-7.262
 30
0.0
 10
-44.935
 20
-7.262
 30
0.0
 10
-44.935
 20
-7.262
 30
0.0
 10
-44.935
 20
-6.2709
 30
0.0
 10
-44.935
 20
-6.2709
 30
0.0
  0
SPLINE
  5
51
330
1F
100
AcDbEntity
  8
DEFAULT_1
 62
   250
100
AcDbSpline
210
0.0
220
0.0
230
1.0
 70
    11
 71
     3
 72
    92
 73
    88
 74
     0
 42
0.0000000001
 43
0.0000000001
 40
0.0
 40
0.0
 40
0.0
 40
0.0
 40
0.0434782608695652
 40
0.0434782608695652
 40
0.0434782608695652
 40
0.0434782608695652
 40
0.0869565217391304
 40
0.0869565217391304
 40
0.0869565217391304
 40
0.0869565217391304
 40
0.1304347826086956
 40
0.1304347826086956
 40
0.1304347826086956
 40
0.1304347826086956
 40
0.1739130434782609
 40
0.1739130434782609
 40
0.1739130434782609
 40
0.1739130434782609
 40
0.2173913043478261
 40
0.2173913043478261
 40
0.2173913043478261
 40
0.2173913043478261
 40
0.2608695652173913
 40
0.2608695652173913
 40
0.2608695652173913
 40
0.2608695652173913
 40
0.3043478260869565
 40
0.3043478260869565
 40
0.3043478260869565
 40
0.3043478260869565
 40
0.3478260869565217
 40
0.3478260869565217
 40
0.3478260869565217
 40
0.3478260869565217
 40
0.391304347826087
 40
0.391304347826087
 40
0.391304347826087
 40
0.391304347826087
 40
0.4347826086956522
 40
0.4347826086956522
 40
0.4347826086956522
 40
0.4347826086956522
 40
0.4782608695652174
 40
0.4782608695652174
 40
0.4782608695652174
 40
0.4782608695652174
 40
0.5217391304347826
 40
0.5217391304347826
 40
0.5217391304347826
 40
0.5217391304347826
 40
0.5652173913043478
 40
0.5652173913043478
 40
0.5652173913043478
 40
0.5652173913043478
 40
0.6086956521739131
 40
0.6086956521739131
 40
0.6086956521739131
 40
0.6086956521739131
 40
0.6521739130434783
 40
0.6521739130434783
 40
0.6521739130434783
 40
0.6521739130434783
 40
0.6956521739130435
 40
0.6956521739130435
 40
0.6956521739130435
 40
0.6956521739130435
 40
0.7391304347826086
 40
0.7391304347826086
 40
0.7391304347826086
 40
0.7391304347826086
 40
0.782608695652174
 40
0.782608695652174
 40
0.782608695652174
 40
0.782608695652174
 40
0.8260869565217391
 40
0.8260869565217391
 40
0.8260869565217391
 40
0.8260869565217391
 40
0.8695652173913043
 40
0.8695652173913043
 40
0.8695652173913043
 40
0.8695652173913043
 40
0.9130434782608695
 40
0.9130434782608695
 40
0.9130434782608695
 40
0.9130434782608695
 40
1.0
 40
1.0
 40
1.0
 40
1.0
 10
-44.935
 20
-4.7013
 30
0.0
 10
-44.935
 20
-4.7013
 30
0.0
 10
-44.6965
 20
-4.7013
 30
0.0
 10
-44.6965
 20
-4.7013
 30
0.0
 10
-44.6965
 20
-4.7013
 30
0.0
 10
-44.6965
 20
-4.7013
 30
0.0
 10
-44.6965
 20
-6.0367
 30
0.0
 10
-44.6965
 20
-6.0367
 30
0.0
 10
-44.6965
 20
-6.0367
 30
0.0
 10
-44.7562
 20
-6.0386
 30
0.0
 10
-44.8136
 20
-6.0292
 30
0.0
 10
-44.8687
 20
-6.008
 30
0.0
 10
-44.8687
 20
-6.008
 30
0.0
 10
-44.9599
 20
-5.9741
 30
0.0
 10
-45.0493
 20
-5.9196
 30
0.0
 10
-45.1377
 20
-5.8448
 30
0.0
 10
-45.1377
 20
-5.8448
 30
0.0
 10
-45.2257
 20
-5.7695
 30
0.0
 10
-45.3277
 20
-5.6613
 30
0.0
 10
-45.4434
 20
-5.5202
 30
0.0
 10
-45.4434
 20
-5.5202
 30
0.0
 10
-45.6236
 20
-5.3006
 30
0.0
 10
-45.7661
 20
-5.1519
 30
0.0
 10
-45.8715
 20
-5.0748
 30
0.0
 10
-45.8715
 20
-5.0748
 30
0.0
 10
-45.9764
 20
-4.9977
 30
0.0
 10
-46.0761
 20
-4.9591
 30
0.0
 10
-46.1697
 20
-4.9591
 30
0.0
 10
-46.1697
 20
-4.9591
 30
0.0
 10
-46.268
 20
-4.9591
 30
0.0
 10
-46.3508
 20
-4.9944
 30
0.0
 10
-46.4185
 20
-5.0644
 30
0.0
 10
-46.4185
 20
-5.0644
 30
0.0
 10
-46.4858
 20
-5.135
 30
0.0
 10
-46.5196
 20
-5.2267
 30
0.0
 10
-46.5196
 20
-5.3396
 30
0.0
 10
-46.5196
 20
-5.3396
 30
0.0
 10
-46.5196
 20
-5.4591
 30
0.0
 10
-46.4839
 20
-5.5546
 30
0.0
 10
-46.4119
 20
-5.6261
 30
0.0
 10
-46.4119
 20
-5.6261
 30
0.0
 10
-46.3404
 20
-5.698
 30
0.0
 10
-46.2412
 20
-5.7342
 30
0.0
 10
-46.1147
 20
-5.7352
 30
0.0
 10
-46.1147
 20
-5.7352
 30
0.0
 10
-46.1147
 20
-5.7352
 30
0.0
 10
-46.1405
 20
-5.9901
 30
0.0
 10
-46.1405
 20
-5.9901
 30
0.0
 10
-46.1405
 20
-5.9901
 30
0.0
 10
-46.331
 20
-5.9727
 30
0.0
 10
-46.4759
 20
-5.9069
 30
0.0
 10
-46.5756
 20
-5.793
 30
0.0
 10
-46.5756
 20
-5.793
 30
0.0
 10
-46.6753
 20
-5.6792
 30
0.0
 10
-46.7252
 20
-5.5259
 30
0.0
 10
-46.7252
 20
-5.334
 30
0.0
 10
-46.7252
 20
-5.334
 30
0.0
 10
-46.7252
 20
-5.1402
 30
0.0
 10
-46.6711
 20
-4.9868
 30
0.0
 10
-46.5639
 20
-4.8739
 30
0.0
 10
-46.5639
 20
-4.8739
 30
0.0
 10
-46.4561
 20
-4.7606
 30
0.0
 10
-46.323
 20
-4.7041
 30
0.0
 10
-46.164
 20
-4.7041
 30
0.0
 10
-46.164
 20
-4.7041
 30
0.0
 10
-46.0831
 20
-4.7041
 30
0.0
 10
-46.0036
 20
-4.7206
 30
0.0
 10
-45.9256
 20
-4.754
 30
0.0
 10
-45.9256
 20
-4.754
 30
0.0
 10
-45.8475
 20
-4.7869
 30
0.0
 10
-45.7652
 20
-4.842
 30
0.0
 10
-45.6791
 20
-4.9186
 30
0.0
 10
-45.6791
 20
-4.9186
 30
0.0
 10
-45.5925
 20
-4.9953
 30
0.0
 10
-45.474
 20
-5.1228
 30
0.0
 10
-45.3235
 20
-5.301
 30
0.0
 10
-45.3235
 20
-5.301
 30
0.0
 10
-45.1984
 20
-5.4497
 30
0.0
 10
-45.1137
 20
-5.5452
 30
0.0
 10
-45.069
 20
-5.5875
 30
0.0
 10
-45.069
 20
-5.5875
 30
0.0
 10
-45.0248
 20
-5.6298
 30
0.0
 10
-44.9801
 20
-5.6646
 30
0.0
 10
-44.935
 20
-5.6924
 30
0.0
 10
-44.935
 20
-5.6924
 30
0.0
 10
-44.935
 20
-5.6924
 30
0.0
 10
-44.935
 20
-4.7013
 30
0.0
 10
-44.935
 20
-4.7013
 30
0.0
  0
SPLINE
  5
52
330
1F
100
AcDbEntity
  8
DEFAULT_1
 62
   250
100
AcDbSpline
210
0.0
220
0.0
230
1.0
 70
    11
 71
     3
 72
    92
 73
    88
 74
     0
 42
0.0000000001
 43
0.0000000001
 40
0.0
 40
0.0
 40
0.0
 40
0.0
 40
0.0434782608695652
 40
0.0434782608695652
 40
0.0434782608695652
 40
0.0434782608695652
 40
0.0869565217391304
 40
0.0869565217391304
 40
0.0869565217391304
 40
0.0869565217391304
 40
0.1304347826086956
 40
0.1304347826086956
 40
0.1304347826086956
 40
0.1304347826086956
 40
0.1739130434782609
 40
0.1739130434782609
 40
0.1739130434782609
 40
0.1739130434782609
 40
0.2173913043478261
 40
0.2173913043478261
 40
0.2173913043478261
 40
0.2173913043478261
 40
0.2608695652173913
 40
0.2608695652173913
 40
0.2608695652173913
 40
0.2608695652173913
 40
0.3043478260869565
 40
0.3043478260869565
 40
0.3043478260869565
 40
0.3043478260869565
 40
0.3478260869565217
 40
0.3478260869565217
 40
0.3478260869565217
 40
0.3478260869565217
 40
0.391304347826087
 40
0.391304347826087
 40
0.391304347826087
 40
0.391304347826087
 40
0.4347826086956522
 40
0.4347826086956522
 40
0.4347826086956522
 40
0.4347826086956522
 40
0.4782608695652174
 40
0.4782608695652174
 40
0.4782608695652174
 40
0.4782608695652174
 40
0.5217391304347826
 40
0.5217391304347826
 40
0.5217391304347826
 40
0.5217391304347826
 40
0.5652173913043478
 40
0.5652173913043478
 40
0.5652173913043478
 40
0.5652173913043478
 40
0.6086956521739131
 40
0.6086956521739131
 40
0.6086956521739131
 40
0.6086956521739131
 40
0.6521739130434783
 40
0.6521739130434783
 40
0.6521739130434783
 40
0.6521739130434783
 40
0.6956521739130435
 40
0.6956521739130435
 40
0.6956521739130435
 40
0.6956521739130435
 40
0.7391304347826086
 40
0.7391304347826086
 40
0.7391304347826086
 40
0.7391304347826086
 40
0.782608695652174
 40
0.782608695652174
 40
0.782608695652174
 40
0.782608695652174
 40
0.8260869565217391
 40
0.8260869565217391
 40
0.8260869565217391
 40
0.8260869565217391
 40
0.8695652173913043
 40
0.8695652173913043
 40
0.8695652173913043
 40
0.8695652173913043
 40
0.9130434782608695
 40
0.9130434782608695
 40
0.9130434782608695
 40
0.9130434782608695
 40
1.0
 40
1.0
 40
1.0
 40
1.0
 10
-45.2257
 20
-4.4356
 30
0.0
 10
-45.2257
 20
-4.4356
 30
0.0
 10
-45.2478
 20
-4.175
 30
0.0
 10
-45.2478
 20
-4.175
 30
0.0
 10
-45.2478
 20
-4.175
 30
0.0
 10
-45.1208
 20
-4.1557
 30
0.0
 10
-45.0258
 20
-4.111
 30
0.0
 10
-44.9618
 20
-4.0409
 30
0.0
 10
-44.9618
 20
-4.0409
 30
0.0
 10
-44.8978
 20
-3.9704
 30
0.0
 10
-44.8658
 20
-3.8857
 30
0.0
 10
-44.8658
 20
-3.7865
 30
0.0
 10
-44.8658
 20
-3.7865
 30
0.0
 10
-44.8658
 20
-3.667
 30
0.0
 10
-44.911
 20
-3.5659
 30
0.0
 10
-45.0008
 20
-3.4836
 30
0.0
 10
-45.0008
 20
-3.4836
 30
0.0
 10
-45.0911
 20
-3.4008
 30
0.0
 10
-45.2106
 20
-3.3594
 30
0.0
 10
-45.3592
 20
-3.3594
 30
0.0
 10
-45.3592
 20
-3.3594
 30
0.0
 10
-45.5008
 20
-3.3594
 30
0.0
 10
-45.6123
 20
-3.3989
 30
0.0
 10
-45.6941
 20
-3.4784
 30
0.0
 10
-45.6941
 20
-3.4784
 30
0.0
 10
-45.776
 20
-3.5579
 30
0.0
 10
-45.8169
 20
-3.6618
 30
0.0
 10
-45.8169
 20
-3.7907
 30
0.0
 10
-45.8169
 20
-3.7907
 30
0.0
 10
-45.8169
 20
-3.8707
 30
0.0
 10
-45.7986
 20
-3.9426
 30
0.0
 10
-45.7624
 20
-4.0071
 30
0.0
 10
-45.7624
 20
-4.0071
 30
0.0
 10
-45.7261
 20
-4.0715
 30
0.0
 10
-45.6791
 20
-4.1218
 30
0.0
 10
-45.6212
 20
-4.1585
 30
0.0
 10
-45.6212
 20
-4.1585
 30
0.0
 10
-45.6212
 20
-4.1585
 30
0.0
 10
-45.6513
 20
-4.3914
 30
0.0
 10
-45.6513
 20
-4.3914
 30
0.0
 10
-45.6513
 20
-4.3914
 30
0.0
 10
-45.6513
 20
-4.3914
 30
0.0
 10
-46.689
 20
-4.1957
 30
0.0
 10
-46.689
 20
-4.1957
 30
0.0
 10
-46.689
 20
-4.1957
 30
0.0
 10
-46.689
 20
-4.1957
 30
0.0
 10
-46.689
 20
-3.191
 30
0.0
 10
-46.689
 20
-3.191
 30
0.0
 10
-46.689
 20
-3.191
 30
0.0
 10
-46.689
 20
-3.191
 30
0.0
 10
-46.4519
 20
-3.191
 30
0.0
 10
-46.4519
 20
-3.191
 30
0.0
 10
-46.4519
 20
-3.191
 30
0.0
 10
-46.4519
 20
-3.191
 30
0.0
 10
-46.4519
 20
-3.9972
 30
0.0
 10
-46.4519
 20
-3.9972
 30
0.0
 10
-46.4519
 20
-3.9972
 30
0.0
 10
-46.4519
 20
-3.9972
 30
0.0
 10
-45.9091
 20
-4.1063
 30
0.0
 10
-45.9091
 20
-4.1063
 30
0.0
 10
-45.9091
 20
-4.1063
 30
0.0
 10
-45.9938
 20
-3.985
 30
0.0
 10
-46.0361
 20
-3.8575
 30
0.0
 10
-46.0361
 20
-3.7244
 30
0.0
 10
-46.0361
 20
-3.7244
 30
0.0
 10
-46.0361
 20
-3.548
 30
0.0
 10
-45.975
 20
-3.3994
 30
0.0
 10
-45.8527
 20
-3.278
 30
0.0
 10
-45.8527
 20
-3.278
 30
0.0
 10
-45.7304
 20
-3.1567
 30
0.0
 10
-45.5733
 20
-3.096
 30
0.0
 10
-45.3814
 20
-3.096
 30
0.0
 10
-45.3814
 20
-3.096
 30
0.0
 10
-45.1984
 20
-3.096
 30
0.0
 10
-45.0403
 20
-3.1496
 30
0.0
 10
-44.9072
 20
-3.2559
 30
0.0
 10
-44.9072
 20
-3.2559
 30
0.0
 10
-44.744
 20
-3.3857
 30
0.0
 10
-44.6622
 20
-3.5626
 30
0.0
 10
-44.6622
 20
-3.7865
 30
0.0
 10
-44.6622
 20
-3.7865
 30
0.0
 10
-44.6622
 20
-3.9704
 30
0.0
 10
-44.7134
 20
-4.1204
 30
0.0
 10
-44.8164
 20
-4.2366
 30
0.0
 10
-44.8164
 20
-4.2366
 30
0.0
 10
-44.9195
 20
-4.3528
 30
0.0
 10
-45.0559
 20
-4.4191
 30
0.0
 10
-45.2257
 20
-4.4356
 30
0.0
  0
SPLINE
  5
53
330
1F
100
AcDbEntity
  8
DEFAULT_1
 62
   250
100
AcDbSpline
210
0.0
220
0.0
230
1.0
 70
    11
 71
     3
 72
    20
 73
    16
 74
     0
 42
0.0000000001
 43
0.0000000001
 40
0.0
 40
0.0
 40
0.0
 40
0.0
 40
0.2
 40
0.2
 40
0.2
 40
0.2
 40
0.4
 40
0.4
 40
0.4
 40
0.4
 40
0.6
 40
0.6
 40
0.6
 40
0.6
 40
1.0
 40
1.0
 40
1.0
 40
1.0
 10
-45.3028
 20
-2.1096
 30
0.0
 10
-45.3028
 20
-2.1096
 30
0.0
 10
-45.5521
 20
-2.1096
 30
0.0
 10
-45.5521
 20
-2.1096
 30
0.0
 10
-45.5521
 20
-2.1096
 30
0.0
 10
-45.5521
 20
-2.1096
 30
0.0
 10
-45.5521
 20
-1.3472
 30
0.0
 10
-45.5521
 20
-1.3472
 30
0.0
 10
-45.5521
 20
-1.3472
 30
0.0
 10
-45.5521
 20
-1.3472
 30
0.0
 10
-45.3028
 20
-1.3472
 30
0.0
 10
-45.3028
 20
-1.3472
 30
0.0
 10
-45.3028
 20
-1.3472
 30
0.0
 10
-45.3028
 20
-1.3472
 30
0.0
 10
-45.3028
 20
-2.1096
 30
0.0
 10
-45.3028
 20
-2.1096
 30
0.0
  0
SPLINE
  5
54
330
1F
100
AcDbEntity
  8
DEFAULT_1
 62
   250
100
AcDbSpline
210
0.0
220
0.0
230
1.0
 70
    11
 71
     3
 72
    92
 73
    88
 74
     0
 42
0.0000000001
 43
0.0000000001
 40
0.0
 40
0.0
 40
0.0
 40
0.0
 40
0.0434782608695652
 40
0.0434782608695652
 40
0.0434782608695652
 40
0.0434782608695652
 40
0.0869565217391304
 40
0.0869565217391304
 40
0.0869565217391304
 40
0.0869565217391304
 40
0.1304347826086956
 40
0.1304347826086956
 40
0.1304347826086956
 40
0.1304347826086956
 40
0.1739130434782609
 40
0.1739130434782609
 40
0.1739130434782609
 40
0.1739130434782609
 40
0.2173913043478261
 40
0.2173913043478261
 40
0.2173913043478261
 40
0.2173913043478261
 40
0.2608695652173913
 40
0.2608695652173913
 40
0.2608695652173913
 40
0.2608695652173913
 40
0.3043478260869565
 40
0.3043478260869565
 40
0.3043478260869565
 40
0.3043478260869565
 40
0.3478260869565217
 40
0.3478260869565217
 40
0.3478260869565217
 40
0.3478260869565217
 40
0.391304347826087
 40
0.391304347826087
 40
0.391304347826087
 40
0.391304347826087
 40
0.4347826086956522
 40
0.4347826086956522
 40
0.4347826086956522
 40
0.4347826086956522
 40
0.4782608695652174
 40
0.4782608695652174
 40
0.4782608695652174
 40
0.4782608695652174
 40
0.5217391304347826
 40
0.5217391304347826
 40
0.5217391304347826
 40
0.5217391304347826
 40
0.5652173913043478
 40
0.5652173913043478
 40
0.5652173913043478
 40
0.5652173913043478
 40
0.6086956521739131
 40
0.6086956521739131
 40
0.6086956521739131
 40
0.6086956521739131
 40
0.6521739130434783
 40
0.6521739130434783
 40
0.6521739130434783
 40
0.6521739130434783
 40
0.6956521739130435
 40
0.6956521739130435
 40
0.6956521739130435
 40
0.6956521739130435
 40
0.7391304347826086
 40
0.7391304347826086
 40
0.7391304347826086
 40
0.7391304347826086
 40
0.782608695652174
 40
0.782608695652174
 40
0.782608695652174
 40
0.782608695652174
 40
0.8260869565217391
 40
0.8260869565217391
 40
0.8260869565217391
 40
0.8260869565217391
 40
0.8695652173913043
 40
0.8695652173913043
 40
0.8695652173913043
 40
0.8695652173913043
 40
0.9130434782608695
 40
0.9130434782608695
 40
0.9130434782608695
 40
0.9130434782608695
 40
1.0
 40
1.0
 40
1.0
 40
1.0
 10
-44.935
 20
0.9459
 30
0.0
 10
-44.935
 20
0.9459
 30
0.0
 10
-44.6965
 20
0.9459
 30
0.0
 10
-44.6965
 20
0.9459
 30
0.0
 10
-44.6965
 20
0.9459
 30
0.0
 10
-44.6965
 20
0.9459
 30
0.0
 10
-44.6965
 20
-0.3895
 30
0.0
 10
-44.6965
 20
-0.3895
 30
0.0
 10
-44.6965
 20
-0.3895
 30
0.0
 10
-44.7562
 20
-0.3914
 30
0.0
 10
-44.8136
 20
-0.382
 30
0.0
 10
-44.8687
 20
-0.3608
 30
0.0
 10
-44.8687
 20
-0.3608
 30
0.0
 10
-44.9599
 20
-0.3269
 30
0.0
 10
-45.0493
 20
-0.2724
 30
0.0
 10
-45.1377
 20
-0.1976
 30
0.0
 10
-45.1377
 20
-0.1976
 30
0.0
 10
-45.2257
 20
-0.1223
 30
0.0
 10
-45.3277
 20
-0.0141
 30
0.0
 10
-45.4434
 20
0.127
 30
0.0
 10
-45.4434
 20
0.127
 30
0.0
 10
-45.6236
 20
0.3466
 30
0.0
 10
-45.7661
 20
0.4953
 30
0.0
 10
-45.8715
 20
0.5724
 30
0.0
 10
-45.8715
 20
0.5724
 30
0.0
 10
-45.9764
 20
0.6495
 30
0.0
 10
-46.0761
 20
0.6881
 30
0.0
 10
-46.1697
 20
0.6881
 30
0.0
 10
-46.1697
 20
0.6881
 30
0.0
 10
-46.268
 20
0.6881
 30
0.0
 10
-46.3508
 20
0.6528
 30
0.0
 10
-46.4185
 20
0.5828
 30
0.0
 10
-46.4185
 20
0.5828
 30
0.0
 10
-46.4858
 20
0.5122
 30
0.0
 10
-46.5196
 20
0.4205
 30
0.0
 10
-46.5196
 20
0.3076
 30
0.0
 10
-46.5196
 20
0.3076
 30
0.0
 10
-46.5196
 20
0.1881
 30
0.0
 10
-46.4839
 20
0.0926
 30
0.0
 10
-46.4119
 20
0.0211
 30
0.0
 10
-46.4119
 20
0.0211
 30
0.0
 10
-46.3404
 20
-0.0508
 30
0.0
 10
-46.2412
 20
-0.087
 30
0.0
 10
-46.1147
 20
-0.088
 30
0.0
 10
-46.1147
 20
-0.088
 30
0.0
 10
-46.1147
 20
-0.088
 30
0.0
 10
-46.1405
 20
-0.3429
 30
0.0
 10
-46.1405
 20
-0.3429
 30
0.0
 10
-46.1405
 20
-0.3429
 30
0.0
 10
-46.331
 20
-0.3255
 30
0.0
 10
-46.4759
 20
-0.2597
 30
0.0
 10
-46.5756
 20
-0.1458
 30
0.0
 10
-46.5756
 20
-0.1458
 30
0.0
 10
-46.6753
 20
-0.032
 30
0.0
 10
-46.7252
 20
0.1213
 30
0.0
 10
-46.7252
 20
0.3132
 30
0.0
 10
-46.7252
 20
0.3132
 30
0.0
 10
-46.7252
 20
0.507
 30
0.0
 10
-46.6711
 20
0.6604
 30
0.0
 10
-46.5639
 20
0.7733
 30
0.0
 10
-46.5639
 20
0.7733
 30
0.0
 10
-46.4561
 20
0.8866
 30
0.0
 10
-46.323
 20
0.9431
 30
0.0
 10
-46.164
 20
0.9431
 30
0.0
 10
-46.164
 20
0.9431
 30
0.0
 10
-46.0831
 20
0.9431
 30
0.0
 10
-46.0036
 20
0.9266
 30
0.0
 10
-45.9256
 20
0.8932
 30
0.0
 10
-45.9256
 20
0.8932
 30
0.0
 10
-45.8475
 20
0.8603
 30
0.0
 10
-45.7652
 20
0.8052
 30
0.0
 10
-45.6791
 20
0.7286
 30
0.0
 10
-45.6791
 20
0.7286
 30
0.0
 10
-45.5925
 20
0.6519
 30
0.0
 10
-45.474
 20
0.5244
 30
0.0
 10
-45.3235
 20
0.3462
 30
0.0
 10
-45.3235
 20
0.3462
 30
0.0
 10
-45.1984
 20
0.1975
 30
0.0
 10
-45.1137
 20
0.102
 30
0.0
 10
-45.069
 20
0.0597
 30
0.0
 10
-45.069
 20
0.0597
 30
0.0
 10
-45.0248
 20
0.0174
 30
0.0
 10
-44.9801
 20
-0.0174
 30
0.0
 10
-44.935
 20
-0.0452
 30
0.0
 10
-44.935
 20
-0.0452
 30
0.0
 10
-44.935
 20
-0.0452
 30
0.0
 10
-44.935
 20
0.9459
 30
0.0
 10
-44.935
 20
0.9459
 30
0.0
  0
SPLINE
  5
55
330
1F
100
AcDbEntity
  8
DEFAULT_1
 62
   250
100
AcDbSpline
210
0.0
220
0.0
230
1.0
 70
    11
 71
     3
 72
    80
 73
    76
 74
     0
 42
0.0000000001
 43
0.0000000001
 40
0.0
 40
0.0
 40
0.0
 40
0.0
 40
0.05
 40
0.05
 40
0.05
 40
0.05
 40
0.1
 40
0.1
 40
0.1
 40
0.1
 40
0.15
 40
0.15
 40
0.15
 40
0.15
 40
0.2
 40
0.2
 40
0.2
 40
0.2
 40
0.25
 40
0.25
 40
0.25
 40
0.25
 40
0.3
 40
0.3
 40
0.3
 40
0.3
 40
0.35
 40
0.35
 40
0.35
 40
0.35
 40
0.4
 40
0.4
 40
0.4
 40
0.4
 40
0.45
 40
0.45
 40
0.45
 40
0.45
 40
0.5
 40
0.5
 40
0.5
 40
0.5
 40
0.55
 40
0.55
 40
0.55
 40
0.55
 40
0.6
 40
0.6
 40
0.6
 40
0.6
 40
0.65
 40
0.65
 40
0.65
 40
0.65
 40
0.7
 40
0.7
 40
0.7
 40
0.7
 40
0.75
 40
0.75
 40
0.75
 40
0.75
 40
0.8
 40
0.8
 40
0.8
 40
0.8
 40
0.85
 40
0.85
 40
0.85
 40
0.85
 40
0.9
 40
0.9
 40
0.9
 40
0.9
 40
1.0
 40
1.0
 40
1.0
 40
1.0
 10
-46.2219
 20
2.4985
 30
0.0
 10
-46.2219
 20
2.4985
 30
0.0
 10
-46.2026
 20
2.2521
 30
0.0
 10
-46.2026
 20
2.2521
 30
0.0
 10
-46.2026
 20
2.2521
 30
0.0
 10
-46.3
 20
2.23
 30
0.0
 10
-46.371
 20
2.1989
 30
0.0
 10
-46.4147
 20
2.1585
 30
0.0
 10
-46.4147
 20
2.1585
 30
0.0
 10
-46.4858
 20
2.0912
 30
0.0
 10
-46.5211
 20
2.0084
 30
0.0
 10
-46.5211
 20
1.9101
 30
0.0
 10
-46.5211
 20
1.9101
 30
0.0
 10
-46.5211
 20
1.8311
 30
0.0
 10
-46.4989
 20
1.762
 30
0.0
 10
-46.4547
 20
1.7022
 30
0.0
 10
-46.4547
 20
1.7022
 30
0.0
 10
-46.3978
 20
1.6241
 30
0.0
 10
-46.3146
 20
1.5625
 30
0.0
 10
-46.2054
 20
1.5174
 30
0.0
 10
-46.2054
 20
1.5174
 30
0.0
 10
-46.0963
 20
1.4727
 30
0.0
 10
-45.9406
 20
1.4492
 30
0.0
 10
-45.7384
 20
1.4473
 30
0.0
 10
-45.7384
 20
1.4473
 30
0.0
 10
-45.8291
 20
1.507
 30
0.0
 10
-45.8969
 20
1.5799
 30
0.0
 10
-45.9411
 20
1.6665
 30
0.0
 10
-45.9411
 20
1.6665
 30
0.0
 10
-45.9848
 20
1.7525
 30
0.0
 10
-46.0069
 20
1.8433
 30
0.0
 10
-46.0069
 20
1.9379
 30
0.0
 10
-46.0069
 20
1.9379
 30
0.0
 10
-46.0069
 20
2.1034
 30
0.0
 10
-45.9463
 20
2.2441
 30
0.0
 10
-45.8244
 20
2.3603
 30
0.0
 10
-45.8244
 20
2.3603
 30
0.0
 10
-45.7026
 20
2.4764
 30
0.0
 10
-45.5455
 20
2.5348
 30
0.0
 10
-45.3527
 20
2.5348
 30
0.0
 10
-45.3527
 20
2.5348
 30
0.0
 10
-45.2257
 20
2.5348
 30
0.0
 10
-45.1081
 20
2.507
 30
0.0
 10
-44.9989
 20
2.4524
 30
0.0
 10
-44.9989
 20
2.4524
 30
0.0
 10
-44.8903
 20
2.3979
 30
0.0
 10
-44.8066
 20
2.3226
 30
0.0
 10
-44.7487
 20
2.2271
 30
0.0
 10
-44.7487
 20
2.2271
 30
0.0
 10
-44.6909
 20
2.1317
 30
0.0
 10
-44.6622
 20
2.0235
 30
0.0
 10
-44.6622
 20
1.9021
 30
0.0
 10
-44.6622
 20
1.9021
 30
0.0
 10
-44.6622
 20
1.6952
 30
0.0
 10
-44.7379
 20
1.5268
 30
0.0
 10
-44.8903
 20
1.3965
 30
0.0
 10
-44.8903
 20
1.3965
 30
0.0
 10
-45.0422
 20
1.2657
 30
0.0
 10
-45.2929
 20
1.2008
 30
0.0
 10
-45.6419
 20
1.2008
 30
0.0
 10
-45.6419
 20
1.2008
 30
0.0
 10
-46.0323
 20
1.2008
 30
0.0
 10
-46.316
 20
1.2728
 30
0.0
 10
-46.4933
 20
1.4172
 30
0.0
 10
-46.4933
 20
1.4172
 30
0.0
 10
-46.6476
 20
1.5428
 30
0.0
 10
-46.7252
 20
1.7121
 30
0.0
 10
-46.7252
 20
1.9256
 30
0.0
 10
-46.7252
 20
1.9256
 30
0.0
 10
-46.7252
 20
2.0842
 30
0.0
 10
-46.6805
 20
2.2144
 30
0.0
 10
-46.5911
 20
2.316
 30
0.0
 10
-46.5911
 20
2.316
 30
0.0
 10
-46.5022
 20
2.4176
 30
0.0
 10
-46.379
 20
2.4783
 30
0.0
 10
-46.2219
 20
2.4985
 30
0.0
  0
SPLINE
  5
56
330
1F
100
AcDbEntity
  8
DEFAULT_1
 62
   250
100
AcDbSpline
210
0.0
220
0.0
230
1.0
 70
    11
 71
     3
 72
    40
 73
    36
 74
     0
 42
0.0000000001
 43
0.0000000001
 40
0.0
 40
0.0
 40
0.0
 40
0.0
 40
0.1
 40
0.1
 40
0.1
 40
0.1
 40
0.2
 40
0.2
 40
0.2
 40
0.2
 40
0.3
 40
0.3
 40
0.3
 40
0.3
 40
0.4
 40
0.4
 40
0.4
 40
0.4
 40
0.5
 40
0.5
 40
0.5
 40
0.5
 40
0.6
 40
0.6
 40
0.6
 40
0.6
 40
0.7
 40
0.7
 40
0.7
 40
0.7
 40
0.8
 40
0.8
 40
0.8
 40
0.8
 40
1.0
 40
1.0
 40
1.0
 40
1.0
 10
-45.3513
 20
1.4858
 30
0.0
 10
-45.2656
 20
1.4858
 30
0.0
 10
-45.1838
 20
1.5042
 30
0.0
 10
-45.1057
 20
1.5404
 30
0.0
 10
-45.1057
 20
1.5404
 30
0.0
 10
-45.0276
 20
1.5766
 30
0.0
 10
-44.9684
 20
1.6274
 30
0.0
 10
-44.9275
 20
1.6923
 30
0.0
 10
-44.9275
 20
1.6923
 30
0.0
 10
-44.8865
 20
1.7577
 30
0.0
 10
-44.8658
 20
1.8264
 30
0.0
 10
-44.8658
 20
1.8979
 30
0.0
 10
-44.8658
 20
1.8979
 30
0.0
 10
-44.8658
 20
2.0028
 30
0.0
 10
-44.9082
 20
2.0926
 30
0.0
 10
-44.9928
 20
2.1679
 30
0.0
 10
-44.9928
 20
2.1679
 30
0.0
 10
-45.0775
 20
2.2431
 30
0.0
 10
-45.1923
 20
2.2808
 30
0.0
 10
-45.3371
 20
2.2808
 30
0.0
 10
-45.3371
 20
2.2808
 30
0.0
 10
-45.4768
 20
2.2808
 30
0.0
 10
-45.5869
 20
2.2436
 30
0.0
 10
-45.6673
 20
2.1693
 30
0.0
 10
-45.6673
 20
2.1693
 30
0.0
 10
-45.7478
 20
2.095
 30
0.0
 10
-45.7878
 20
2.0014
 30
0.0
 10
-45.7878
 20
1.8885
 30
0.0
 10
-45.7878
 20
1.8885
 30
0.0
 10
-45.7878
 20
1.7761
 30
0.0
 10
-45.7478
 20
1.681
 30
0.0
 10
-45.6673
 20
1.603
 30
0.0
 10
-45.6673
 20
1.603
 30
0.0
 10
-45.5869
 20
1.5249
 30
0.0
 10
-45.4815
 20
1.4858
 30
0.0
 10
-45.3513
 20
1.4858
 30
0.0
  0
SPLINE
  5
57
330
1F
100
AcDbEntity
  8
DEFAULT_1
 62
   250
100
AcDbSpline
210
0.0
220
0.0
230
1.0
 70
    11
 71
     3
 72
    92
 73
    88
 74
     0
 42
0.0000000001
 43
0.0000000001
 40
0.0
 40
0.0
 40
0.0
 40
0.0
 40
0.0434782608695652
 40
0.0434782608695652
 40
0.0434782608695652
 40
0.0434782608695652
 40
0.0869565217391304
 40
0.0869565217391304
 40
0.0869565217391304
 40
0.0869565217391304
 40
0.1304347826086956
 40
0.1304347826086956
 40
0.1304347826086956
 40
0.1304347826086956
 40
0.1739130434782609
 40
0.1739130434782609
 40
0.1739130434782609
 40
0.1739130434782609
 40
0.2173913043478261
 40
0.2173913043478261
 40
0.2173913043478261
 40
0.2173913043478261
 40
0.2608695652173913
 40
0.2608695652173913
 40
0.2608695652173913
 40
0.2608695652173913
 40
0.3043478260869565
 40
0.3043478260869565
 40
0.3043478260869565
 40
0.3043478260869565
 40
0.3478260869565217
 40
0.3478260869565217
 40
0.3478260869565217
 40
0.3478260869565217
 40
0.391304347826087
 40
0.391304347826087
 40
0.391304347826087
 40
0.391304347826087
 40
0.4347826086956522
 40
0.4347826086956522
 40
0.4347826086956522
 40
0.4347826086956522
 40
0.4782608695652174
 40
0.4782608695652174
 40
0.4782608695652174
 40
0.4782608695652174
 40
0.5217391304347826
 40
0.5217391304347826
 40
0.5217391304347826
 40
0.5217391304347826
 40
0.5652173913043478
 40
0.5652173913043478
 40
0.5652173913043478
 40
0.5652173913043478
 40
0.6086956521739131
 40
0.6086956521739131
 40
0.6086956521739131
 40
0.6086956521739131
 40
0.6521739130434783
 40
0.6521739130434783
 40
0.6521739130434783
 40
0.6521739130434783
 40
0.6956521739130435
 40
0.6956521739130435
 40
0.6956521739130435
 40
0.6956521739130435
 40
0.7391304347826086
 40
0.7391304347826086
 40
0.7391304347826086
 40
0.7391304347826086
 40
0.782608695652174
 40
0.782608695652174
 40
0.782608695652174
 40
0.782608695652174
 40
0.8260869565217391
 40
0.8260869565217391
 40
0.8260869565217391
 40
0.8260869565217391
 40
0.8695652173913043
 40
0.8695652173913043
 40
0.8695652173913043
 40
0.8695652173913043
 40
0.9130434782608695
 40
0.9130434782608695
 40
0.9130434782608695
 40
0.9130434782608695
 40
1.0
 40
1.0
 40
1.0
 40
1.0
 10
-45.2257
 20
2.7812
 30
0.0
 10
-45.2257
 20
2.7812
 30
0.0
 10
-45.2478
 20
3.0418
 30
0.0
 10
-45.2478
 20
3.0418
 30
0.0
 10
-45.2478
 20
3.0418
 30
0.0
 10
-45.1208
 20
3.0611
 30
0.0
 10
-45.0258
 20
3.1058
 30
0.0
 10
-44.9618
 20
3.1759
 30
0.0
 10
-44.9618
 20
3.1759
 30
0.0
 10
-44.8978
 20
3.2464
 30
0.0
 10
-44.8658
 20
3.3311
 30
0.0
 10
-44.8658
 20
3.4303
 30
0.0
 10
-44.8658
 20
3.4303
 30
0.0
 10
-44.8658
 20
3.5498
 30
0.0
 10
-44.911
 20
3.6509
 30
0.0
 10
-45.0008
 20
3.7332
 30
0.0
 10
-45.0008
 20
3.7332
 30
0.0
 10
-45.0911
 20
3.816
 30
0.0
 10
-45.2106
 20
3.8574
 30
0.0
 10
-45.3592
 20
3.8574
 30
0.0
 10
-45.3592
 20
3.8574
 30
0.0
 10
-45.5008
 20
3.8574
 30
0.0
 10
-45.6123
 20
3.8179
 30
0.0
 10
-45.6941
 20
3.7384
 30
0.0
 10
-45.6941
 20
3.7384
 30
0.0
 10
-45.776
 20
3.6589
 30
0.0
 10
-45.8169
 20
3.555
 30
0.0
 10
-45.8169
 20
3.4261
 30
0.0
 10
-45.8169
 20
3.4261
 30
0.0
 10
-45.8169
 20
3.3461
 30
0.0
 10
-45.7986
 20
3.2742
 30
0.0
 10
-45.7624
 20
3.2097
 30
0.0
 10
-45.7624
 20
3.2097
 30
0.0
 10
-45.7261
 20
3.1453
 30
0.0
 10
-45.6791
 20
3.095
 30
0.0
 10
-45.6212
 20
3.0583
 30
0.0
 10
-45.6212
 20
3.0583
 30
0.0
 10
-45.6212
 20
3.0583
 30
0.0
 10
-45.6513
 20
2.8254
 30
0.0
 10
-45.6513
 20
2.8254
 30
0.0
 10
-45.6513
 20
2.8254
 30
0.0
 10
-45.6513
 20
2.8254
 30
0.0
 10
-46.689
 20
3.0211
 30
0.0
 10
-46.689
 20
3.0211
 30
0.0
 10
-46.689
 20
3.0211
 30
0.0
 10
-46.689
 20
3.0211
 30
0.0
 10
-46.689
 20
4.0258
 30
0.0
 10
-46.689
 20
4.0258
 30
0.0
 10
-46.689
 20
4.0258
 30
0.0
 10
-46.689
 20
4.0258
 30
0.0
 10
-46.4519
 20
4.0258
 30
0.0
 10
-46.4519
 20
4.0258
 30
0.0
 10
-46.4519
 20
4.0258
 30
0.0
 10
-46.4519
 20
4.0258
 30
0.0
 10
-46.4519
 20
3.2196
 30
0.0
 10
-46.4519
 20
3.2196
 30
0.0
 10
-46.4519
 20
3.2196
 30
0.0
 10
-46.4519
 20
3.2196
 30
0.0
 10
-45.9091
 20
3.1105
 30
0.0
 10
-45.9091
 20
3.1105
 30
0.0
 10
-45.9091
 20
3.1105
 30
0.0
 10
-45.9938
 20
3.2318
 30
0.0
 10
-46.0361
 20
3.3593
 30
0.0
 10
-46.0361
 20
3.4924
 30
0.0
 10
-46.0361
 20
3.4924
 30
0.0
 10
-46.0361
 20
3.6688
 30
0.0
 10
-45.975
 20
3.8174
 30
0.0
 10
-45.8527
 20
3.9388
 30
0.0
 10
-45.8527
 20
3.9388
 30
0.0
 10
-45.7304
 20
4.0601
 30
0.0
 10
-45.5733
 20
4.1208
 30
0.0
 10
-45.3814
 20
4.1208
 30
0.0
 10
-45.3814
 20
4.1208
 30
0.0
 10
-45.1984
 20
4.1208
 30
0.0
 10
-45.0403
 20
4.0672
 30
0.0
 10
-44.9072
 20
3.9609
 30
0.0
 10
-44.9072
 20
3.9609
 30
0.0
 10
-44.744
 20
3.8311
 30
0.0
 10
-44.6622
 20
3.6542
 30
0.0
 10
-44.6622
 20
3.4303
 30
0.0
 10
-44.6622
 20
3.4303
 30
0.0
 10
-44.6622
 20
3.2464
 30
0.0
 10
-44.7134
 20
3.0964
 30
0.0
 10
-44.8164
 20
2.9802
 30
0.0
 10
-44.8164
 20
2.9802
 30
0.0
 10
-44.9195
 20
2.864
 30
0.0
 10
-45.0559
 20
2.7977
 30
0.0
 10
-45.2257
 20
2.7812
 30
0.0
  0
SPLINE
  5
58
330
1F
100
AcDbEntity
  8
DEFAULT_1
 62
   250
100
AcDbSpline
210
0.0
220
0.0
230
1.0
 70
    24
 71
     3
 72
     8
 73
     4
 74
     0
 42
0.0000000001
 43
0.0000000001
 40
0.0
 40
0.0
 40
0.0
 40
0.0
 40
1.0
 40
1.0
 40
1.0
 40
1.0
 10
-37.7838
 20
24.9096
 30
0.0
 10
-37.7838
 20
24.9096
 30
0.0
 10
-44.6458
 20
24.9096
 30
0.0
 10
-44.6458
 20
24.9096
 30
0.0
  0
SPLINE
  5
59
330
1F
100
AcDbEntity
  8
DEFAULT_1
 62
   250
100
AcDbSpline
210
0.0
220
0.0
230
1.0
 70
    24
 71
     3
 72
     8
 73
     4
 74
     0
 42
0.0000000001
 43
0.0000000001
 40
0.0
 40
0.0
 40
0.0
 40
0.0
 40
1.0
 40
1.0
 40
1.0
 40
1.0
 10
-44.1463
 20
24.5286
 30
0.0
 10
-44.1463
 20
24.5286
 30
0.0
 10
-44.1463
 20
-18.8447
 30
0.0
 10
-44.1463
 20
-18.8447
 30
0.0
  0
SPLINE
  5
5A
330
1F
100
AcDbEntity
  8
DEFAULT_1
 62
   250
100
AcDbSpline
210
0.0
220
0.0
230
1.0
 70
    11
 71
     3
 72
   116
 73
   112
 74
     0
 42
0.0000000001
 43
0.0000000001
 40
0.0
 40
0.0
 40
0.0
 40
0.0
 40
0.0344827586206897
 40
0.0344827586206897
 40
0.0344827586206897
 40
0.0344827586206897
 40
0.0689655172413793
 40
0.0689655172413793
 40
0.0689655172413793
 40
0.0689655172413793
 40
0.103448275862069
 40
0.103448275862069
 40
0.103448275862069
 40
0.103448275862069
 40
0.1379310344827586
 40
0.1379310344827586
 40
0.1379310344827586
 40
0.1379310344827586
 40
0.1724137931034483
 40
0.1724137931034483
 40
0.1724137931034483
 40
0.1724137931034483
 40
0.2068965517241379
 40
0.2068965517241379
 40
0.2068965517241379
 40
0.2068965517241379
 40
0.2413793103448276
 40
0.2413793103448276
 40
0.2413793103448276
 40
0.2413793103448276
 40
0.2758620689655172
 40
0.2758620689655172
 40
0.2758620689655172
 40
0.2758620689655172
 40
0.3103448275862069
 40
0.3103448275862069
 40
0.3103448275862069
 40
0.3103448275862069
 40
0.3448275862068966
 40
0.3448275862068966
 40
0.3448275862068966
 40
0.3448275862068966
 40
0.3793103448275862
 40
0.3793103448275862
 40
0.3793103448275862
 40
0.3793103448275862
 40
0.4137931034482759
 40
0.4137931034482759
 40
0.4137931034482759
 40
0.4137931034482759
 40
0.4482758620689655
 40
0.4482758620689655
 40
0.4482758620689655
 40
0.4482758620689655
 40
0.4827586206896552
 40
0.4827586206896552
 40
0.4827586206896552
 40
0.4827586206896552
 40
0.5172413793103449
 40
0.5172413793103449
 40
0.5172413793103449
 40
0.5172413793103449
 40
0.5517241379310345
 40
0.5517241379310345
 40
0.5517241379310345
 40
0.5517241379310345
 40
0.5862068965517241
 40
0.5862068965517241
 40
0.5862068965517241
 40
0.5862068965517241
 40
0.6206896551724138
 40
0.6206896551724138
 40
0.6206896551724138
 40
0.6206896551724138
 40
0.6551724137931034
 40
0.6551724137931034
 40
0.6551724137931034
 40
0.6551724137931034
 40
0.6896551724137931
 40
0.6896551724137931
 40
0.6896551724137931
 40
0.6896551724137931
 40
0.7241379310344828
 40
0.7241379310344828
 40
0.7241379310344828
 40
0.7241379310344828
 40
0.7586206896551724
 40
0.7586206896551724
 40
0.7586206896551724
 40
0.7586206896551724
 40
0.7931034482758621
 40
0.7931034482758621
 40
0.7931034482758621
 40
0.7931034482758621
 40
0.8275862068965517
 40
0.8275862068965517
 40
0.8275862068965517
 40
0.8275862068965517
 40
0.8620689655172413
 40
0.8620689655172413
 40
0.8620689655172413
 40
0.8620689655172413
 40
0.896551724137931
 40
0.896551724137931
 40
0.896551724137931
 40
0.896551724137931
 40
0.9310344827586207
 40
0.9310344827586207
 40
0.9310344827586207
 40
0.9310344827586207
 40
1.0
 40
1.0
 40
1.0
 40
1.0
 10
1.2137
 20
-5.1593
 30
0.0
 10
1.2137
 20
-5.1593
 30
0.0
 10
1.2137
 20
-3.696
 30
0.0
 10
1.2137
 20
-3.696
 30
0.0
 10
1.2137
 20
-3.696
 30
0.0
 10
1.2137
 20
-3.696
 30
0.0
 10
1.4352
 20
-3.696
 30
0.0
 10
1.4352
 20
-3.696
 30
0.0
 10
1.4352
 20
-3.696
 30
0.0
 10
1.4352
 20
-3.696
 30
0.0
 10
1.4352
 20
-3.9011
 30
0.0
 10
1.4352
 20
-3.9011
 30
0.0
 10
1.4352
 20
-3.9011
 30
0.0
 10
1.4813
 20
-3.8296
 30
0.0
 10
1.5425
 20
-3.7717
 30
0.0
 10
1.6187
 20
-3.7284
 30
0.0
 10
1.6187
 20
-3.7284
 30
0.0
 10
1.6949
 20
-3.6847
 30
0.0
 10
1.7819
 20
-3.6626
 30
0.0
 10
1.8792
 20
-3.6626
 30
0.0
 10
1.8792
 20
-3.6626
 30
0.0
 10
1.9874
 20
-3.6626
 30
0.0
 10
2.0763
 20
-3.6852
 30
0.0
 10
2.1455
 20
-3.7303
 30
0.0
 10
2.1455
 20
-3.7303
 30
0.0
 10
2.2151
 20
-3.7755
 30
0.0
 10
2.264
 20
-3.838
 30
0.0
 10
2.2922
 20
-3.9189
 30
0.0
 10
2.2922
 20
-3.9189
 30
0.0
 10
2.4084
 20
-3.7482
 30
0.0
 10
2.5589
 20
-3.6626
 30
0.0
 10
2.7442
 20
-3.6626
 30
0.0
 10
2.7442
 20
-3.6626
 30
0.0
 10
2.8896
 20
-3.6626
 30
0.0
 10
3.0011
 20
-3.703
 30
0.0
 10
3.0791
 20
-3.7835
 30
0.0
 10
3.0791
 20
-3.7835
 30
0.0
 10
3.1572
 20
-3.8639
 30
0.0
 10
3.1963
 20
-3.9876
 30
0.0
 10
3.1963
 20
-4.1546
 30
0.0
 10
3.1963
 20
-4.1546
 30
0.0
 10
3.1963
 20
-4.1546
 30
0.0
 10
3.1963
 20
-5.1593
 30
0.0
 10
3.1963
 20
-5.1593
 30
0.0
 10
3.1963
 20
-5.1593
 30
0.0
 10
3.1963
 20
-5.1593
 30
0.0
 10
2.9498
 20
-5.1593
 30
0.0
 10
2.9498
 20
-5.1593
 30
0.0
 10
2.9498
 20
-5.1593
 30
0.0
 10
2.9498
 20
-5.1593
 30
0.0
 10
2.9498
 20
-4.2374
 30
0.0
 10
2.9498
 20
-4.2374
 30
0.0
 10
2.9498
 20
-4.2374
 30
0.0
 10
2.9498
 20
-4.1381
 30
0.0
 10
2.9418
 20
-4.0666
 30
0.0
 10
2.9258
 20
-4.0229
 30
0.0
 10
2.9258
 20
-4.0229
 30
0.0
 10
2.9093
 20
-3.9796
 30
0.0
 10
2.8802
 20
-3.9443
 30
0.0
 10
2.8383
 20
-3.9175
 30
0.0
 10
2.8383
 20
-3.9175
 30
0.0
 10
2.796
 20
-3.8912
 30
0.0
 10
2.7461
 20
-3.8776
 30
0.0
 10
2.6892
 20
-3.8776
 30
0.0
 10
2.6892
 20
-3.8776
 30
0.0
 10
2.5862
 20
-3.8776
 30
0.0
 10
2.5011
 20
-3.9119
 30
0.0
 10
2.4329
 20
-3.9806
 30
0.0
 10
2.4329
 20
-3.9806
 30
0.0
 10
2.3651
 20
-4.0488
 30
0.0
 10
2.3308
 20
-4.1584
 30
0.0
 10
2.3308
 20
-4.3089
 30
0.0
 10
2.3308
 20
-4.3089
 30
0.0
 10
2.3308
 20
-4.3089
 30
0.0
 10
2.3308
 20
-5.1593
 30
0.0
 10
2.3308
 20
-5.1593
 30
0.0
 10
2.3308
 20
-5.1593
 30
0.0
 10
2.3308
 20
-5.1593
 30
0.0
 10
2.0829
 20
-5.1593
 30
0.0
 10
2.0829
 20
-5.1593
 30
0.0
 10
2.0829
 20
-5.1593
 30
0.0
 10
2.0829
 20
-5.1593
 30
0.0
 10
2.0829
 20
-4.2087
 30
0.0
 10
2.0829
 20
-4.2087
 30
0.0
 10
2.0829
 20
-4.2087
 30
0.0
 10
2.0829
 20
-4.0982
 30
0.0
 10
2.0627
 20
-4.0154
 30
0.0
 10
2.0222
 20
-3.9603
 30
0.0
 10
2.0222
 20
-3.9603
 30
0.0
 10
1.9818
 20
-3.9053
 30
0.0
 10
1.9159
 20
-3.8776
 30
0.0
 10
1.8237
 20
-3.8776
 30
0.0
 10
1.8237
 20
-3.8776
 30
0.0
 10
1.7541
 20
-3.8776
 30
0.0
 10
1.6897
 20
-3.8959
 30
0.0
 10
1.6304
 20
-3.9331
 30
0.0
 10
1.6304
 20
-3.9331
 30
0.0
 10
1.5711
 20
-3.9697
 30
0.0
 10
1.5279
 20
-4.0234
 30
0.0
 10
1.5015
 20
-4.0939
 30
0.0
 10
1.5015
 20
-4.0939
 30
0.0
 10
1.4747
 20
-4.1649
 30
0.0
 10
1.4615
 20
-4.267
 30
0.0
 10
1.4615
 20
-4.4001
 30
0.0
 10
1.4615
 20
-4.4001
 30
0.0
 10
1.4615
 20
-4.4001
 30
0.0
 10
1.4615
 20
-5.1593
 30
0.0
 10
1.4615
 20
-5.1593
 30
0.0
 10
1.4615
 20
-5.1593
 30
0.0
 10
1.4615
 20
-5.1593
 30
0.0
 10
1.2137
 20
-5.1593
 30
0.0
 10
1.2137
 20
-5.1593
 30
0.0
  0
SPLINE
  5
5B
330
1F
100
AcDbEntity
  8
DEFAULT_1
 62
   250
100
AcDbSpline
210
0.0
220
0.0
230
1.0
 70
    11
 71
     3
 72
   112
 73
   108
 74
     0
 42
0.0000000001
 43
0.0000000001
 40
0.0
 40
0.0
 40
0.0
 40
0.0
 40
0.0357142857142857
 40
0.0357142857142857
 40
0.0357142857142857
 40
0.0357142857142857
 40
0.0714285714285714
 40
0.0714285714285714
 40
0.0714285714285714
 40
0.0714285714285714
 40
0.1071428571428571
 40
0.1071428571428571
 40
0.1071428571428571
 40
0.1071428571428571
 40
0.1428571428571428
 40
0.1428571428571428
 40
0.1428571428571428
 40
0.1428571428571428
 40
0.1785714285714286
 40
0.1785714285714286
 40
0.1785714285714286
 40
0.1785714285714286
 40
0.2142857142857143
 40
0.2142857142857143
 40
0.2142857142857143
 40
0.2142857142857143
 40
0.25
 40
0.25
 40
0.25
 40
0.25
 40
0.2857142857142857
 40
0.2857142857142857
 40
0.2857142857142857
 40
0.2857142857142857
 40
0.3214285714285715
 40
0.3214285714285715
 40
0.3214285714285715
 40
0.3214285714285715
 40
0.3571428571428572
 40
0.3571428571428572
 40
0.3571428571428572
 40
0.3571428571428572
 40
0.3928571428571428
 40
0.3928571428571428
 40
0.3928571428571428
 40
0.3928571428571428
 40
0.4285714285714285
 40
0.4285714285714285
 40
0.4285714285714285
 40
0.4285714285714285
 40
0.4642857142857143
 40
0.4642857142857143
 40
0.4642857142857143
 40
0.4642857142857143
 40
0.5
 40
0.5
 40
0.5
 40
0.5
 40
0.5357142857142857
 40
0.5357142857142857
 40
0.5357142857142857
 40
0.5357142857142857
 40
0.5714285714285714
 40
0.5714285714285714
 40
0.5714285714285714
 40
0.5714285714285714
 40
0.6071428571428571
 40
0.6071428571428571
 40
0.6071428571428571
 40
0.6071428571428571
 40
0.6428571428571429
 40
0.6428571428571429
 40
0.6428571428571429
 40
0.6428571428571429
 40
0.6785714285714286
 40
0.6785714285714286
 40
0.6785714285714286
 40
0.6785714285714286
 40
0.7142857142857143
 40
0.7142857142857143
 40
0.7142857142857143
 40
0.7142857142857143
 40
0.75
 40
0.75
 40
0.75
 40
0.75
 40
0.7857142857142857
 40
0.7857142857142857
 40
0.7857142857142857
 40
0.7857142857142857
 40
0.8214285714285714
 40
0.8214285714285714
 40
0.8214285714285714
 40
0.8214285714285714
 40
0.8571428571428571
 40
0.8571428571428571
 40
0.8571428571428571
 40
0.8571428571428571
 40
0.8928571428571429
 40
0.8928571428571429
 40
0.8928571428571429
 40
0.8928571428571429
 40
0.9285714285714286
 40
0.9285714285714286
 40
0.9285714285714286
 40
0.9285714285714286
 40
1.0
 40
1.0
 40
1.0
 40
1.0
 10
4.5194
 20
-4.9787
 30
0.0
 10
4.4272
 20
-5.0568
 30
0.0
 10
4.3388
 20
-5.1118
 30
0.0
 10
4.2541
 20
-5.1442
 30
0.0
 10
4.2541
 20
-5.1442
 30
0.0
 10
4.169
 20
-5.1762
 30
0.0
 10
4.0777
 20
-5.1922
 30
0.0
 10
3.9804
 20
-5.1922
 30
0.0
 10
3.9804
 20
-5.1922
 30
0.0
 10
3.8195
 20
-5.1922
 30
0.0
 10
3.6963
 20
-5.1532
 30
0.0
 10
3.6097
 20
-5.0746
 30
0.0
 10
3.6097
 20
-5.0746
 30
0.0
 10
3.5236
 20
-4.9961
 30
0.0
 10
3.4804
 20
-4.8954
 30
0.0
 10
3.4804
 20
-4.7736
 30
0.0
 10
3.4804
 20
-4.7736
 30
0.0
 10
3.4804
 20
-4.7016
 30
0.0
 10
3.4964
 20
-4.6363
 30
0.0
 10
3.5293
 20
-4.577
 30
0.0
 10
3.5293
 20
-4.577
 30
0.0
 10
3.5617
 20
-4.5177
 30
0.0
 10
3.6045
 20
-4.4702
 30
0.0
 10
3.6572
 20
-4.4345
 30
0.0
 10
3.6572
 20
-4.4345
 30
0.0
 10
3.7104
 20
-4.3987
 30
0.0
 10
3.7696
 20
-4.3714
 30
0.0
 10
3.836
 20
-4.3531
 30
0.0
 10
3.836
 20
-4.3531
 30
0.0
 10
3.8844
 20
-4.3404
 30
0.0
 10
3.9578
 20
-4.3277
 30
0.0
 10
4.0561
 20
-4.3159
 30
0.0
 10
4.0561
 20
-4.3159
 30
0.0
 10
4.2565
 20
-4.2919
 30
0.0
 10
4.4042
 20
-4.2637
 30
0.0
 10
4.4987
 20
-4.2303
 30
0.0
 10
4.4987
 20
-4.2303
 30
0.0
 10
4.4997
 20
-4.1965
 30
0.0
 10
4.5001
 20
-4.1748
 30
0.0
 10
4.5001
 20
-4.1659
 30
0.0
 10
4.5001
 20
-4.1659
 30
0.0
 10
4.5001
 20
-4.0648
 30
0.0
 10
4.4766
 20
-3.9933
 30
0.0
 10
4.4296
 20
-3.9523
 30
0.0
 10
4.4296
 20
-3.9523
 30
0.0
 10
4.3665
 20
-3.8959
 30
0.0
 10
4.272
 20
-3.8681
 30
0.0
 10
4.1473
 20
-3.8681
 30
0.0
 10
4.1473
 20
-3.8681
 30
0.0
 10
4.0307
 20
-3.8681
 30
0.0
 10
3.9446
 20
-3.8884
 30
0.0
 10
3.8886
 20
-3.9293
 30
0.0
 10
3.8886
 20
-3.9293
 30
0.0
 10
3.8331
 20
-3.9702
 30
0.0
 10
3.7922
 20
-4.0426
 30
0.0
 10
3.7654
 20
-4.1466
 30
0.0
 10
3.7654
 20
-4.1466
 30
0.0
 10
3.7654
 20
-4.1466
 30
0.0
 10
3.5232
 20
-4.1132
 30
0.0
 10
3.5232
 20
-4.1132
 30
0.0
 10
3.5232
 20
-4.1132
 30
0.0
 10
3.5453
 20
-4.0097
 30
0.0
 10
3.5815
 20
-3.9255
 30
0.0
 10
3.6318
 20
-3.862
 30
0.0
 10
3.6318
 20
-3.862
 30
0.0
 10
3.6822
 20
-3.7981
 30
0.0
 10
3.7555
 20
-3.7487
 30
0.0
 10
3.851
 20
-3.7143
 30
0.0
 10
3.851
 20
-3.7143
 30
0.0
 10
3.9465
 20
-3.68
 30
0.0
 10
4.057
 20
-3.6626
 30
0.0
 10
4.1831
 20
-3.6626
 30
0.0
 10
4.1831
 20
-3.6626
 30
0.0
 10
4.3082
 20
-3.6626
 30
0.0
 10
4.4093
 20
-3.6776
 30
0.0
 10
4.4874
 20
-3.7068
 30
0.0
 10
4.4874
 20
-3.7068
 30
0.0
 10
4.5655
 20
-3.7364
 30
0.0
 10
4.6229
 20
-3.7731
 30
0.0
 10
4.66
 20
-3.8178
 30
0.0
 10
4.66
 20
-3.8178
 30
0.0
 10
4.6967
 20
-3.8625
 30
0.0
 10
4.7221
 20
-3.9185
 30
0.0
 10
4.7372
 20
-3.9867
 30
0.0
 10
4.7372
 20
-3.9867
 30
0.0
 10
4.7452
 20
-4.029
 30
0.0
 10
4.7494
 20
-4.1052
 30
0.0
 10
4.7494
 20
-4.2153
 30
0.0
 10
4.7494
 20
-4.2153
 30
0.0
 10
4.7494
 20
-4.2153
 30
0.0
 10
4.7494
 20
-4.5459
 30
0.0
 10
4.7494
 20
-4.5459
 30
0.0
 10
4.7494
 20
-4.5459
 30
0.0
 10
4.7494
 20
-4.7769
 30
0.0
 10
4.7546
 20
-4.9227
 30
0.0
 10
4.7654
 20
-4.9834
 30
0.0
 10
4.7654
 20
-4.9834
 30
0.0
 10
4.7758
 20
-5.0445
 30
0.0
 10
4.7969
 20
-5.1033
 30
0.0
 10
4.828
 20
-5.1593
 30
0.0
 10
4.828
 20
-5.1593
 30
0.0
 10
4.828
 20
-5.1593
 30
0.0
 10
4.5688
 20
-5.1593
 30
0.0
 10
4.5688
 20
-5.1593
 30
0.0
 10
4.5688
 20
-5.1593
 30
0.0
 10
4.5434
 20
-5.108
 30
0.0
 10
4.5265
 20
-5.0478
 30
0.0
 10
4.5194
 20
-4.9787
 30
0.0
  0
SPLINE
  5
5C
330
1F
100
AcDbEntity
  8
DEFAULT_1
 62
   250
100
AcDbSpline
210
0.0
220
0.0
230
1.0
 70
    11
 71
     3
 72
    44
 73
    40
 74
     0
 42
0.0000000001
 43
0.0000000001
 40
0.0
 40
0.0
 40
0.0
 40
0.0
 40
0.0909090909090909
 40
0.0909090909090909
 40
0.0909090909090909
 40
0.0909090909090909
 40
0.1818181818181818
 40
0.1818181818181818
 40
0.1818181818181818
 40
0.1818181818181818
 40
0.2727272727272727
 40
0.2727272727272727
 40
0.2727272727272727
 40
0.2727272727272727
 40
0.3636363636363636
 40
0.3636363636363636
 40
0.3636363636363636
 40
0.3636363636363636
 40
0.4545454545454545
 40
0.4545454545454545
 40
0.4545454545454545
 40
0.4545454545454545
 40
0.5454545454545454
 40
0.5454545454545454
 40
0.5454545454545454
 40
0.5454545454545454
 40
0.6363636363636364
 40
0.6363636363636364
 40
0.6363636363636364
 40
0.6363636363636364
 40
0.7272727272727273
 40
0.7272727272727273
 40
0.7272727272727273
 40
0.7272727272727273
 40
0.8181818181818182
 40
0.8181818181818182
 40
0.8181818181818182
 40
0.8181818181818182
 40
1.0
 40
1.0
 40
1.0
 40
1.0
 10
4.4987
 20
-4.4246
 30
0.0
 10
4.4084
 20
-4.4617
 30
0.0
 10
4.2734
 20
-4.4928
 30
0.0
 10
4.0937
 20
-4.5187
 30
0.0
 10
4.0937
 20
-4.5187
 30
0.0
 10
3.9917
 20
-4.5332
 30
0.0
 10
3.9192
 20
-4.5497
 30
0.0
 10
3.8774
 20
-4.568
 30
0.0
 10
3.8774
 20
-4.568
 30
0.0
 10
3.835
 20
-4.5864
 30
0.0
 10
3.8021
 20
-4.6132
 30
0.0
 10
3.7795
 20
-4.649
 30
0.0
 10
3.7795
 20
-4.649
 30
0.0
 10
3.7565
 20
-4.6842
 30
0.0
 10
3.7447
 20
-4.7233
 30
0.0
 10
3.7447
 20
-4.7665
 30
0.0
 10
3.7447
 20
-4.7665
 30
0.0
 10
3.7447
 20
-4.8329
 30
0.0
 10
3.7701
 20
-4.8879
 30
0.0
 10
3.82
 20
-4.9321
 30
0.0
 10
3.82
 20
-4.9321
 30
0.0
 10
3.8698
 20
-4.9759
 30
0.0
 10
3.9432
 20
-4.998
 30
0.0
 10
4.0396
 20
-4.998
 30
0.0
 10
4.0396
 20
-4.998
 30
0.0
 10
4.1351
 20
-4.998
 30
0.0
 10
4.2203
 20
-4.9773
 30
0.0
 10
4.2946
 20
-4.9354
 30
0.0
 10
4.2946
 20
-4.9354
 30
0.0
 10
4.3689
 20
-4.8935
 30
0.0
 10
4.4239
 20
-4.8362
 30
0.0
 10
4.4587
 20
-4.7637
 30
0.0
 10
4.4587
 20
-4.7637
 30
0.0
 10
4.4855
 20
-4.7077
 30
0.0
 10
4.4987
 20
-4.625
 30
0.0
 10
4.4987
 20
-4.5158
 30
0.0
 10
4.4987
 20
-4.5158
 30
0.0
 10
4.4987
 20
-4.5158
 30
0.0
 10
4.4987
 20
-4.4246
 30
0.0
 10
4.4987
 20
-4.4246
 30
0.0
  0
SPLINE
  5
5D
330
1F
100
AcDbEntity
  8
DEFAULT_1
 62
   250
100
AcDbSpline
210
0.0
220
0.0
230
1.0
 70
    11
 71
     3
 72
    64
 73
    60
 74
     0
 42
0.0000000001
 43
0.0000000001
 40
0.0
 40
0.0
 40
0.0
 40
0.0
 40
0.0625
 40
0.0625
 40
0.0625
 40
0.0625
 40
0.125
 40
0.125
 40
0.125
 40
0.125
 40
0.1875
 40
0.1875
 40
0.1875
 40
0.1875
 40
0.25
 40
0.25
 40
0.25
 40
0.25
 40
0.3125
 40
0.3125
 40
0.3125
 40
0.3125
 40
0.375
 40
0.375
 40
0.375
 40
0.375
 40
0.4375
 40
0.4375
 40
0.4375
 40
0.4375
 40
0.5
 40
0.5
 40
0.5
 40
0.5
 40
0.5625
 40
0.5625
 40
0.5625
 40
0.5625
 40
0.625
 40
0.625
 40
0.625
 40
0.625
 40
0.6875
 40
0.6875
 40
0.6875
 40
0.6875
 40
0.75
 40
0.75
 40
0.75
 40
0.75
 40
0.8125
 40
0.8125
 40
0.8125
 40
0.8125
 40
0.875
 40
0.875
 40
0.875
 40
0.875
 40
1.0
 40
1.0
 40
1.0
 40
1.0
 10
4.9686
 20
-5.1593
 30
0.0
 10
4.9686
 20
-5.1593
 30
0.0
 10
5.5034
 20
-4.3987
 30
0.0
 10
5.5034
 20
-4.3987
 30
0.0
 10
5.5034
 20
-4.3987
 30
0.0
 10
5.5034
 20
-4.3987
 30
0.0
 10
5.0086
 20
-3.696
 30
0.0
 10
5.0086
 20
-3.696
 30
0.0
 10
5.0086
 20
-3.696
 30
0.0
 10
5.0086
 20
-3.696
 30
0.0
 10
5.3185
 20
-3.696
 30
0.0
 10
5.3185
 20
-3.696
 30
0.0
 10
5.3185
 20
-3.696
 30
0.0
 10
5.3185
 20
-3.696
 30
0.0
 10
5.5434
 20
-4.0389
 30
0.0
 10
5.5434
 20
-4.0389
 30
0.0
 10
5.5434
 20
-4.0389
 30
0.0
 10
5.5852
 20
-4.1043
 30
0.0
 10
5.6196
 20
-4.1588
 30
0.0
 10
5.645
 20
-4.203
 30
0.0
 10
5.645
 20
-4.203
 30
0.0
 10
5.6854
 20
-4.1424
 30
0.0
 10
5.7226
 20
-4.0887
 30
0.0
 10
5.7569
 20
-4.0417
 30
0.0
 10
5.7569
 20
-4.0417
 30
0.0
 10
5.7569
 20
-4.0417
 30
0.0
 10
6.0034
 20
-3.696
 30
0.0
 10
6.0034
 20
-3.696
 30
0.0
 10
6.0034
 20
-3.696
 30
0.0
 10
6.0034
 20
-3.696
 30
0.0
 10
6.2997
 20
-3.696
 30
0.0
 10
6.2997
 20
-3.696
 30
0.0
 10
6.2997
 20
-3.696
 30
0.0
 10
6.2997
 20
-3.696
 30
0.0
 10
5.7941
 20
-4.3851
 30
0.0
 10
5.7941
 20
-4.3851
 30
0.0
 10
5.7941
 20
-4.3851
 30
0.0
 10
5.7941
 20
-4.3851
 30
0.0
 10
6.3383
 20
-5.1593
 30
0.0
 10
6.3383
 20
-5.1593
 30
0.0
 10
6.3383
 20
-5.1593
 30
0.0
 10
6.3383
 20
-5.1593
 30
0.0
 10
6.034
 20
-5.1593
 30
0.0
 10
6.034
 20
-5.1593
 30
0.0
 10
6.034
 20
-5.1593
 30
0.0
 10
6.034
 20
-5.1593
 30
0.0
 10
5.7334
 20
-4.7045
 30
0.0
 10
5.7334
 20
-4.7045
 30
0.0
 10
5.7334
 20
-4.7045
 30
0.0
 10
5.7334
 20
-4.7045
 30
0.0
 10
5.6535
 20
-4.5817
 30
0.0
 10
5.6535
 20
-4.5817
 30
0.0
 10
5.6535
 20
-4.5817
 30
0.0
 10
5.6535
 20
-4.5817
 30
0.0
 10
5.2692
 20
-5.1593
 30
0.0
 10
5.2692
 20
-5.1593
 30
0.0
 10
5.2692
 20
-5.1593
 30
0.0
 10
5.2692
 20
-5.1593
 30
0.0
 10
4.9686
 20
-5.1593
 30
0.0
 10
4.9686
 20
-5.1593
 30
0.0
  0
SPLINE
  5
5E
330
1F
100
AcDbEntity
  8
DEFAULT_1
 62
   250
100
AcDbSpline
210
0.0
220
0.0
230
1.0
 70
    11
 71
     3
 72
   124
 73
   120
 74
     0
 42
0.0000000001
 43
0.0000000001
 40
0.0
 40
0.0
 40
0.0
 40
0.0
 40
0.032258064516129
 40
0.032258064516129
 40
0.032258064516129
 40
0.032258064516129
 40
0.0645161290322581
 40
0.0645161290322581
 40
0.0645161290322581
 40
0.0645161290322581
 40
0.0967741935483871
 40
0.0967741935483871
 40
0.0967741935483871
 40
0.0967741935483871
 40
0.1290322580645161
 40
0.1290322580645161
 40
0.1290322580645161
 40
0.1290322580645161
 40
0.1612903225806452
 40
0.1612903225806452
 40
0.1612903225806452
 40
0.1612903225806452
 40
0.1935483870967742
 40
0.1935483870967742
 40
0.1935483870967742
 40
0.1935483870967742
 40
0.2258064516129032
 40
0.2258064516129032
 40
0.2258064516129032
 40
0.2258064516129032
 40
0.2580645161290323
 40
0.2580645161290323
 40
0.2580645161290323
 40
0.2580645161290323
 40
0.2903225806451613
 40
0.2903225806451613
 40
0.2903225806451613
 40
0.2903225806451613
 40
0.3225806451612903
 40
0.3225806451612903
 40
0.3225806451612903
 40
0.3225806451612903
 40
0.3548387096774194
 40
0.3548387096774194
 40
0.3548387096774194
 40
0.3548387096774194
 40
0.3870967741935484
 40
0.3870967741935484
 40
0.3870967741935484
 40
0.3870967741935484
 40
0.4193548387096774
 40
0.4193548387096774
 40
0.4193548387096774
 40
0.4193548387096774
 40
0.4516129032258064
 40
0.4516129032258064
 40
0.4516129032258064
 40
0.4516129032258064
 40
0.4838709677419355
 40
0.4838709677419355
 40
0.4838709677419355
 40
0.4838709677419355
 40
0.5161290322580645
 40
0.5161290322580645
 40
0.5161290322580645
 40
0.5161290322580645
 40
0.5483870967741935
 40
0.5483870967741935
 40
0.5483870967741935
 40
0.5483870967741935
 40
0.5806451612903226
 40
0.5806451612903226
 40
0.5806451612903226
 40
0.5806451612903226
 40
0.6129032258064516
 40
0.6129032258064516
 40
0.6129032258064516
 40
0.6129032258064516
 40
0.6451612903225806
 40
0.6451612903225806
 40
0.6451612903225806
 40
0.6451612903225806
 40
0.6774193548387096
 40
0.6774193548387096
 40
0.6774193548387096
 40
0.6774193548387096
 40
0.7096774193548387
 40
0.7096774193548387
 40
0.7096774193548387
 40
0.7096774193548387
 40
0.7419354838709677
 40
0.7419354838709677
 40
0.7419354838709677
 40
0.7419354838709677
 40
0.7741935483870968
 40
0.7741935483870968
 40
0.7741935483870968
 40
0.7741935483870968
 40
0.8064516129032258
 40
0.8064516129032258
 40
0.8064516129032258
 40
0.8064516129032258
 40
0.8387096774193549
 40
0.8387096774193549
 40
0.8387096774193549
 40
0.8387096774193549
 40
0.8709677419354839
 40
0.8709677419354839
 40
0.8709677419354839
 40
0.8709677419354839
 40
0.9032258064516129
 40
0.9032258064516129
 40
0.9032258064516129
 40
0.9032258064516129
 40
0.9354838709677419
 40
0.9354838709677419
 40
0.9354838709677419
 40
0.9354838709677419
 40
1.0
 40
1.0
 40
1.0
 40
1.0
 10
7.2616
 20
-4.6259
 30
0.0
 10
7.2616
 20
-4.6259
 30
0.0
 10
7.5095
 20
-4.593
 30
0.0
 10
7.5095
 20
-4.593
 30
0.0
 10
7.5095
 20
-4.593
 30
0.0
 10
7.5382
 20
-4.7336
 30
0.0
 10
7.5867
 20
-4.8347
 30
0.0
 10
7.6549
 20
-4.8968
 30
0.0
 10
7.6549
 20
-4.8968
 30
0.0
 10
7.7235
 20
-4.9589
 30
0.0
 10
7.8068
 20
-4.99
 30
0.0
 10
7.9051
 20
-4.99
 30
0.0
 10
7.9051
 20
-4.99
 30
0.0
 10
8.0217
 20
-4.99
 30
0.0
 10
8.1205
 20
-4.9495
 30
0.0
 10
8.201
 20
-4.8686
 30
0.0
 10
8.201
 20
-4.8686
 30
0.0
 10
8.2809
 20
-4.7877
 30
0.0
 10
8.3214
 20
-4.6875
 30
0.0
 10
8.3214
 20
-4.568
 30
0.0
 10
8.3214
 20
-4.568
 30
0.0
 10
8.3214
 20
-4.4542
 30
0.0
 10
8.2842
 20
-4.3601
 30
0.0
 10
8.2099
 20
-4.2863
 30
0.0
 10
8.2099
 20
-4.2863
 30
0.0
 10
8.1351
 20
-4.2125
 30
0.0
 10
8.0406
 20
-4.1753
 30
0.0
 10
7.9258
 20
-4.1753
 30
0.0
 10
7.9258
 20
-4.1753
 30
0.0
 10
7.8788
 20
-4.1753
 30
0.0
 10
7.8204
 20
-4.1847
 30
0.0
 10
7.7508
 20
-4.203
 30
0.0
 10
7.7508
 20
-4.203
 30
0.0
 10
7.7508
 20
-4.203
 30
0.0
 10
7.7786
 20
-3.9853
 30
0.0
 10
7.7786
 20
-3.9853
 30
0.0
 10
7.7786
 20
-3.9853
 30
0.0
 10
7.795
 20
-3.9871
 30
0.0
 10
7.8082
 20
-3.9881
 30
0.0
 10
7.8185
 20
-3.9881
 30
0.0
 10
7.8185
 20
-3.9881
 30
0.0
 10
7.9239
 20
-3.9881
 30
0.0
 10
8.0189
 20
-3.9603
 30
0.0
 10
8.1036
 20
-3.9053
 30
0.0
 10
8.1036
 20
-3.9053
 30
0.0
 10
8.1883
 20
-3.8503
 30
0.0
 10
8.2306
 20
-3.7651
 30
0.0
 10
8.2306
 20
-3.6504
 30
0.0
 10
8.2306
 20
-3.6504
 30
0.0
 10
8.2306
 20
-3.5596
 30
0.0
 10
8.1995
 20
-3.4839
 30
0.0
 10
8.1379
 20
-3.4246
 30
0.0
 10
8.1379
 20
-3.4246
 30
0.0
 10
8.0763
 20
-3.3649
 30
0.0
 10
7.9968
 20
-3.3347
 30
0.0
 10
7.8994
 20
-3.3347
 30
0.0
 10
7.8994
 20
-3.3347
 30
0.0
 10
7.803
 20
-3.3347
 30
0.0
 10
7.7226
 20
-3.3653
 30
0.0
 10
7.6586
 20
-3.4255
 30
0.0
 10
7.6586
 20
-3.4255
 30
0.0
 10
7.5942
 20
-3.4862
 30
0.0
 10
7.5528
 20
-3.5775
 30
0.0
 10
7.5344
 20
-3.6988
 30
0.0
 10
7.5344
 20
-3.6988
 30
0.0
 10
7.5344
 20
-3.6988
 30
0.0
 10
7.2866
 20
-3.6546
 30
0.0
 10
7.2866
 20
-3.6546
 30
0.0
 10
7.2866
 20
-3.6546
 30
0.0
 10
7.3167
 20
-3.4881
 30
0.0
 10
7.3858
 20
-3.3592
 30
0.0
 10
7.4931
 20
-3.268
 30
0.0
 10
7.4931
 20
-3.268
 30
0.0
 10
7.6008
 20
-3.1767
 30
0.0
 10
7.7344
 20
-3.1306
 30
0.0
 10
7.8943
 20
-3.1306
 30
0.0
 10
7.8943
 20
-3.1306
 30
0.0
 10
8.0043
 20
-3.1306
 30
0.0
 10
8.1059
 20
-3.1546
 30
0.0
 10
8.1986
 20
-3.2016
 30
0.0
 10
8.1986
 20
-3.2016
 30
0.0
 10
8.2913
 20
-3.2491
 30
0.0
 10
8.3623
 20
-3.3136
 30
0.0
 10
8.4117
 20
-3.3954
 30
0.0
 10
8.4117
 20
-3.3954
 30
0.0
 10
8.4606
 20
-3.4773
 30
0.0
 10
8.4855
 20
-3.5638
 30
0.0
 10
8.4855
 20
-3.656
 30
0.0
 10
8.4855
 20
-3.656
 30
0.0
 10
8.4855
 20
-3.743
 30
0.0
 10
8.462
 20
-3.8225
 30
0.0
 10
8.415
 20
-3.8945
 30
0.0
 10
8.415
 20
-3.8945
 30
0.0
 10
8.3679
 20
-3.966
 30
0.0
 10
8.2988
 20
-4.0229
 30
0.0
 10
8.2071
 20
-4.0652
 30
0.0
 10
8.2071
 20
-4.0652
 30
0.0
 10
8.3265
 20
-4.0925
 30
0.0
 10
8.4192
 20
-4.1499
 30
0.0
 10
8.4855
 20
-4.2369
 30
0.0
 10
8.4855
 20
-4.2369
 30
0.0
 10
8.5514
 20
-4.3235
 30
0.0
 10
8.5843
 20
-4.4321
 30
0.0
 10
8.5843
 20
-4.5624
 30
0.0
 10
8.5843
 20
-4.5624
 30
0.0
 10
8.5843
 20
-4.7388
 30
0.0
 10
8.5203
 20
-4.8884
 30
0.0
 10
8.3915
 20
-5.0111
 30
0.0
 10
8.3915
 20
-5.0111
 30
0.0
 10
8.263
 20
-5.1339
 30
0.0
 10
8.1003
 20
-5.195
 30
0.0
 10
7.9037
 20
-5.195
 30
0.0
 10
7.9037
 20
-5.195
 30
0.0
 10
7.7264
 20
-5.195
 30
0.0
 10
7.5791
 20
-5.1424
 30
0.0
 10
7.462
 20
-5.0365
 30
0.0
 10
7.462
 20
-5.0365
 30
0.0
 10
7.3449
 20
-4.9312
 30
0.0
 10
7.2781
 20
-4.7943
 30
0.0
 10
7.2616
 20
-4.6259
 30
0.0
  0
SPLINE
  5
5F
330
1F
100
AcDbEntity
  8
DEFAULT_1
 62
   250
100
AcDbSpline
210
0.0
220
0.0
230
1.0
 70
    11
 71
     3
 72
    92
 73
    88
 74
     0
 42
0.0000000001
 43
0.0000000001
 40
0.0
 40
0.0
 40
0.0
 40
0.0
 40
0.0434782608695652
 40
0.0434782608695652
 40
0.0434782608695652
 40
0.0434782608695652
 40
0.0869565217391304
 40
0.0869565217391304
 40
0.0869565217391304
 40
0.0869565217391304
 40
0.1304347826086956
 40
0.1304347826086956
 40
0.1304347826086956
 40
0.1304347826086956
 40
0.1739130434782609
 40
0.1739130434782609
 40
0.1739130434782609
 40
0.1739130434782609
 40
0.2173913043478261
 40
0.2173913043478261
 40
0.2173913043478261
 40
0.2173913043478261
 40
0.2608695652173913
 40
0.2608695652173913
 40
0.2608695652173913
 40
0.2608695652173913
 40
0.3043478260869565
 40
0.3043478260869565
 40
0.3043478260869565
 40
0.3043478260869565
 40
0.3478260869565217
 40
0.3478260869565217
 40
0.3478260869565217
 40
0.3478260869565217
 40
0.391304347826087
 40
0.391304347826087
 40
0.391304347826087
 40
0.391304347826087
 40
0.4347826086956522
 40
0.4347826086956522
 40
0.4347826086956522
 40
0.4347826086956522
 40
0.4782608695652174
 40
0.4782608695652174
 40
0.4782608695652174
 40
0.4782608695652174
 40
0.5217391304347826
 40
0.5217391304347826
 40
0.5217391304347826
 40
0.5217391304347826
 40
0.5652173913043478
 40
0.5652173913043478
 40
0.5652173913043478
 40
0.5652173913043478
 40
0.6086956521739131
 40
0.6086956521739131
 40
0.6086956521739131
 40
0.6086956521739131
 40
0.6521739130434783
 40
0.6521739130434783
 40
0.6521739130434783
 40
0.6521739130434783
 40
0.6956521739130435
 40
0.6956521739130435
 40
0.6956521739130435
 40
0.6956521739130435
 40
0.7391304347826086
 40
0.7391304347826086
 40
0.7391304347826086
 40
0.7391304347826086
 40
0.782608695652174
 40
0.782608695652174
 40
0.782608695652174
 40
0.782608695652174
 40
0.8260869565217391
 40
0.8260869565217391
 40
0.8260869565217391
 40
0.8260869565217391
 40
0.8695652173913043
 40
0.8695652173913043
 40
0.8695652173913043
 40
0.8695652173913043
 40
0.9130434782608695
 40
0.9130434782608695
 40
0.9130434782608695
 40
0.9130434782608695
 40
1.0
 40
1.0
 40
1.0
 40
1.0
 10
10.1337
 20
-4.9208
 30
0.0
 10
10.1337
 20
-4.9208
 30
0.0
 10
10.1337
 20
-5.1593
 30
0.0
 10
10.1337
 20
-5.1593
 30
0.0
 10
10.1337
 20
-5.1593
 30
0.0
 10
10.1337
 20
-5.1593
 30
0.0
 10
8.7983
 20
-5.1593
 30
0.0
 10
8.7983
 20
-5.1593
 30
0.0
 10
8.7983
 20
-5.1593
 30
0.0
 10
8.7964
 20
-5.0996
 30
0.0
 10
8.8058
 20
-5.0422
 30
0.0
 10
8.827
 20
-4.9871
 30
0.0
 10
8.827
 20
-4.9871
 30
0.0
 10
8.8609
 20
-4.8959
 30
0.0
 10
8.9154
 20
-4.8065
 30
0.0
 10
8.9902
 20
-4.7181
 30
0.0
 10
8.9902
 20
-4.7181
 30
0.0
 10
9.0655
 20
-4.6301
 30
0.0
 10
9.1737
 20
-4.5281
 30
0.0
 10
9.3148
 20
-4.4124
 30
0.0
 10
9.3148
 20
-4.4124
 30
0.0
 10
9.5344
 20
-4.2322
 30
0.0
 10
9.6831
 20
-4.0897
 30
0.0
 10
9.7602
 20
-3.9843
 30
0.0
 10
9.7602
 20
-3.9843
 30
0.0
 10
9.8373
 20
-3.8794
 30
0.0
 10
9.8759
 20
-3.7797
 30
0.0
 10
9.8759
 20
-3.6861
 30
0.0
 10
9.8759
 20
-3.6861
 30
0.0
 10
9.8759
 20
-3.5878
 30
0.0
 10
9.8406
 20
-3.505
 30
0.0
 10
9.7706
 20
-3.4373
 30
0.0
 10
9.7706
 20
-3.4373
 30
0.0
 10
9.7
 20
-3.37
 30
0.0
 10
9.6083
 20
-3.3362
 30
0.0
 10
9.4954
 20
-3.3362
 30
0.0
 10
9.4954
 20
-3.3362
 30
0.0
 10
9.3759
 20
-3.3362
 30
0.0
 10
9.2804
 20
-3.3719
 30
0.0
 10
9.2089
 20
-3.4439
 30
0.0
 10
9.2089
 20
-3.4439
 30
0.0
 10
9.137
 20
-3.5154
 30
0.0
 10
9.1008
 20
-3.6146
 30
0.0
 10
9.0998
 20
-3.7411
 30
0.0
 10
9.0998
 20
-3.7411
 30
0.0
 10
9.0998
 20
-3.7411
 30
0.0
 10
8.8449
 20
-3.7153
 30
0.0
 10
8.8449
 20
-3.7153
 30
0.0
 10
8.8449
 20
-3.7153
 30
0.0
 10
8.8623
 20
-3.5248
 30
0.0
 10
8.9281
 20
-3.3799
 30
0.0
 10
9.042
 20
-3.2802
 30
0.0
 10
9.042
 20
-3.2802
 30
0.0
 10
9.1558
 20
-3.1805
 30
0.0
 10
9.3091
 20
-3.1306
 30
0.0
 10
9.501
 20
-3.1306
 30
0.0
 10
9.501
 20
-3.1306
 30
0.0
 10
9.6948
 20
-3.1306
 30
0.0
 10
9.8482
 20
-3.1847
 30
0.0
 10
9.9611
 20
-3.2919
 30
0.0
 10
9.9611
 20
-3.2919
 30
0.0
 10
10.0744
 20
-3.3997
 30
0.0
 10
10.1309
 20
-3.5328
 30
0.0
 10
10.1309
 20
-3.6918
 30
0.0
 10
10.1309
 20
-3.6918
 30
0.0
 10
10.1309
 20
-3.7727
 30
0.0
 10
10.1144
 20
-3.8522
 30
0.0
 10
10.081
 20
-3.9302
 30
0.0
 10
10.081
 20
-3.9302
 30
0.0
 10
10.0481
 20
-4.0083
 30
0.0
 10
9.993
 20
-4.0906
 30
0.0
 10
9.9164
 20
-4.1767
 30
0.0
 10
9.9164
 20
-4.1767
 30
0.0
 10
9.8397
 20
-4.2633
 30
0.0
 10
9.7122
 20
-4.3818
 30
0.0
 10
9.534
 20
-4.5323
 30
0.0
 10
9.534
 20
-4.5323
 30
0.0
 10
9.3853
 20
-4.6574
 30
0.0
 10
9.2898
 20
-4.7421
 30
0.0
 10
9.2475
 20
-4.7868
 30
0.0
 10
9.2475
 20
-4.7868
 30
0.0
 10
9.2052
 20
-4.831
 30
0.0
 10
9.1704
 20
-4.8757
 30
0.0
 10
9.1426
 20
-4.9208
 30
0.0
 10
9.1426
 20
-4.9208
 30
0.0
 10
9.1426
 20
-4.9208
 30
0.0
 10
10.1337
 20
-4.9208
 30
0.0
 10
10.1337
 20
-4.9208
 30
0.0
  0
SPLINE
  5
60
330
1F
100
AcDbEntity
  8
DEFAULT_1
 62
   250
100
AcDbSpline
210
0.0
220
0.0
230
1.0
 70
    11
 71
     3
 72
    52
 73
    48
 74
     0
 42
0.0000000001
 43
0.0000000001
 40
0.0
 40
0.0
 40
0.0
 40
0.0
 40
0.0769230769230769
 40
0.0769230769230769
 40
0.0769230769230769
 40
0.0769230769230769
 40
0.1538461538461539
 40
0.1538461538461539
 40
0.1538461538461539
 40
0.1538461538461539
 40
0.2307692307692308
 40
0.2307692307692308
 40
0.2307692307692308
 40
0.2307692307692308
 40
0.3076923076923077
 40
0.3076923076923077
 40
0.3076923076923077
 40
0.3076923076923077
 40
0.3846153846153846
 40
0.3846153846153846
 40
0.3846153846153846
 40
0.3846153846153846
 40
0.4615384615384616
 40
0.4615384615384616
 40
0.4615384615384616
 40
0.4615384615384616
 40
0.5384615384615384
 40
0.5384615384615384
 40
0.5384615384615384
 40
0.5384615384615384
 40
0.6153846153846154
 40
0.6153846153846154
 40
0.6153846153846154
 40
0.6153846153846154
 40
0.6923076923076923
 40
0.6923076923076923
 40
0.6923076923076923
 40
0.6923076923076923
 40
0.7692307692307693
 40
0.7692307692307693
 40
0.7692307692307693
 40
0.7692307692307693
 40
0.8461538461538461
 40
0.8461538461538461
 40
0.8461538461538461
 40
0.8461538461538461
 40
1.0
 40
1.0
 40
1.0
 40
1.0
 10
10.3994
 20
-4.1631
 30
0.0
 10
10.3994
 20
-3.9241
 30
0.0
 10
10.4239
 20
-3.7317
 30
0.0
 10
10.4733
 20
-3.5864
 30
0.0
 10
10.4733
 20
-3.5864
 30
0.0
 10
10.5222
 20
-3.4406
 30
0.0
 10
10.5956
 20
-3.3282
 30
0.0
 10
10.6925
 20
-3.2491
 30
0.0
 10
10.6925
 20
-3.2491
 30
0.0
 10
10.7894
 20
-3.1701
 30
0.0
 10
10.9112
 20
-3.1306
 30
0.0
 10
11.0579
 20
-3.1306
 30
0.0
 10
11.0579
 20
-3.1306
 30
0.0
 10
11.1666
 20
-3.1306
 30
0.0
 10
11.2616
 20
-3.1527
 30
0.0
 10
11.3434
 20
-3.1965
 30
0.0
 10
11.3434
 20
-3.1965
 30
0.0
 10
11.4253
 20
-3.2397
 30
0.0
 10
11.4926
 20
-3.3028
 30
0.0
 10
11.5462
 20
-3.3851
 30
0.0
 10
11.5462
 20
-3.3851
 30
0.0
 10
11.5993
 20
-3.4674
 30
0.0
 10
11.6412
 20
-3.5676
 30
0.0
 10
11.6713
 20
-3.6856
 30
0.0
 10
11.6713
 20
-3.6856
 30
0.0
 10
11.7019
 20
-3.8037
 30
0.0
 10
11.7169
 20
-3.9627
 30
0.0
 10
11.7169
 20
-4.1631
 30
0.0
 10
11.7169
 20
-4.1631
 30
0.0
 10
11.7169
 20
-4.4001
 30
0.0
 10
11.6925
 20
-4.5911
 30
0.0
 10
11.644
 20
-4.7369
 30
0.0
 10
11.644
 20
-4.7369
 30
0.0
 10
11.5951
 20
-4.8827
 30
0.0
 10
11.5222
 20
-4.9951
 30
0.0
 10
11.4253
 20
-5.0746
 30
0.0
 10
11.4253
 20
-5.0746
 30
0.0
 10
11.3284
 20
-5.1541
 30
0.0
 10
11.2061
 20
-5.1936
 30
0.0
 10
11.0579
 20
-5.1936
 30
0.0
 10
11.0579
 20
-5.1936
 30
0.0
 10
10.8632
 20
-5.1936
 30
0.0
 10
10.7103
 20
-5.124
 30
0.0
 10
10.5993
 20
-4.9843
 30
0.0
 10
10.5993
 20
-4.9843
 30
0.0
 10
10.4662
 20
-4.8164
 30
0.0
 10
10.3994
 20
-4.5422
 30
0.0
 10
10.3994
 20
-4.1631
 30
0.0
  0
SPLINE
  5
61
330
1F
100
AcDbEntity
  8
DEFAULT_1
 62
   250
100
AcDbSpline
210
0.0
220
0.0
230
1.0
 70
    11
 71
     3
 72
    36
 73
    32
 74
     0
 42
0.0000000001
 43
0.0000000001
 40
0.0
 40
0.0
 40
0.0
 40
0.0
 40
0.1111111111111111
 40
0.1111111111111111
 40
0.1111111111111111
 40
0.1111111111111111
 40
0.2222222222222222
 40
0.2222222222222222
 40
0.2222222222222222
 40
0.2222222222222222
 40
0.3333333333333333
 40
0.3333333333333333
 40
0.3333333333333333
 40
0.3333333333333333
 40
0.4444444444444444
 40
0.4444444444444444
 40
0.4444444444444444
 40
0.4444444444444444
 40
0.5555555555555556
 40
0.5555555555555556
 40
0.5555555555555556
 40
0.5555555555555556
 40
0.6666666666666666
 40
0.6666666666666666
 40
0.6666666666666666
 40
0.6666666666666666
 40
0.7777777777777778
 40
0.7777777777777778
 40
0.7777777777777778
 40
0.7777777777777778
 40
1.0
 40
1.0
 40
1.0
 40
1.0
 10
10.6544
 20
-4.1631
 30
0.0
 10
10.6544
 20
-4.4947
 30
0.0
 10
10.6934
 20
-4.7153
 30
0.0
 10
10.771
 20
-4.8253
 30
0.0
 10
10.771
 20
-4.8253
 30
0.0
 10
10.8486
 20
-4.9349
 30
0.0
 10
10.9441
 20
-4.99
 30
0.0
 10
11.0579
 20
-4.99
 30
0.0
 10
11.0579
 20
-4.99
 30
0.0
 10
11.1722
 20
-4.99
 30
0.0
 10
11.2677
 20
-4.9345
 30
0.0
 10
11.3453
 20
-4.8244
 30
0.0
 10
11.3453
 20
-4.8244
 30
0.0
 10
11.4229
 20
-4.7143
 30
0.0
 10
11.462
 20
-4.4937
 30
0.0
 10
11.462
 20
-4.1631
 30
0.0
 10
11.462
 20
-4.1631
 30
0.0
 10
11.462
 20
-3.8305
 30
0.0
 10
11.4229
 20
-3.6094
 30
0.0
 10
11.3453
 20
-3.5003
 30
0.0
 10
11.3453
 20
-3.5003
 30
0.0
 10
11.2677
 20
-3.3907
 30
0.0
 10
11.1713
 20
-3.3362
 30
0.0
 10
11.0556
 20
-3.3362
 30
0.0
 10
11.0556
 20
-3.3362
 30
0.0
 10
10.9413
 20
-3.3362
 30
0.0
 10
10.8505
 20
-3.3846
 30
0.0
 10
10.7823
 20
-3.481
 30
0.0
 10
10.7823
 20
-3.481
 30
0.0
 10
10.6972
 20
-3.6038
 30
0.0
 10
10.6544
 20
-3.8315
 30
0.0
 10
10.6544
 20
-4.1631
 30
0.0
  0
SPLINE
  5
62
330
1F
100
AcDbEntity
  8
DEFAULT_1
 62
   250
100
AcDbSpline
210
0.0
220
0.0
230
1.0
 70
    24
 71
     3
 72
     8
 73
     4
 74
     0
 42
0.0000000001
 43
0.0000000001
 40
0.0
 40
0.0
 40
0.0
 40
0.0
 40
1.0
 40
1.0
 40
1.0
 40
1.0
 10
46.6122
 20
-14.3495
 30
0.0
 10
46.6122
 20
-14.3495
 30
0.0
 10
46.6122
 20
-5.2584
 30
0.0
 10
46.6122
 20
-5.2584
 30
0.0
  0
SPLINE
  5
63
330
1F
100
AcDbEntity
  8
DEFAULT_1
 62
   250
100
AcDbSpline
210
0.0
220
0.0
230
1.0
 70
    24
 71
     3
 72
     8
 73
     4
 74
     0
 42
0.0000000001
 43
0.0000000001
 40
0.0
 40
0.0
 40
0.0
 40
0.0
 40
1.0
 40
1.0
 40
1.0
 40
1.0
 10
-28.9583
 20
-5.9714
 30
0.0
 10
-28.9583
 20
-5.9714
 30
0.0
 10
45.8415
 20
-5.9714
 30
0.0
 10
45.8415
 20
-5.9714
 30
0.0
  0
SPLINE
  5
64
330
1F
100
AcDbEntity
  8
DEFAULT_1
 62
   250
100
AcDbSpline
210
0.0
220
0.0
230
1.0
 70
    11
 71
     3
 72
    80
 73
    76
 74
     0
 42
0.0000000001
 43
0.0000000001
 40
0.0
 40
0.0
 40
0.0
 40
0.0
 40
0.05
 40
0.05
 40
0.05
 40
0.05
 40
0.1
 40
0.1
 40
0.1
 40
0.1
 40
0.15
 40
0.15
 40
0.15
 40
0.15
 40
0.2
 40
0.2
 40
0.2
 40
0.2
 40
0.25
 40
0.25
 40
0.25
 40
0.25
 40
0.3
 40
0.3
 40
0.3
 40
0.3
 40
0.35
 40
0.35
 40
0.35
 40
0.35
 40
0.4
 40
0.4
 40
0.4
 40
0.4
 40
0.45
 40
0.45
 40
0.45
 40
0.45
 40
0.5
 40
0.5
 40
0.5
 40
0.5
 40
0.55
 40
0.55
 40
0.55
 40
0.55
 40
0.6
 40
0.6
 40
0.6
 40
0.6
 40
0.65
 40
0.65
 40
0.65
 40
0.65
 40
0.7
 40
0.7
 40
0.7
 40
0.7
 40
0.75
 40
0.75
 40
0.75
 40
0.75
 40
0.8
 40
0.8
 40
0.8
 40
0.8
 40
0.85
 40
0.85
 40
0.85
 40
0.85
 40
0.9
 40
0.9
 40
0.9
 40
0.9
 40
1.0
 40
1.0
 40
1.0
 40
1.0
 10
-22.1014
 20
-9.8742
 30
0.0
 10
-22.1014
 20
-9.8742
 30
0.0
 10
-22.3478
 20
-9.8935
 30
0.0
 10
-22.3478
 20
-9.8935
 30
0.0
 10
-22.3478
 20
-9.8935
 30
0.0
 10
-22.3699
 20
-9.7961
 30
0.0
 10
-22.401
 20
-9.7251
 30
0.0
 10
-22.4414
 20
-9.6814
 30
0.0
 10
-22.4414
 20
-9.6814
 30
0.0
 10
-22.5087
 20
-9.6103
 30
0.0
 10
-22.5915
 20
-9.575
 30
0.0
 10
-22.6898
 20
-9.575
 30
0.0
 10
-22.6898
 20
-9.575
 30
0.0
 10
-22.7688
 20
-9.575
 30
0.0
 10
-22.8379
 20
-9.5972
 30
0.0
 10
-22.8977
 20
-9.6414
 30
0.0
 10
-22.8977
 20
-9.6414
 30
0.0
 10
-22.9758
 20
-9.6983
 30
0.0
 10
-23.0374
 20
-9.7815
 30
0.0
 10
-23.0825
 20
-9.8907
 30
0.0
 10
-23.0825
 20
-9.8907
 30
0.0
 10
-23.1272
 20
-9.9998
 30
0.0
 10
-23.1507
 20
-10.1555
 30
0.0
 10
-23.1526
 20
-10.3577
 30
0.0
 10
-23.1526
 20
-10.3577
 30
0.0
 10
-23.0929
 20
-10.267
 30
0.0
 10
-23.02
 20
-10.1992
 30
0.0
 10
-22.9334
 20
-10.155
 30
0.0
 10
-22.9334
 20
-10.155
 30
0.0
 10
-22.8474
 20
-10.1113
 30
0.0
 10
-22.7566
 20
-10.0892
 30
0.0
 10
-22.662
 20
-10.0892
 30
0.0
 10
-22.662
 20
-10.0892
 30
0.0
 10
-22.4965
 20
-10.0892
 30
0.0
 10
-22.3558
 20
-10.1498
 30
0.0
 10
-22.2396
 20
-10.2717
 30
0.0
 10
-22.2396
 20
-10.2717
 30
0.0
 10
-22.1235
 20
-10.3935
 30
0.0
 10
-22.0651
 20
-10.5506
 30
0.0
 10
-22.0651
 20
-10.7434
 30
0.0
 10
-22.0651
 20
-10.7434
 30
0.0
 10
-22.0651
 20
-10.8704
 30
0.0
 10
-22.0929
 20
-10.988
 30
0.0
 10
-22.1475
 20
-11.0972
 30
0.0
 10
-22.1475
 20
-11.0972
 30
0.0
 10
-22.202
 20
-11.2058
 30
0.0
 10
-22.2773
 20
-11.2895
 30
0.0
 10
-22.3728
 20
-11.3474
 30
0.0
 10
-22.3728
 20
-11.3474
 30
0.0
 10
-22.4682
 20
-11.4052
 30
0.0
 10
-22.5764
 20
-11.4339
 30
0.0
 10
-22.6978
 20
-11.4339
 30
0.0
 10
-22.6978
 20
-11.4339
 30
0.0
 10
-22.9047
 20
-11.4339
 30
0.0
 10
-23.0731
 20
-11.3582
 30
0.0
 10
-23.2034
 20
-11.2058
 30
0.0
 10
-23.2034
 20
-11.2058
 30
0.0
 10
-23.3342
 20
-11.0539
 30
0.0
 10
-23.3991
 20
-10.8032
 30
0.0
 10
-23.3991
 20
-10.4542
 30
0.0
 10
-23.3991
 20
-10.4542
 30
0.0
 10
-23.3991
 20
-10.0638
 30
0.0
 10
-23.3271
 20
-9.7801
 30
0.0
 10
-23.1827
 20
-9.6028
 30
0.0
 10
-23.1827
 20
-9.6028
 30
0.0
 10
-23.0571
 20
-9.4485
 30
0.0
 10
-22.8878
 20
-9.3709
 30
0.0
 10
-22.6743
 20
-9.3709
 30
0.0
 10
-22.6743
 20
-9.3709
 30
0.0
 10
-22.5157
 20
-9.3709
 30
0.0
 10
-22.3855
 20
-9.4156
 30
0.0
 10
-22.2839
 20
-9.505
 30
0.0
 10
-22.2839
 20
-9.505
 30
0.0
 10
-22.1823
 20
-9.5939
 30
0.0
 10
-22.1216
 20
-9.7171
 30
0.0
 10
-22.1014
 20
-9.8742
 30
0.0
  0
SPLINE
  5
65
330
1F
100
AcDbEntity
  8
DEFAULT_1
 62
   250
100
AcDbSpline
210
0.0
220
0.0
230
1.0
 70
    11
 71
     3
 72
    40
 73
    36
 74
     0
 42
0.0000000001
 43
0.0000000001
 40
0.0
 40
0.0
 40
0.0
 40
0.0
 40
0.1
 40
0.1
 40
0.1
 40
0.1
 40
0.2
 40
0.2
 40
0.2
 40
0.2
 40
0.3
 40
0.3
 40
0.3
 40
0.3
 40
0.4
 40
0.4
 40
0.4
 40
0.4
 40
0.5
 40
0.5
 40
0.5
 40
0.5
 40
0.6
 40
0.6
 40
0.6
 40
0.6
 40
0.7
 40
0.7
 40
0.7
 40
0.7
 40
0.8
 40
0.8
 40
0.8
 40
0.8
 40
1.0
 40
1.0
 40
1.0
 40
1.0
 10
-23.1141
 20
-10.7448
 30
0.0
 10
-23.1141
 20
-10.8305
 30
0.0
 10
-23.0957
 20
-10.9123
 30
0.0
 10
-23.0595
 20
-10.9904
 30
0.0
 10
-23.0595
 20
-10.9904
 30
0.0
 10
-23.0233
 20
-11.0685
 30
0.0
 10
-22.9725
 20
-11.1277
 30
0.0
 10
-22.9076
 20
-11.1686
 30
0.0
 10
-22.9076
 20
-11.1686
 30
0.0
 10
-22.8422
 20
-11.2096
 30
0.0
 10
-22.7735
 20
-11.2303
 30
0.0
 10
-22.702
 20
-11.2303
 30
0.0
 10
-22.702
 20
-11.2303
 30
0.0
 10
-22.5971
 20
-11.2303
 30
0.0
 10
-22.5073
 20
-11.1879
 30
0.0
 10
-22.432
 20
-11.1033
 30
0.0
 10
-22.432
 20
-11.1033
 30
0.0
 10
-22.3568
 20
-11.0186
 30
0.0
 10
-22.3191
 20
-10.9038
 30
0.0
 10
-22.3191
 20
-10.759
 30
0.0
 10
-22.3191
 20
-10.759
 30
0.0
 10
-22.3191
 20
-10.6193
 30
0.0
 10
-22.3563
 20
-10.5092
 30
0.0
 10
-22.4306
 20
-10.4288
 30
0.0
 10
-22.4306
 20
-10.4288
 30
0.0
 10
-22.5049
 20
-10.3483
 30
0.0
 10
-22.5985
 20
-10.3083
 30
0.0
 10
-22.7114
 20
-10.3083
 30
0.0
 10
-22.7114
 20
-10.3083
 30
0.0
 10
-22.8238
 20
-10.3083
 30
0.0
 10
-22.9189
 20
-10.3483
 30
0.0
 10
-22.9969
 20
-10.4288
 30
0.0
 10
-22.9969
 20
-10.4288
 30
0.0
 10
-23.075
 20
-10.5092
 30
0.0
 10
-23.1141
 20
-10.6146
 30
0.0
 10
-23.1141
 20
-10.7448
 30
0.0
  0
SPLINE
  5
66
330
1F
100
AcDbEntity
  8
DEFAULT_1
 62
   250
100
AcDbSpline
210
0.0
220
0.0
230
1.0
 70
    11
 71
     3
 72
    52
 73
    48
 74
     0
 42
0.0000000001
 43
0.0000000001
 40
0.0
 40
0.0
 40
0.0
 40
0.0
 40
0.0769230769230769
 40
0.0769230769230769
 40
0.0769230769230769
 40
0.0769230769230769
 40
0.1538461538461539
 40
0.1538461538461539
 40
0.1538461538461539
 40
0.1538461538461539
 40
0.2307692307692308
 40
0.2307692307692308
 40
0.2307692307692308
 40
0.2307692307692308
 40
0.3076923076923077
 40
0.3076923076923077
 40
0.3076923076923077
 40
0.3076923076923077
 40
0.3846153846153846
 40
0.3846153846153846
 40
0.3846153846153846
 40
0.3846153846153846
 40
0.4615384615384616
 40
0.4615384615384616
 40
0.4615384615384616
 40
0.4615384615384616
 40
0.5384615384615384
 40
0.5384615384615384
 40
0.5384615384615384
 40
0.5384615384615384
 40
0.6153846153846154
 40
0.6153846153846154
 40
0.6153846153846154
 40
0.6153846153846154
 40
0.6923076923076923
 40
0.6923076923076923
 40
0.6923076923076923
 40
0.6923076923076923
 40
0.7692307692307693
 40
0.7692307692307693
 40
0.7692307692307693
 40
0.7692307692307693
 40
0.8461538461538461
 40
0.8461538461538461
 40
0.8461538461538461
 40
0.8461538461538461
 40
1.0
 40
1.0
 40
1.0
 40
1.0
 10
-21.8187
 20
-10.4034
 30
0.0
 10
-21.8187
 20
-10.1644
 30
0.0
 10
-21.7942
 20
-9.972
 30
0.0
 10
-21.7448
 20
-9.8267
 30
0.0
 10
-21.7448
 20
-9.8267
 30
0.0
 10
-21.6959
 20
-9.6809
 30
0.0
 10
-21.6225
 20
-9.5685
 30
0.0
 10
-21.5256
 20
-9.4894
 30
0.0
 10
-21.5256
 20
-9.4894
 30
0.0
 10
-21.4287
 20
-9.4104
 30
0.0
 10
-21.3069
 20
-9.3709
 30
0.0
 10
-21.1602
 20
-9.3709
 30
0.0
 10
-21.1602
 20
-9.3709
 30
0.0
 10
-21.0515
 20
-9.3709
 30
0.0
 10
-20.9565
 20
-9.393
 30
0.0
 10
-20.8747
 20
-9.4368
 30
0.0
 10
-20.8747
 20
-9.4368
 30
0.0
 10
-20.7928
 20
-9.48
 30
0.0
 10
-20.7255
 20
-9.5431
 30
0.0
 10
-20.6719
 20
-9.6254
 30
0.0
 10
-20.6719
 20
-9.6254
 30
0.0
 10
-20.6188
 20
-9.7077
 30
0.0
 10
-20.5769
 20
-9.8079
 30
0.0
 10
-20.5468
 20
-9.9259
 30
0.0
 10
-20.5468
 20
-9.9259
 30
0.0
 10
-20.5162
 20
-10.044
 30
0.0
 10
-20.5012
 20
-10.203
 30
0.0
 10
-20.5012
 20
-10.4034
 30
0.0
 10
-20.5012
 20
-10.4034
 30
0.0
 10
-20.5012
 20
-10.6404
 30
0.0
 10
-20.5256
 20
-10.8314
 30
0.0
 10
-20.5741
 20
-10.9772
 30
0.0
 10
-20.5741
 20
-10.9772
 30
0.0
 10
-20.623
 20
-11.123
 30
0.0
 10
-20.6959
 20
-11.2354
 30
0.0
 10
-20.7928
 20
-11.3149
 30
0.0
 10
-20.7928
 20
-11.3149
 30
0.0
 10
-20.8897
 20
-11.3944
 30
0.0
 10
-21.012
 20
-11.4339
 30
0.0
 10
-21.1602
 20
-11.4339
 30
0.0
 10
-21.1602
 20
-11.4339
 30
0.0
 10
-21.3549
 20
-11.4339
 30
0.0
 10
-21.5078
 20
-11.3643
 30
0.0
 10
-21.6188
 20
-11.2246
 30
0.0
 10
-21.6188
 20
-11.2246
 30
0.0
 10
-21.7519
 20
-11.0567
 30
0.0
 10
-21.8187
 20
-10.7825
 30
0.0
 10
-21.8187
 20
-10.4034
 30
0.0
  0
SPLINE
  5
67
330
1F
100
AcDbEntity
  8
DEFAULT_1
 62
   250
100
AcDbSpline
210
0.0
220
0.0
230
1.0
 70
    11
 71
     3
 72
    36
 73
    32
 74
     0
 42
0.0000000001
 43
0.0000000001
 40
0.0
 40
0.0
 40
0.0
 40
0.0
 40
0.1111111111111111
 40
0.1111111111111111
 40
0.1111111111111111
 40
0.1111111111111111
 40
0.2222222222222222
 40
0.2222222222222222
 40
0.2222222222222222
 40
0.2222222222222222
 40
0.3333333333333333
 40
0.3333333333333333
 40
0.3333333333333333
 40
0.3333333333333333
 40
0.4444444444444444
 40
0.4444444444444444
 40
0.4444444444444444
 40
0.4444444444444444
 40
0.5555555555555556
 40
0.5555555555555556
 40
0.5555555555555556
 40
0.5555555555555556
 40
0.6666666666666666
 40
0.6666666666666666
 40
0.6666666666666666
 40
0.6666666666666666
 40
0.7777777777777778
 40
0.7777777777777778
 40
0.7777777777777778
 40
0.7777777777777778
 40
1.0
 40
1.0
 40
1.0
 40
1.0
 10
-21.5637
 20
-10.4034
 30
0.0
 10
-21.5637
 20
-10.735
 30
0.0
 10
-21.5247
 20
-10.9556
 30
0.0
 10
-21.4471
 20
-11.0656
 30
0.0
 10
-21.4471
 20
-11.0656
 30
0.0
 10
-21.3695
 20
-11.1752
 30
0.0
 10
-21.274
 20
-11.2303
 30
0.0
 10
-21.1602
 20
-11.2303
 30
0.0
 10
-21.1602
 20
-11.2303
 30
0.0
 10
-21.0459
 20
-11.2303
 30
0.0
 10
-20.9504
 20
-11.1748
 30
0.0
 10
-20.8728
 20
-11.0647
 30
0.0
 10
-20.8728
 20
-11.0647
 30
0.0
 10
-20.7952
 20
-10.9546
 30
0.0
 10
-20.7561
 20
-10.734
 30
0.0
 10
-20.7561
 20
-10.4034
 30
0.0
 10
-20.7561
 20
-10.4034
 30
0.0
 10
-20.7561
 20
-10.0708
 30
0.0
 10
-20.7952
 20
-9.8497
 30
0.0
 10
-20.8728
 20
-9.7406
 30
0.0
 10
-20.8728
 20
-9.7406
 30
0.0
 10
-20.9504
 20
-9.631
 30
0.0
 10
-21.0468
 20
-9.5765
 30
0.0
 10
-21.1625
 20
-9.5765
 30
0.0
 10
-21.1625
 20
-9.5765
 30
0.0
 10
-21.2768
 20
-9.5765
 30
0.0
 10
-21.3676
 20
-9.6249
 30
0.0
 10
-21.4358
 20
-9.7213
 30
0.0
 10
-21.4358
 20
-9.7213
 30
0.0
 10
-21.5209
 20
-9.8441
 30
0.0
 10
-21.5637
 20
-10.0718
 30
0.0
 10
-21.5637
 20
-10.4034
 30
0.0
  0
SPLINE
  5
68
330
1F
100
AcDbEntity
  8
DEFAULT_1
 62
   250
100
AcDbSpline
210
0.0
220
0.0
230
1.0
 70
    24
 71
     3
 72
     8
 73
     4
 74
     0
 42
0.0000000001
 43
0.0000000001
 40
0.0
 40
0.0
 40
0.0
 40
0.0
 40
1.0
 40
1.0
 40
1.0
 40
1.0
 10
-10.4592
 20
-11.8838
 30
0.0
 10
-10.4592
 20
-11.8838
 30
0.0
 10
-32.6073
 20
-11.8838
 30
0.0
 10
-32.6073
 20
-11.8838
 30
0.0
  0
SPLINE
  5
69
330
1F
100
AcDbEntity
  8
DEFAULT_1
 62
   250
100
AcDbSpline
210
0.0
220
0.0
230
1.0
 70
    24
 71
     3
 72
     8
 73
     4
 74
     0
 42
0.0000000001
 43
0.0000000001
 40
0.0
 40
0.0
 40
0.0
 40
0.0
 40
1.0
 40
1.0
 40
1.0
 40
1.0
 10
-33.6714
 20
14.4814
 30
0.0
 10
-33.6714
 20
14.4814
 30
0.0
 10
-33.6714
 20
-21.2186
 30
0.0
 10
-33.6714
 20
-21.2186
 30
0.0
  0
SPLINE
  5
6A
330
1F
100
AcDbEntity
  8
DEFAULT_1
 62
   250
100
AcDbSpline
210
0.0
220
0.0
230
1.0
 70
    24
 71
     3
 72
     8
 73
     4
 74
     0
 42
0.0000000001
 43
0.0000000001
 40
0.0
 40
0.0
 40
0.0
 40
0.0
 40
1.0
 40
1.0
 40
1.0
 40
1.0
 10
-24.2454
 20
14.5106
 30
0.0
 10
-24.2454
 20
14.5106
 30
0.0
 10
-24.2454
 20
-21.2186
 30
0.0
 10
-24.2454
 20
-21.2186
 30
0.0
  0
SPLINE
  5
6B
330
1F
100
AcDbEntity
  8
DEFAULT_1
 62
   250
100
AcDbSpline
210
0.0
220
0.0
230
1.0
 70
     8
 71
     3
 72
    56
 73
    52
 74
     0
 42
0.0000000001
 43
0.0000000001
 40
0.0
 40
0.0
 40
0.0
 40
0.0
 40
0.0714285714285714
 40
0.0714285714285714
 40
0.0714285714285714
 40
0.0714285714285714
 40
0.1428571428571428
 40
0.1428571428571428
 40
0.1428571428571428
 40
0.1428571428571428
 40
0.2142857142857143
 40
0.2142857142857143
 40
0.2142857142857143
 40
0.2142857142857143
 40
0.2857142857142857
 40
0.2857142857142857
 40
0.2857142857142857
 40
0.2857142857142857
 40
0.3571428571428572
 40
0.3571428571428572
 40
0.3571428571428572
 40
0.3571428571428572
 40
0.4285714285714285
 40
0.4285714285714285
 40
0.4285714285714285
 40
0.4285714285714285
 40
0.5
 40
0.5
 40
0.5
 40
0.5
 40
0.5714285714285714
 40
0.5714285714285714
 40
0.5714285714285714
 40
0.5714285714285714
 40
0.6428571428571429
 40
0.6428571428571429
 40
0.6428571428571429
 40
0.6428571428571429
 40
0.7142857142857143
 40
0.7142857142857143
 40
0.7142857142857143
 40
0.7142857142857143
 40
0.7857142857142857
 40
0.7857142857142857
 40
0.7857142857142857
 40
0.7857142857142857
 40
0.8571428571428571
 40
0.8571428571428571
 40
0.8571428571428571
 40
0.8571428571428571
 40
1.0
 40
1.0
 40
1.0
 40
1.0
 10
36.3852
 20
-10.5241
 30
0.0
 10
36.3852
 20
-10.5241
 30
0.0
 10
36.4185
 20
-27.4498
 30
0.0
 10
36.4185
 20
-27.4498
 30
0.0
 10
36.4185
 20
-27.4498
 30
0.0
 10
36.4185
 20
-27.4498
 30
0.0
 10
37.29
 20
-28.4238
 30
0.0
 10
37.29
 20
-28.4238
 30
0.0
 10
37.29
 20
-28.4238
 30
0.0
 10
37.29
 20
-28.4238
 30
0.0
 10
37.223
 20
-9.9532
 30
0.0
 10
37.223
 20
-9.9532
 30
0.0
 10
37.223
 20
-9.9532
 30
0.0
 10
37.223
 20
-9.9532
 30
0.0
 10
36.4185
 20
-10.5914
 30
0.0
 10
36.4185
 20
-10.5914
 30
0.0
 10
36.4185
 20
-10.5914
 30
0.0
 10
36.4185
 20
-10.5914
 30
0.0
 10
34.3587
 20
-10.5793
 30
0.0
 10
34.3587
 20
-10.5793
 30
0.0
 10
34.3587
 20
-10.5793
 30
0.0
 10
32.5367
 20
-10.5793
 30
0.0
 10
31.0598
 20
-12.0563
 30
0.0
 10
31.0598
 20
-13.8783
 30
0.0
 10
31.0598
 20
-13.8783
 30
0.0
 10
31.0598
 20
-13.8783
 30
0.0
 10
31.0565
 20
-24.2931
 30
0.0
 10
31.0565
 20
-24.2931
 30
0.0
 10
31.0565
 20
-24.2931
 30
0.0
 10
31.0565
 20
-24.2931
 30
0.0
 10
31.1905
 20
-25.1997
 30
0.0
 10
31.1905
 20
-25.1997
 30
0.0
 10
31.1905
 20
-25.1997
 30
0.0
 10
31.1905
 20
-25.1997
 30
0.0
 10
31.7937
 20
-26.3079
 30
0.0
 10
31.7937
 20
-26.3079
 30
0.0
 10
31.7937
 20
-26.3079
 30
0.0
 10
31.7937
 20
-26.3079
 30
0.0
 10
32.5311
 20
-26.9461
 30
0.0
 10
32.5311
 20
-26.9461
 30
0.0
 10
32.5311
 20
-26.9461
 30
0.0
 10
32.5311
 20
-26.9461
 30
0.0
 10
33.5363
 20
-27.4498
 30
0.0
 10
33.5363
 20
-27.4498
 30
0.0
 10
33.5363
 20
-27.4498
 30
0.0
 10
33.5363
 20
-27.4498
 30
0.0
 10
34.2738
 20
-27.5505
 30
0.0
 10
34.2738
 20
-27.5505
 30
0.0
 10
34.2738
 20
-27.5505
 30
0.0
 10
34.2738
 20
-27.5505
 30
0.0
 10
36.4185
 20
-27.5505
 30
0.0
 10
36.4185
 20
-27.5505
 30
0.0
  0
SPLINE
  5
6C
330
1F
100
AcDbEntity
  8
DEFAULT_1
  6
NEW_LINE1
 62
   250
100
AcDbSpline
210
0.0
220
0.0
230
1.0
 70
    24
 71
     3
 72
     8
 73
     4
 74
     0
 42
0.0000000001
 43
0.0000000001
 40
0.0
 40
0.0
 40
0.0
 40
0.0
 40
1.0
 40
1.0
 40
1.0
 40
1.0
 10
-28.9585
 20
-36.9709
 30
0.0
 10
-28.9585
 20
-36.9709
 30
0.0
 10
-28.9585
 20
31.4984
 30
0.0
 10
-28.9585
 20
31.4984
 30
0.0
  0
SPLINE
  5
6E
330
1F
100
AcDbEntity
  8
DEFAULT_1
  6
NEW_LINE2
 62
   250
100
AcDbSpline
210
0.0
220
0.0
230
1.0
 70
    24
 71
     3
 72
     8
 73
     4
 74
     0
 42
0.0000000001
 43
0.0000000001
 40
0.0
 40
0.0
 40
0.0
 40
0.0
 40
1.0
 40
1.0
 40
1.0
 40
1.0
 10
47.1221
 20
-19.0623
 30
0.0
 10
47.1221
 20
-19.0623
 30
0.0
 10
-20.6472
 20
-19.0623
 30
0.0
 10
-20.6472
 20
-19.0623
 30
0.0
  0
SPLINE
  5
70
330
1F
100
AcDbEntity
  8
DEFAULT_1
  6
NEW_LINE3
 62
   250
100
AcDbSpline
210
0.0
220
0.0
230
1.0
 70
    24
 71
     3
 72
     8
 73
     4
 74
     0
 42
0.0000000001
 43
0.0000000001
 40
0.0
 40
0.0
 40
0.0
 40
0.0
 40
1.0
 40
1.0
 40
1.0
 40
1.0
 10
-14.6548
 20
-36.9709
 30
0.0
 10
-14.6548
 20
-36.9709
 30
0.0
 10
-14.6548
 20
-11.049
 30
0.0
 10
-14.6548
 20
-11.049
 30
0.0
  0
SPLINE
  5
72
330
1F
100
AcDbEntity
  8
DEFAULT_1
 62
   250
100
AcDbSpline
210
0.0
220
0.0
230
1.0
 70
    11
 71
     3
 72
    20
 73
    16
 74
     0
 42
0.0000000001
 43
0.0000000001
 40
0.0
 40
0.0
 40
0.0
 40
0.0
 40
0.2
 40
0.2
 40
0.2
 40
0.2
 40
0.4
 40
0.4
 40
0.4
 40
0.4
 40
0.6
 40
0.6
 40
0.6
 40
0.6
 40
1.0
 40
1.0
 40
1.0
 40
1.0
 10
-44.5557
 20
21.9362
 30
0.0
 10
-44.5557
 20
21.9362
 30
0.0
 10
-44.1562
 20
24.7666
 30
0.0
 10
-44.1562
 20
24.7666
 30
0.0
 10
-44.1562
 20
24.7666
 30
0.0
 10
-44.1562
 20
24.7666
 30
0.0
 10
-44.0675
 20
24.7666
 30
0.0
 10
-44.0675
 20
24.7666
 30
0.0
 10
-44.0675
 20
24.7666
 30
0.0
 10
-44.0675
 20
24.7666
 30
0.0
 10
-43.6415
 20
21.9362
 30
0.0
 10
-43.6415
 20
21.9362
 30
0.0
 10
-43.6415
 20
21.9362
 30
0.0
 10
-43.6415
 20
21.9362
 30
0.0
 10
-44.5557
 20
21.9362
 30
0.0
 10
-44.5557
 20
21.9362
 30
0.0
  0
SPLINE
  5
73
330
1F
100
AcDbEntity
  8
DEFAULT_1
 62
   250
100
AcDbSpline
210
0.0
220
0.0
230
1.0
 70
    11
 71
     3
 72
    20
 73
    16
 74
     0
 42
0.0000000001
 43
0.0000000001
 40
0.0
 40
0.0
 40
0.0
 40
0.0
 40
0.2
 40
0.2
 40
0.2
 40
0.2
 40
0.4
 40
0.4
 40
0.4
 40
0.4
 40
0.6
 40
0.6
 40
0.6
 40
0.6
 40
1.0
 40
1.0
 40
1.0
 40
1.0
 10
-43.679
 20
-16.1625
 30
0.0
 10
-43.679
 20
-16.1625
 30
0.0
 10
-44.0785
 20
-18.993
 30
0.0
 10
-44.0785
 20
-18.993
 30
0.0
 10
-44.0785
 20
-18.993
 30
0.0
 10
-44.0785
 20
-18.993
 30
0.0
 10
-44.1672
 20
-18.993
 30
0.0
 10
-44.1672
 20
-18.993
 30
0.0
 10
-44.1672
 20
-18.993
 30
0.0
 10
-44.1672
 20
-18.993
 30
0.0
 10
-44.5932
 20
-16.1625
 30
0.0
 10
-44.5932
 20
-16.1625
 30
0.0
 10
-44.5932
 20
-16.1625
 30
0.0
 10
-44.5932
 20
-16.1625
 30
0.0
 10
-43.679
 20
-16.1625
 30
0.0
 10
-43.679
 20
-16.1625
 30
0.0
  0
SPLINE
  5
74
330
1F
100
AcDbEntity
  8
DEFAULT_1
 62
   250
100
AcDbSpline
210
0.0
220
0.0
230
1.0
 70
    11
 71
     3
 72
    20
 73
    16
 74
     0
 42
0.0000000001
 43
0.0000000001
 40
0.0
 40
0.0
 40
0.0
 40
0.0
 40
0.2
 40
0.2
 40
0.2
 40
0.2
 40
0.4
 40
0.4
 40
0.4
 40
0.4
 40
0.6
 40
0.6
 40
0.6
 40
0.6
 40
1.0
 40
1.0
 40
1.0
 40
1.0
 10
-44.5623
 20
-21.8801
 30
0.0
 10
-44.5623
 20
-21.8801
 30
0.0
 10
-44.1629
 20
-19.0497
 30
0.0
 10
-44.1629
 20
-19.0497
 30
0.0
 10
-44.1629
 20
-19.0497
 30
0.0
 10
-44.1629
 20
-19.0497
 30
0.0
 10
-44.0742
 20
-19.0497
 30
0.0
 10
-44.0742
 20
-19.0497
 30
0.0
 10
-44.0742
 20
-19.0497
 30
0.0
 10
-44.0742
 20
-19.0497
 30
0.0
 10
-43.6481
 20
-21.8801
 30
0.0
 10
-43.6481
 20
-21.8801
 30
0.0
 10
-43.6481
 20
-21.8801
 30
0.0
 10
-43.6481
 20
-21.8801
 30
0.0
 10
-44.5623
 20
-21.8801
 30
0.0
 10
-44.5623
 20
-21.8801
 30
0.0
  0
SPLINE
  5
75
330
1F
100
AcDbEntity
  8
DEFAULT_1
 62
   250
100
AcDbSpline
210
0.0
220
0.0
230
1.0
 70
    11
 71
     3
 72
    20
 73
    16
 74
     0
 42
0.0000000001
 43
0.0000000001
 40
0.0
 40
0.0
 40
0.0
 40
0.0
 40
0.2
 40
0.2
 40
0.2
 40
0.2
 40
0.4
 40
0.4
 40
0.4
 40
0.4
 40
0.6
 40
0.6
 40
0.6
 40
0.6
 40
1.0
 40
1.0
 40
1.0
 40
1.0
 10
-43.6708
 20
-43.2424
 30
0.0
 10
-43.6708
 20
-43.2424
 30
0.0
 10
-44.0703
 20
-46.0728
 30
0.0
 10
-44.0703
 20
-46.0728
 30
0.0
 10
-44.0703
 20
-46.0728
 30
0.0
 10
-44.0703
 20
-46.0728
 30
0.0
 10
-44.159
 20
-46.0728
 30
0.0
 10
-44.159
 20
-46.0728
 30
0.0
 10
-44.159
 20
-46.0728
 30
0.0
 10
-44.159
 20
-46.0728
 30
0.0
 10
-44.585
 20
-43.2424
 30
0.0
 10
-44.585
 20
-43.2424
 30
0.0
 10
-44.585
 20
-43.2424
 30
0.0
 10
-44.585
 20
-43.2424
 30
0.0
 10
-43.6708
 20
-43.2424
 30
0.0
 10
-43.6708
 20
-43.2424
 30
0.0
  0
SPLINE
  5
76
330
1F
100
AcDbEntity
  8
DEFAULT_1
 62
   250
100
AcDbSpline
210
0.0
220
0.0
230
1.0
 70
    11
 71
     3
 72
    20
 73
    16
 74
     0
 42
0.0000000001
 43
0.0000000001
 40
0.0
 40
0.0
 40
0.0
 40
0.0
 40
0.2
 40
0.2
 40
0.2
 40
0.2
 40
0.4
 40
0.4
 40
0.4
 40
0.4
 40
0.6
 40
0.6
 40
0.6
 40
0.6
 40
1.0
 40
1.0
 40
1.0
 40
1.0
 10
-34.1301
 20
34.4787
 30
0.0
 10
-34.1301
 20
34.4787
 30
0.0
 10
-36.9606
 20
34.8782
 30
0.0
 10
-36.9606
 20
34.8782
 30
0.0
 10
-36.9606
 20
34.8782
 30
0.0
 10
-36.9606
 20
34.8782
 30
0.0
 10
-36.9606
 20
34.9669
 30
0.0
 10
-36.9606
 20
34.9669
 30
0.0
 10
-36.9606
 20
34.9669
 30
0.0
 10
-36.9606
 20
34.9669
 30
0.0
 10
-34.1301
 20
35.3929
 30
0.0
 10
-34.1301
 20
35.3929
 30
0.0
 10
-34.1301
 20
35.3929
 30
0.0
 10
-34.1301
 20
35.3929
 30
0.0
 10
-34.1301
 20
34.4787
 30
0.0
 10
-34.1301
 20
34.4787
 30
0.0
  0
SPLINE
  5
77
330
1F
100
AcDbEntity
  8
DEFAULT_1
 62
   250
100
AcDbSpline
210
0.0
220
0.0
230
1.0
 70
    11
 71
     3
 72
    20
 73
    16
 74
     0
 42
0.0000000001
 43
0.0000000001
 40
0.0
 40
0.0
 40
0.0
 40
0.0
 40
0.2
 40
0.2
 40
0.2
 40
0.2
 40
0.4
 40
0.4
 40
0.4
 40
0.4
 40
0.6
 40
0.6
 40
0.6
 40
0.6
 40
1.0
 40
1.0
 40
1.0
 40
1.0
 10
-23.9234
 20
35.3647
 30
0.0
 10
-23.9234
 20
35.3647
 30
0.0
 10
-21.093
 20
34.9653
 30
0.0
 10
-21.093
 20
34.9653
 30
0.0
 10
-21.093
 20
34.9653
 30
0.0
 10
-21.093
 20
34.9653
 30
0.0
 10
-21.093
 20
34.8765
 30
0.0
 10
-21.093
 20
34.8765
 30
0.0
 10
-21.093
 20
34.8765
 30
0.0
 10
-21.093
 20
34.8765
 30
0.0
 10
-23.9234
 20
34.4505
 30
0.0
 10
-23.9234
 20
34.4505
 30
0.0
 10
-23.9234
 20
34.4505
 30
0.0
 10
-23.9234
 20
34.4505
 30
0.0
 10
-23.9234
 20
35.3647
 30
0.0
 10
-23.9234
 20
35.3647
 30
0.0
  0
SPLINE
  5
78
330
1F
100
AcDbEntity
  8
DEFAULT_1
 62
   250
100
AcDbSpline
210
0.0
220
0.0
230
1.0
 70
    11
 71
     3
 72
    20
 73
    16
 74
     0
 42
0.0000000001
 43
0.0000000001
 40
0.0
 40
0.0
 40
0.0
 40
0.0
 40
0.2
 40
0.2
 40
0.2
 40
0.2
 40
0.4
 40
0.4
 40
0.4
 40
0.4
 40
0.6
 40
0.6
 40
0.6
 40
0.6
 40
1.0
 40
1.0
 40
1.0
 40
1.0
 10
-11.7903
 20
-12.314
 30
0.0
 10
-11.7903
 20
-12.314
 30
0.0
 10
-14.6207
 20
-11.9146
 30
0.0
 10
-14.6207
 20
-11.9146
 30
0.0
 10
-14.6207
 20
-11.9146
 30
0.0
 10
-14.6207
 20
-11.9146
 30
0.0
 10
-14.6207
 20
-11.8258
 30
0.0
 10
-14.6207
 20
-11.8258
 30
0.0
 10
-14.6207
 20
-11.8258
 30
0.0
 10
-14.6207
 20
-11.8258
 30
0.0
 10
-11.7903
 20
-11.3998
 30
0.0
 10
-11.7903
 20
-11.3998
 30
0.0
 10
-11.7903
 20
-11.3998
 30
0.0
 10
-11.7903
 20
-11.3998
 30
0.0
 10
-11.7903
 20
-12.314
 30
0.0
 10
-11.7903
 20
-12.314
 30
0.0
  0
SPLINE
  5
79
330
1F
100
AcDbEntity
  8
DEFAULT_1
 62
   250
100
AcDbSpline
210
0.0
220
0.0
230
1.0
 70
    11
 71
     3
 72
    20
 73
    16
 74
     0
 42
0.0000000001
 43
0.0000000001
 40
0.0
 40
0.0
 40
0.0
 40
0.0
 40
0.2
 40
0.2
 40
0.2
 40
0.2
 40
0.4
 40
0.4
 40
0.4
 40
0.4
 40
0.6
 40
0.6
 40
0.6
 40
0.6
 40
1.0
 40
1.0
 40
1.0
 40
1.0
 10
-31.8225
 20
-11.4314
 30
0.0
 10
-31.8225
 20
-11.4314
 30
0.0
 10
-28.9921
 20
-11.8308
 30
0.0
 10
-28.9921
 20
-11.8308
 30
0.0
 10
-28.9921
 20
-11.8308
 30
0.0
 10
-28.9921
 20
-11.8308
 30
0.0
 10
-28.9921
 20
-11.9195
 30
0.0
 10
-28.9921
 20
-11.9195
 30
0.0
 10
-28.9921
 20
-11.9195
 30
0.0
 10
-28.9921
 20
-11.9195
 30
0.0
 10
-31.8225
 20
-12.3455
 30
0.0
 10
-31.8225
 20
-12.3455
 30
0.0
 10
-31.8225
 20
-12.3455
 30
0.0
 10
-31.8225
 20
-12.3455
 30
0.0
 10
-31.8225
 20
-11.4314
 30
0.0
 10
-31.8225
 20
-11.4314
 30
0.0
  0
SPLINE
  5
7A
330
1F
100
AcDbEntity
  8
DEFAULT_1
 62
   250
100
AcDbSpline
210
0.0
220
0.0
230
1.0
 70
    11
 71
     3
 72
    20
 73
    16
 74
     0
 42
0.0000000001
 43
0.0000000001
 40
0.0
 40
0.0
 40
0.0
 40
0.0
 40
0.2
 40
0.2
 40
0.2
 40
0.2
 40
0.4
 40
0.4
 40
0.4
 40
0.4
 40
0.6
 40
0.6
 40
0.6
 40
0.6
 40
1.0
 40
1.0
 40
1.0
 40
1.0
 10
-26.1542
 20
-6.4062
 30
0.0
 10
-26.1542
 20
-6.4062
 30
0.0
 10
-28.9846
 20
-6.0068
 30
0.0
 10
-28.9846
 20
-6.0068
 30
0.0
 10
-28.9846
 20
-6.0068
 30
0.0
 10
-28.9846
 20
-6.0068
 30
0.0
 10
-28.9846
 20
-5.918
 30
0.0
 10
-28.9846
 20
-5.918
 30
0.0
 10
-28.9846
 20
-5.918
 30
0.0
 10
-28.9846
 20
-5.918
 30
0.0
 10
-26.1542
 20
-5.492
 30
0.0
 10
-26.1542
 20
-5.492
 30
0.0
 10
-26.1542
 20
-5.492
 30
0.0
 10
-26.1542
 20
-5.492
 30
0.0
 10
-26.1542
 20
-6.4062
 30
0.0
 10
-26.1542
 20
-6.4062
 30
0.0
  0
SPLINE
  5
7B
330
1F
100
AcDbEntity
  8
DEFAULT_1
 62
   250
100
AcDbSpline
210
0.0
220
0.0
230
1.0
 70
    11
 71
     3
 72
    20
 73
    16
 74
     0
 42
0.0000000001
 43
0.0000000001
 40
0.0
 40
0.0
 40
0.0
 40
0.0
 40
0.2
 40
0.2
 40
0.2
 40
0.2
 40
0.4
 40
0.4
 40
0.4
 40
0.4
 40
0.6
 40
0.6
 40
0.6
 40
0.6
 40
1.0
 40
1.0
 40
1.0
 40
1.0
 10
43.7039
 20
-5.5125
 30
0.0
 10
43.7039
 20
-5.5125
 30
0.0
 10
46.5344
 20
-5.9119
 30
0.0
 10
46.5344
 20
-5.9119
 30
0.0
 10
46.5344
 20
-5.9119
 30
0.0
 10
46.5344
 20
-5.9119
 30
0.0
 10
46.5344
 20
-6.0007
 30
0.0
 10
46.5344
 20
-6.0007
 30
0.0
 10
46.5344
 20
-6.0007
 30
0.0
 10
46.5344
 20
-6.0007
 30
0.0
 10
43.7039
 20
-6.4267
 30
0.0
 10
43.7039
 20
-6.4267
 30
0.0
 10
43.7039
 20
-6.4267
 30
0.0
 10
43.7039
 20
-6.4267
 30
0.0
 10
43.7039
 20
-5.5125
 30
0.0
 10
43.7039
 20
-5.5125
 30
0.0
  0
SPLINE
  5
7C
330
1F
100
AcDbEntity
  8
DEFAULT_1
 62
   250
100
AcDbSpline
210
0.0
220
0.0
230
1.0
 70
     8
 71
     3
 72
    16
 73
    12
 74
     0
 42
0.0000000001
 43
0.0000000001
 40
0.0
 40
0.0
 40
0.0
 40
0.0
 40
0.25
 40
0.25
 40
0.25
 40
0.25
 40
0.5
 40
0.5
 40
0.5
 40
0.5
 40
1.0
 40
1.0
 40
1.0
 40
1.0
 10
-35.5096
 20
15.7152
 30
0.0
 10
-35.5096
 20
15.7152
 30
0.0
 10
-35.4302
 20
18.5565
 30
0.0
 10
-35.4302
 20
18.5565
 30
0.0
 10
-35.4302
 20
18.5565
 30
0.0
 10
-35.4302
 20
18.5565
 30
0.0
 10
-22.5838
 20
18.5565
 30
0.0
 10
-22.5838
 20
18.5565
 30
0.0
 10
-22.5838
 20
18.5565
 30
0.0
 10
-22.5838
 20
18.5565
 30
0.0
 10
-22.5466
 20
15.7334
 30
0.0
 10
-22.5466
 20
15.7334
 30
0.0
  0
SPLINE
  5
7D
330
1F
100
AcDbEntity
  8
DEFAULT_1
 62
   250
100
AcDbSpline
210
0.0
220
0.0
230
1.0
 70
     8
 71
     3
 72
    96
 73
    92
 74
     0
 42
0.0000000001
 43
0.0000000001
 40
0.0
 40
0.0
 40
0.0
 40
0.0
 40
0.0416666666666667
 40
0.0416666666666667
 40
0.0416666666666667
 40
0.0416666666666667
 40
0.0833333333333333
 40
0.0833333333333333
 40
0.0833333333333333
 40
0.0833333333333333
 40
0.125
 40
0.125
 40
0.125
 40
0.125
 40
0.1666666666666667
 40
0.1666666666666667
 40
0.1666666666666667
 40
0.1666666666666667
 40
0.2083333333333333
 40
0.2083333333333333
 40
0.2083333333333333
 40
0.2083333333333333
 40
0.25
 40
0.25
 40
0.25
 40
0.25
 40
0.2916666666666667
 40
0.2916666666666667
 40
0.2916666666666667
 40
0.2916666666666667
 40
0.3333333333333333
 40
0.3333333333333333
 40
0.3333333333333333
 40
0.3333333333333333
 40
0.375
 40
0.375
 40
0.375
 40
0.375
 40
0.4166666666666667
 40
0.4166666666666667
 40
0.4166666666666667
 40
0.4166666666666667
 40
0.4583333333333333
 40
0.4583333333333333
 40
0.4583333333333333
 40
0.4583333333333333
 40
0.5
 40
0.5
 40
0.5
 40
0.5
 40
0.5416666666666666
 40
0.5416666666666666
 40
0.5416666666666666
 40
0.5416666666666666
 40
0.5833333333333334
 40
0.5833333333333334
 40
0.5833333333333334
 40
0.5833333333333334
 40
0.625
 40
0.625
 40
0.625
 40
0.625
 40
0.6666666666666666
 40
0.6666666666666666
 40
0.6666666666666666
 40
0.6666666666666666
 40
0.7083333333333334
 40
0.7083333333333334
 40
0.7083333333333334
 40
0.7083333333333334
 40
0.75
 40
0.75
 40
0.75
 40
0.75
 40
0.7916666666666666
 40
0.7916666666666666
 40
0.7916666666666666
 40
0.7916666666666666
 40
0.8333333333333334
 40
0.8333333333333334
 40
0.8333333333333334
 40
0.8333333333333334
 40
0.875
 40
0.875
 40
0.875
 40
0.875
 40
0.9166666666666666
 40
0.9166666666666666
 40
0.9166666666666666
 40
0.9166666666666666
 40
1.0
 40
1.0
 40
1.0
 40
1.0
 10
-35.3813
 20
17.8953
 30
0.0
 10
-35.3813
 20
17.8953
 30
0.0
 10
-33.9005
 20
17.8771
 30
0.0
 10
-33.9005
 20
17.8771
 30
0.0
 10
-33.9005
 20
17.8771
 30
0.0
 10
-33.9005
 20
17.8771
 30
0.0
 10
-33.9005
 20
16.2466
 30
0.0
 10
-33.9005
 20
16.2466
 30
0.0
 10
-33.9005
 20
16.2466
 30
0.0
 10
-33.9005
 20
16.2466
 30
0.0
 10
-33.8641
 20
16.0632
 30
0.0
 10
-33.8641
 20
16.0632
 30
0.0
 10
-33.8641
 20
16.0632
 30
0.0
 10
-33.8641
 20
16.0632
 30
0.0
 10
-33.809
 20
15.8985
 30
0.0
 10
-33.809
 20
15.8985
 30
0.0
 10
-33.809
 20
15.8985
 30
0.0
 10
-33.809
 20
15.8985
 30
0.0
 10
-33.6079
 20
15.752
 30
0.0
 10
-33.6079
 20
15.752
 30
0.0
 10
-33.6079
 20
15.752
 30
0.0
 10
-33.6079
 20
15.752
 30
0.0
 10
-33.3335
 20
15.7702
 30
0.0
 10
-33.3335
 20
15.7702
 30
0.0
 10
-33.3335
 20
15.7702
 30
0.0
 10
-33.3335
 20
15.7702
 30
0.0
 10
-33.2238
 20
15.8803
 30
0.0
 10
-33.2238
 20
15.8803
 30
0.0
 10
-33.2238
 20
15.8803
 30
0.0
 10
-33.2238
 20
15.8803
 30
0.0
 10
-33.151
 20
16.1183
 30
0.0
 10
-33.151
 20
16.1183
 30
0.0
 10
-33.151
 20
16.1183
 30
0.0
 10
-33.151
 20
16.1183
 30
0.0
 10
-33.151
 20
17.8771
 30
0.0
 10
-33.151
 20
17.8771
 30
0.0
 10
-33.151
 20
17.8771
 30
0.0
 10
-33.151
 20
17.8771
 30
0.0
 10
-29.4759
 20
17.8771
 30
0.0
 10
-29.4759
 20
17.8771
 30
0.0
 10
-29.4759
 20
17.8771
 30
0.0
 10
-29.4759
 20
17.8771
 30
0.0
 10
-29.4742
 20
16.2211
 30
0.0
 10
-29.4742
 20
16.2211
 30
0.0
 10
-29.4742
 20
16.2211
 30
0.0
 10
-29.4742
 20
15.9629
 30
0.0
 10
-29.265
 20
15.7536
 30
0.0
 10
-29.0072
 20
15.7536
 30
0.0
 10
-29.0072
 20
15.7536
 30
0.0
 10
-28.749
 20
15.7536
 30
0.0
 10
-28.5398
 20
15.9629
 30
0.0
 10
-28.5398
 20
16.2211
 30
0.0
 10
-28.5398
 20
16.2211
 30
0.0
 10
-28.5398
 20
16.2211
 30
0.0
 10
-28.5434
 20
17.8771
 30
0.0
 10
-28.5434
 20
17.8771
 30
0.0
 10
-28.5434
 20
17.8771
 30
0.0
 10
-28.5434
 20
17.8771
 30
0.0
 10
-24.7951
 20
17.8771
 30
0.0
 10
-24.7951
 20
17.8771
 30
0.0
 10
-24.7951
 20
17.8771
 30
0.0
 10
-24.7951
 20
17.8771
 30
0.0
 10
-24.8137
 20
16.1183
 30
0.0
 10
-24.8137
 20
16.1183
 30
0.0
 10
-24.8137
 20
16.1183
 30
0.0
 10
-24.8137
 20
16.1183
 30
0.0
 10
-24.704
 20
15.8985
 30
0.0
 10
-24.704
 20
15.8985
 30
0.0
 10
-24.704
 20
15.8985
 30
0.0
 10
-24.704
 20
15.8985
 30
0.0
 10
-24.5211
 20
15.7702
 30
0.0
 10
-24.5211
 20
15.7702
 30
0.0
 10
-24.5211
 20
15.7702
 30
0.0
 10
-24.5211
 20
15.7702
 30
0.0
 10
-24.3017
 20
15.7702
 30
0.0
 10
-24.3017
 20
15.7702
 30
0.0
 10
-24.3017
 20
15.7702
 30
0.0
 10
-24.3017
 20
15.7702
 30
0.0
 10
-24.1735
 20
15.9718
 30
0.0
 10
-24.1735
 20
15.9718
 30
0.0
 10
-24.1735
 20
15.9718
 30
0.0
 10
-24.1735
 20
15.9718
 30
0.0
 10
-24.137
 20
16.2097
 30
0.0
 10
-24.137
 20
16.2097
 30
0.0
 10
-24.137
 20
16.2097
 30
0.0
 10
-24.137
 20
16.2097
 30
0.0
 10
-24.137
 20
17.8953
 30
0.0
 10
-24.137
 20
17.8953
 30
0.0
 10
-24.137
 20
17.8953
 30
0.0
 10
-24.137
 20
17.8953
 30
0.0
 10
-22.638
 20
17.8771
 30
0.0
 10
-22.638
 20
17.8771
 30
0.0
  0
SPLINE
  5
7E
330
1F
100
AcDbEntity
  8
DEFAULT_1
 62
   250
100
AcDbSpline
210
0.0
220
0.0
230
1.0
 70
     8
 71
     3
 72
    32
 73
    28
 74
     0
 42
0.0000000001
 43
0.0000000001
 40
0.0
 40
0.0
 40
0.0
 40
0.0
 40
0.125
 40
0.125
 40
0.125
 40
0.125
 40
0.25
 40
0.25
 40
0.25
 40
0.25
 40
0.375
 40
0.375
 40
0.375
 40
0.375
 40
0.5
 40
0.5
 40
0.5
 40
0.5
 40
0.625
 40
0.625
 40
0.625
 40
0.625
 40
0.75
 40
0.75
 40
0.75
 40
0.75
 40
1.0
 40
1.0
 40
1.0
 40
1.0
 10
-35.2655
 20
17.9422
 30
0.0
 10
-35.2655
 20
17.9422
 30
0.0
 10
-35.3137
 20
15.0531
 30
0.0
 10
-35.3137
 20
15.0531
 30
0.0
 10
-35.3137
 20
15.0531
 30
0.0
 10
-35.3137
 20
14.7949
 30
0.0
 10
-35.1045
 20
14.5857
 30
0.0
 10
-34.8463
 20
14.5857
 30
0.0
 10
-34.8463
 20
14.5857
 30
0.0
 10
-34.8463
 20
14.5857
 30
0.0
 10
-23.2151
 20
14.5881
 30
0.0
 10
-23.2151
 20
14.5881
 30
0.0
 10
-23.2151
 20
14.5881
 30
0.0
 10
-23.2151
 20
14.5881
 30
0.0
 10
-22.9003
 20
14.6671
 30
0.0
 10
-22.9003
 20
14.6671
 30
0.0
 10
-22.9003
 20
14.6671
 30
0.0
 10
-22.9003
 20
14.6671
 30
0.0
 10
-22.7623
 20
14.9038
 30
0.0
 10
-22.7623
 20
14.9038
 30
0.0
 10
-22.7623
 20
14.9038
 30
0.0
 10
-22.7623
 20
14.9038
 30
0.0
 10
-22.7032
 20
15.2591
 30
0.0
 10
-22.7032
 20
15.2591
 30
0.0
 10
-22.7032
 20
15.2591
 30
0.0
 10
-22.7032
 20
15.2591
 30
0.0
 10
-22.723
 20
17.9224
 30
0.0
 10
-22.723
 20
17.9224
 30
0.0
  0
SPLINE
  5
7F
330
1F
100
AcDbEntity
  8
DEFAULT_1
 62
   250
100
AcDbSpline
210
0.0
220
0.0
230
1.0
 70
     8
 71
     3
 72
    16
 73
    12
 74
     0
 42
0.0000000001
 43
0.0000000001
 40
0.0
 40
0.0
 40
0.0
 40
0.0
 40
0.25
 40
0.25
 40
0.25
 40
0.25
 40
0.5
 40
0.5
 40
0.5
 40
0.5
 40
1.0
 40
1.0
 40
1.0
 40
1.0
 10
-22.5132
 20
-22.1829
 30
0.0
 10
-22.5132
 20
-22.1829
 30
0.0
 10
-22.5925
 20
-25.0242
 30
0.0
 10
-22.5925
 20
-25.0242
 30
0.0
 10
-22.5925
 20
-25.0242
 30
0.0
 10
-22.5925
 20
-25.0242
 30
0.0
 10
-35.439
 20
-25.0242
 30
0.0
 10
-35.439
 20
-25.0242
 30
0.0
 10
-35.439
 20
-25.0242
 30
0.0
 10
-35.439
 20
-25.0242
 30
0.0
 10
-35.4762
 20
-22.2011
 30
0.0
 10
-35.4762
 20
-22.2011
 30
0.0
  0
SPLINE
  5
80
330
1F
100
AcDbEntity
  8
DEFAULT_1
 62
   250
100
AcDbSpline
210
0.0
220
0.0
230
1.0
 70
     8
 71
     3
 72
    96
 73
    92
 74
     0
 42
0.0000000001
 43
0.0000000001
 40
0.0
 40
0.0
 40
0.0
 40
0.0
 40
0.0416666666666667
 40
0.0416666666666667
 40
0.0416666666666667
 40
0.0416666666666667
 40
0.0833333333333333
 40
0.0833333333333333
 40
0.0833333333333333
 40
0.0833333333333333
 40
0.125
 40
0.125
 40
0.125
 40
0.125
 40
0.1666666666666667
 40
0.1666666666666667
 40
0.1666666666666667
 40
0.1666666666666667
 40
0.2083333333333333
 40
0.2083333333333333
 40
0.2083333333333333
 40
0.2083333333333333
 40
0.25
 40
0.25
 40
0.25
 40
0.25
 40
0.2916666666666667
 40
0.2916666666666667
 40
0.2916666666666667
 40
0.2916666666666667
 40
0.3333333333333333
 40
0.3333333333333333
 40
0.3333333333333333
 40
0.3333333333333333
 40
0.375
 40
0.375
 40
0.375
 40
0.375
 40
0.4166666666666667
 40
0.4166666666666667
 40
0.4166666666666667
 40
0.4166666666666667
 40
0.4583333333333333
 40
0.4583333333333333
 40
0.4583333333333333
 40
0.4583333333333333
 40
0.5
 40
0.5
 40
0.5
 40
0.5
 40
0.5416666666666666
 40
0.5416666666666666
 40
0.5416666666666666
 40
0.5416666666666666
 40
0.5833333333333334
 40
0.5833333333333334
 40
0.5833333333333334
 40
0.5833333333333334
 40
0.625
 40
0.625
 40
0.625
 40
0.625
 40
0.6666666666666666
 40
0.6666666666666666
 40
0.6666666666666666
 40
0.6666666666666666
 40
0.7083333333333334
 40
0.7083333333333334
 40
0.7083333333333334
 40
0.7083333333333334
 40
0.75
 40
0.75
 40
0.75
 40
0.75
 40
0.7916666666666666
 40
0.7916666666666666
 40
0.7916666666666666
 40
0.7916666666666666
 40
0.8333333333333334
 40
0.8333333333333334
 40
0.8333333333333334
 40
0.8333333333333334
 40
0.875
 40
0.875
 40
0.875
 40
0.875
 40
0.9166666666666666
 40
0.9166666666666666
 40
0.9166666666666666
 40
0.9166666666666666
 40
1.0
 40
1.0
 40
1.0
 40
1.0
 10
-22.6415
 20
-24.3629
 30
0.0
 10
-22.6415
 20
-24.3629
 30
0.0
 10
-24.1223
 20
-24.3447
 30
0.0
 10
-24.1223
 20
-24.3447
 30
0.0
 10
-24.1223
 20
-24.3447
 30
0.0
 10
-24.1223
 20
-24.3447
 30
0.0
 10
-24.1223
 20
-22.7142
 30
0.0
 10
-24.1223
 20
-22.7142
 30
0.0
 10
-24.1223
 20
-22.7142
 30
0.0
 10
-24.1223
 20
-22.7142
 30
0.0
 10
-24.1587
 20
-22.5309
 30
0.0
 10
-24.1587
 20
-22.5309
 30
0.0
 10
-24.1587
 20
-22.5309
 30
0.0
 10
-24.1587
 20
-22.5309
 30
0.0
 10
-24.2138
 20
-22.3662
 30
0.0
 10
-24.2138
 20
-22.3662
 30
0.0
 10
-24.2138
 20
-22.3662
 30
0.0
 10
-24.2138
 20
-22.3662
 30
0.0
 10
-24.4149
 20
-22.2197
 30
0.0
 10
-24.4149
 20
-22.2197
 30
0.0
 10
-24.4149
 20
-22.2197
 30
0.0
 10
-24.4149
 20
-22.2197
 30
0.0
 10
-24.6893
 20
-22.2379
 30
0.0
 10
-24.6893
 20
-22.2379
 30
0.0
 10
-24.6893
 20
-22.2379
 30
0.0
 10
-24.6893
 20
-22.2379
 30
0.0
 10
-24.799
 20
-22.348
 30
0.0
 10
-24.799
 20
-22.348
 30
0.0
 10
-24.799
 20
-22.348
 30
0.0
 10
-24.799
 20
-22.348
 30
0.0
 10
-24.8718
 20
-22.5859
 30
0.0
 10
-24.8718
 20
-22.5859
 30
0.0
 10
-24.8718
 20
-22.5859
 30
0.0
 10
-24.8718
 20
-22.5859
 30
0.0
 10
-24.8718
 20
-24.3447
 30
0.0
 10
-24.8718
 20
-24.3447
 30
0.0
 10
-24.8718
 20
-24.3447
 30
0.0
 10
-24.8718
 20
-24.3447
 30
0.0
 10
-28.5469
 20
-24.3447
 30
0.0
 10
-28.5469
 20
-24.3447
 30
0.0
 10
-28.5469
 20
-24.3447
 30
0.0
 10
-28.5469
 20
-24.3447
 30
0.0
 10
-28.5485
 20
-22.6887
 30
0.0
 10
-28.5485
 20
-22.6887
 30
0.0
 10
-28.5485
 20
-22.6887
 30
0.0
 10
-28.5485
 20
-22.4305
 30
0.0
 10
-28.7578
 20
-22.2213
 30
0.0
 10
-29.0156
 20
-22.2213
 30
0.0
 10
-29.0156
 20
-22.2213
 30
0.0
 10
-29.2738
 20
-22.2213
 30
0.0
 10
-29.483
 20
-22.4305
 30
0.0
 10
-29.483
 20
-22.6887
 30
0.0
 10
-29.483
 20
-22.6887
 30
0.0
 10
-29.483
 20
-22.6887
 30
0.0
 10
-29.4794
 20
-24.3447
 30
0.0
 10
-29.4794
 20
-24.3447
 30
0.0
 10
-29.4794
 20
-24.3447
 30
0.0
 10
-29.4794
 20
-24.3447
 30
0.0
 10
-33.2277
 20
-24.3447
 30
0.0
 10
-33.2277
 20
-24.3447
 30
0.0
 10
-33.2277
 20
-24.3447
 30
0.0
 10
-33.2277
 20
-24.3447
 30
0.0
 10
-33.2091
 20
-22.5859
 30
0.0
 10
-33.2091
 20
-22.5859
 30
0.0
 10
-33.2091
 20
-22.5859
 30
0.0
 10
-33.2091
 20
-22.5859
 30
0.0
 10
-33.3188
 20
-22.3662
 30
0.0
 10
-33.3188
 20
-22.3662
 30
0.0
 10
-33.3188
 20
-22.3662
 30
0.0
 10
-33.3188
 20
-22.3662
 30
0.0
 10
-33.5017
 20
-22.2379
 30
0.0
 10
-33.5017
 20
-22.2379
 30
0.0
 10
-33.5017
 20
-22.2379
 30
0.0
 10
-33.5017
 20
-22.2379
 30
0.0
 10
-33.721
 20
-22.2379
 30
0.0
 10
-33.721
 20
-22.2379
 30
0.0
 10
-33.721
 20
-22.2379
 30
0.0
 10
-33.721
 20
-22.2379
 30
0.0
 10
-33.8493
 20
-22.4394
 30
0.0
 10
-33.8493
 20
-22.4394
 30
0.0
 10
-33.8493
 20
-22.4394
 30
0.0
 10
-33.8493
 20
-22.4394
 30
0.0
 10
-33.8857
 20
-22.6774
 30
0.0
 10
-33.8857
 20
-22.6774
 30
0.0
 10
-33.8857
 20
-22.6774
 30
0.0
 10
-33.8857
 20
-22.6774
 30
0.0
 10
-33.8857
 20
-24.3629
 30
0.0
 10
-33.8857
 20
-24.3629
 30
0.0
 10
-33.8857
 20
-24.3629
 30
0.0
 10
-33.8857
 20
-24.3629
 30
0.0
 10
-35.3848
 20
-24.3447
 30
0.0
 10
-35.3848
 20
-24.3447
 30
0.0
  0
SPLINE
  5
81
330
1F
100
AcDbEntity
  8
DEFAULT_1
 62
   250
100
AcDbSpline
210
0.0
220
0.0
230
1.0
 70
     8
 71
     3
 72
    32
 73
    28
 74
     0
 42
0.0000000001
 43
0.0000000001
 40
0.0
 40
0.0
 40
0.0
 40
0.0
 40
0.125
 40
0.125
 40
0.125
 40
0.125
 40
0.25
 40
0.25
 40
0.25
 40
0.25
 40
0.375
 40
0.375
 40
0.375
 40
0.375
 40
0.5
 40
0.5
 40
0.5
 40
0.5
 40
0.625
 40
0.625
 40
0.625
 40
0.625
 40
0.75
 40
0.75
 40
0.75
 40
0.75
 40
1.0
 40
1.0
 40
1.0
 40
1.0
 10
-22.7572
 20
-24.4099
 30
0.0
 10
-22.7572
 20
-24.4099
 30
0.0
 10
-22.7091
 20
-21.5208
 30
0.0
 10
-22.7091
 20
-21.5208
 30
0.0
 10
-22.7091
 20
-21.5208
 30
0.0
 10
-22.7091
 20
-21.2626
 30
0.0
 10
-22.9183
 20
-21.0534
 30
0.0
 10
-23.1765
 20
-21.0534
 30
0.0
 10
-23.1765
 20
-21.0534
 30
0.0
 10
-23.1765
 20
-21.0534
 30
0.0
 10
-34.8077
 20
-21.0558
 30
0.0
 10
-34.8077
 20
-21.0558
 30
0.0
 10
-34.8077
 20
-21.0558
 30
0.0
 10
-34.8077
 20
-21.0558
 30
0.0
 10
-35.1225
 20
-21.1347
 30
0.0
 10
-35.1225
 20
-21.1347
 30
0.0
 10
-35.1225
 20
-21.1347
 30
0.0
 10
-35.1225
 20
-21.1347
 30
0.0
 10
-35.2605
 20
-21.3714
 30
0.0
 10
-35.2605
 20
-21.3714
 30
0.0
 10
-35.2605
 20
-21.3714
 30
0.0
 10
-35.2605
 20
-21.3714
 30
0.0
 10
-35.3196
 20
-21.7268
 30
0.0
 10
-35.3196
 20
-21.7268
 30
0.0
 10
-35.3196
 20
-21.7268
 30
0.0
 10
-35.3196
 20
-21.7268
 30
0.0
 10
-35.2998
 20
-24.39
 30
0.0
 10
-35.2998
 20
-24.39
 30
0.0
  0
SPLINE
  5
82
330
1F
100
AcDbEntity
  8
DEFAULT_1
 62
   250
100
AcDbSpline
210
0.0
220
0.0
230
1.0
 70
     8
 71
     3
 72
    16
 73
    12
 74
     0
 42
0.0000000001
 43
0.0000000001
 40
0.0
 40
0.0
 40
0.0
 40
0.0
 40
0.25
 40
0.25
 40
0.25
 40
0.25
 40
0.5
 40
0.5
 40
0.5
 40
0.5
 40
1.0
 40
1.0
 40
1.0
 40
1.0
 10
-8.2194
 20
-29.2563
 30
0.0
 10
-8.2194
 20
-29.2563
 30
0.0
 10
-8.2987
 20
-32.0976
 30
0.0
 10
-8.2987
 20
-32.0976
 30
0.0
 10
-8.2987
 20
-32.0976
 30
0.0
 10
-8.2987
 20
-32.0976
 30
0.0
 10
-21.1452
 20
-32.0976
 30
0.0
 10
-21.1452
 20
-32.0976
 30
0.0
 10
-21.1452
 20
-32.0976
 30
0.0
 10
-21.1452
 20
-32.0976
 30
0.0
 10
-21.1824
 20
-29.2745
 30
0.0
 10
-21.1824
 20
-29.2745
 30
0.0
  0
SPLINE
  5
83
330
1F
100
AcDbEntity
  8
DEFAULT_1
 62
   250
100
AcDbSpline
210
0.0
220
0.0
230
1.0
 70
     8
 71
     3
 72
    96
 73
    92
 74
     0
 42
0.0000000001
 43
0.0000000001
 40
0.0
 40
0.0
 40
0.0
 40
0.0
 40
0.0416666666666667
 40
0.0416666666666667
 40
0.0416666666666667
 40
0.0416666666666667
 40
0.0833333333333333
 40
0.0833333333333333
 40
0.0833333333333333
 40
0.0833333333333333
 40
0.125
 40
0.125
 40
0.125
 40
0.125
 40
0.1666666666666667
 40
0.1666666666666667
 40
0.1666666666666667
 40
0.1666666666666667
 40
0.2083333333333333
 40
0.2083333333333333
 40
0.2083333333333333
 40
0.2083333333333333
 40
0.25
 40
0.25
 40
0.25
 40
0.25
 40
0.2916666666666667
 40
0.2916666666666667
 40
0.2916666666666667
 40
0.2916666666666667
 40
0.3333333333333333
 40
0.3333333333333333
 40
0.3333333333333333
 40
0.3333333333333333
 40
0.375
 40
0.375
 40
0.375
 40
0.375
 40
0.4166666666666667
 40
0.4166666666666667
 40
0.4166666666666667
 40
0.4166666666666667
 40
0.4583333333333333
 40
0.4583333333333333
 40
0.4583333333333333
 40
0.4583333333333333
 40
0.5
 40
0.5
 40
0.5
 40
0.5
 40
0.5416666666666666
 40
0.5416666666666666
 40
0.5416666666666666
 40
0.5416666666666666
 40
0.5833333333333334
 40
0.5833333333333334
 40
0.5833333333333334
 40
0.5833333333333334
 40
0.625
 40
0.625
 40
0.625
 40
0.625
 40
0.6666666666666666
 40
0.6666666666666666
 40
0.6666666666666666
 40
0.6666666666666666
 40
0.7083333333333334
 40
0.7083333333333334
 40
0.7083333333333334
 40
0.7083333333333334
 40
0.75
 40
0.75
 40
0.75
 40
0.75
 40
0.7916666666666666
 40
0.7916666666666666
 40
0.7916666666666666
 40
0.7916666666666666
 40
0.8333333333333334
 40
0.8333333333333334
 40
0.8333333333333334
 40
0.8333333333333334
 40
0.875
 40
0.875
 40
0.875
 40
0.875
 40
0.9166666666666666
 40
0.9166666666666666
 40
0.9166666666666666
 40
0.9166666666666666
 40
1.0
 40
1.0
 40
1.0
 40
1.0
 10
-8.3477
 20
-31.4363
 30
0.0
 10
-8.3477
 20
-31.4363
 30
0.0
 10
-9.8285
 20
-31.4181
 30
0.0
 10
-9.8285
 20
-31.4181
 30
0.0
 10
-9.8285
 20
-31.4181
 30
0.0
 10
-9.8285
 20
-31.4181
 30
0.0
 10
-9.8285
 20
-29.7876
 30
0.0
 10
-9.8285
 20
-29.7876
 30
0.0
 10
-9.8285
 20
-29.7876
 30
0.0
 10
-9.8285
 20
-29.7876
 30
0.0
 10
-9.8649
 20
-29.6043
 30
0.0
 10
-9.8649
 20
-29.6043
 30
0.0
 10
-9.8649
 20
-29.6043
 30
0.0
 10
-9.8649
 20
-29.6043
 30
0.0
 10
-9.9199
 20
-29.4396
 30
0.0
 10
-9.9199
 20
-29.4396
 30
0.0
 10
-9.9199
 20
-29.4396
 30
0.0
 10
-9.9199
 20
-29.4396
 30
0.0
 10
-10.1211
 20
-29.2931
 30
0.0
 10
-10.1211
 20
-29.2931
 30
0.0
 10
-10.1211
 20
-29.2931
 30
0.0
 10
-10.1211
 20
-29.2931
 30
0.0
 10
-10.3955
 20
-29.3113
 30
0.0
 10
-10.3955
 20
-29.3113
 30
0.0
 10
-10.3955
 20
-29.3113
 30
0.0
 10
-10.3955
 20
-29.3113
 30
0.0
 10
-10.5051
 20
-29.4214
 30
0.0
 10
-10.5051
 20
-29.4214
 30
0.0
 10
-10.5051
 20
-29.4214
 30
0.0
 10
-10.5051
 20
-29.4214
 30
0.0
 10
-10.578
 20
-29.6593
 30
0.0
 10
-10.578
 20
-29.6593
 30
0.0
 10
-10.578
 20
-29.6593
 30
0.0
 10
-10.578
 20
-29.6593
 30
0.0
 10
-10.578
 20
-31.4181
 30
0.0
 10
-10.578
 20
-31.4181
 30
0.0
 10
-10.578
 20
-31.4181
 30
0.0
 10
-10.578
 20
-31.4181
 30
0.0
 10
-14.2531
 20
-31.4181
 30
0.0
 10
-14.2531
 20
-31.4181
 30
0.0
 10
-14.2531
 20
-31.4181
 30
0.0
 10
-14.2531
 20
-31.4181
 30
0.0
 10
-14.2547
 20
-29.7621
 30
0.0
 10
-14.2547
 20
-29.7621
 30
0.0
 10
-14.2547
 20
-29.7621
 30
0.0
 10
-14.2547
 20
-29.5039
 30
0.0
 10
-14.4639
 20
-29.2947
 30
0.0
 10
-14.7217
 20
-29.2947
 30
0.0
 10
-14.7217
 20
-29.2947
 30
0.0
 10
-14.9799
 20
-29.2947
 30
0.0
 10
-15.1892
 20
-29.5039
 30
0.0
 10
-15.1892
 20
-29.7621
 30
0.0
 10
-15.1892
 20
-29.7621
 30
0.0
 10
-15.1892
 20
-29.7621
 30
0.0
 10
-15.1855
 20
-31.4181
 30
0.0
 10
-15.1855
 20
-31.4181
 30
0.0
 10
-15.1855
 20
-31.4181
 30
0.0
 10
-15.1855
 20
-31.4181
 30
0.0
 10
-18.9339
 20
-31.4181
 30
0.0
 10
-18.9339
 20
-31.4181
 30
0.0
 10
-18.9339
 20
-31.4181
 30
0.0
 10
-18.9339
 20
-31.4181
 30
0.0
 10
-18.9152
 20
-29.6593
 30
0.0
 10
-18.9152
 20
-29.6593
 30
0.0
 10
-18.9152
 20
-29.6593
 30
0.0
 10
-18.9152
 20
-29.6593
 30
0.0
 10
-19.0249
 20
-29.4396
 30
0.0
 10
-19.0249
 20
-29.4396
 30
0.0
 10
-19.0249
 20
-29.4396
 30
0.0
 10
-19.0249
 20
-29.4396
 30
0.0
 10
-19.2078
 20
-29.3113
 30
0.0
 10
-19.2078
 20
-29.3113
 30
0.0
 10
-19.2078
 20
-29.3113
 30
0.0
 10
-19.2078
 20
-29.3113
 30
0.0
 10
-19.4272
 20
-29.3113
 30
0.0
 10
-19.4272
 20
-29.3113
 30
0.0
 10
-19.4272
 20
-29.3113
 30
0.0
 10
-19.4272
 20
-29.3113
 30
0.0
 10
-19.5555
 20
-29.5128
 30
0.0
 10
-19.5555
 20
-29.5128
 30
0.0
 10
-19.5555
 20
-29.5128
 30
0.0
 10
-19.5555
 20
-29.5128
 30
0.0
 10
-19.5919
 20
-29.7508
 30
0.0
 10
-19.5919
 20
-29.7508
 30
0.0
 10
-19.5919
 20
-29.7508
 30
0.0
 10
-19.5919
 20
-29.7508
 30
0.0
 10
-19.5919
 20
-31.4363
 30
0.0
 10
-19.5919
 20
-31.4363
 30
0.0
 10
-19.5919
 20
-31.4363
 30
0.0
 10
-19.5919
 20
-31.4363
 30
0.0
 10
-21.0909
 20
-31.4181
 30
0.0
 10
-21.0909
 20
-31.4181
 30
0.0
  0
SPLINE
  5
84
330
1F
100
AcDbEntity
  8
DEFAULT_1
 62
   250
100
AcDbSpline
210
0.0
220
0.0
230
1.0
 70
     8
 71
     3
 72
    32
 73
    28
 74
     0
 42
0.0000000001
 43
0.0000000001
 40
0.0
 40
0.0
 40
0.0
 40
0.0
 40
0.125
 40
0.125
 40
0.125
 40
0.125
 40
0.25
 40
0.25
 40
0.25
 40
0.25
 40
0.375
 40
0.375
 40
0.375
 40
0.375
 40
0.5
 40
0.5
 40
0.5
 40
0.5
 40
0.625
 40
0.625
 40
0.625
 40
0.625
 40
0.75
 40
0.75
 40
0.75
 40
0.75
 40
1.0
 40
1.0
 40
1.0
 40
1.0
 10
-8.4634
 20
-31.4833
 30
0.0
 10
-8.4634
 20
-31.4833
 30
0.0
 10
-8.4153
 20
-28.5942
 30
0.0
 10
-8.4153
 20
-28.5942
 30
0.0
 10
-8.4153
 20
-28.5942
 30
0.0
 10
-8.4153
 20
-28.336
 30
0.0
 10
-8.6245
 20
-28.1268
 30
0.0
 10
-8.8827
 20
-28.1268
 30
0.0
 10
-8.8827
 20
-28.1268
 30
0.0
 10
-8.8827
 20
-28.1268
 30
0.0
 10
-20.5138
 20
-28.1292
 30
0.0
 10
-20.5138
 20
-28.1292
 30
0.0
 10
-20.5138
 20
-28.1292
 30
0.0
 10
-20.5138
 20
-28.1292
 30
0.0
 10
-20.8287
 20
-28.2081
 30
0.0
 10
-20.8287
 20
-28.2081
 30
0.0
 10
-20.8287
 20
-28.2081
 30
0.0
 10
-20.8287
 20
-28.2081
 30
0.0
 10
-20.9667
 20
-28.4449
 30
0.0
 10
-20.9667
 20
-28.4449
 30
0.0
 10
-20.9667
 20
-28.4449
 30
0.0
 10
-20.9667
 20
-28.4449
 30
0.0
 10
-21.0258
 20
-28.8002
 30
0.0
 10
-21.0258
 20
-28.8002
 30
0.0
 10
-21.0258
 20
-28.8002
 30
0.0
 10
-21.0258
 20
-28.8002
 30
0.0
 10
-21.0059
 20
-31.4634
 30
0.0
 10
-21.0059
 20
-31.4634
 30
0.0
  0
SPLINE
  5
85
330
1F
100
AcDbEntity
  8
DEFAULT_1
 62
   250
100
AcDbSpline
210
0.0
220
0.0
230
1.0
 70
     8
 71
     3
 72
    48
 73
    44
 74
     0
 42
0.0000000001
 43
0.0000000001
 40
0.0
 40
0.0
 40
0.0
 40
0.0
 40
0.0833333333333333
 40
0.0833333333333333
 40
0.0833333333333333
 40
0.0833333333333333
 40
0.1666666666666667
 40
0.1666666666666667
 40
0.1666666666666667
 40
0.1666666666666667
 40
0.25
 40
0.25
 40
0.25
 40
0.25
 40
0.3333333333333333
 40
0.3333333333333333
 40
0.3333333333333333
 40
0.3333333333333333
 40
0.4166666666666667
 40
0.4166666666666667
 40
0.4166666666666667
 40
0.4166666666666667
 40
0.5
 40
0.5
 40
0.5
 40
0.5
 40
0.5833333333333334
 40
0.5833333333333334
 40
0.5833333333333334
 40
0.5833333333333334
 40
0.6666666666666666
 40
0.6666666666666666
 40
0.6666666666666666
 40
0.6666666666666666
 40
0.75
 40
0.75
 40
0.75
 40
0.75
 40
0.8333333333333334
 40
0.8333333333333334
 40
0.8333333333333334
 40
0.8333333333333334
 40
1.0
 40
1.0
 40
1.0
 40
1.0
 10
-24.1743
 20
-35.806
 30
0.0
 10
-24.1743
 20
-35.806
 30
0.0
 10
-25.2459
 20
-35.9108
 30
0.0
 10
-25.2459
 20
-35.9108
 30
0.0
 10
-25.2459
 20
-35.9108
 30
0.0
 10
-25.2459
 20
-35.9108
 30
0.0
 10
-26.9189
 20
-35.937
 30
0.0
 10
-26.9189
 20
-35.937
 30
0.0
 10
-26.9189
 20
-35.937
 30
0.0
 10
-26.9189
 20
-35.937
 30
0.0
 10
-28.9975
 20
-35.8995
 30
0.0
 10
-28.9975
 20
-35.8995
 30
0.0
 10
-28.9975
 20
-35.8995
 30
0.0
 10
-28.9975
 20
-35.8995
 30
0.0
 10
-29.753
 20
-35.8904
 30
0.0
 10
-29.753
 20
-35.8904
 30
0.0
 10
-29.753
 20
-35.8904
 30
0.0
 10
-29.753
 20
-35.8904
 30
0.0
 10
-30.4863
 20
-35.878
 30
0.0
 10
-30.4863
 20
-35.878
 30
0.0
 10
-30.4863
 20
-35.878
 30
0.0
 10
-30.4863
 20
-35.878
 30
0.0
 10
-31.1798
 20
-35.8632
 30
0.0
 10
-31.1798
 20
-35.8632
 30
0.0
 10
-31.1798
 20
-35.8632
 30
0.0
 10
-31.1798
 20
-35.8632
 30
0.0
 10
-31.8168
 20
-35.8482
 30
0.0
 10
-31.8168
 20
-35.8482
 30
0.0
 10
-31.8168
 20
-35.8482
 30
0.0
 10
-31.8168
 20
-35.8482
 30
0.0
 10
-32.3834
 20
-35.8331
 30
0.0
 10
-32.3834
 20
-35.8331
 30
0.0
 10
-32.3834
 20
-35.8331
 30
0.0
 10
-32.3834
 20
-35.8331
 30
0.0
 10
-32.8658
 20
-35.8198
 30
0.0
 10
-32.8658
 20
-35.8198
 30
0.0
 10
-32.8658
 20
-35.8198
 30
0.0
 10
-32.8658
 20
-35.8198
 30
0.0
 10
-33.2531
 20
-35.8086
 30
0.0
 10
-33.2531
 20
-35.8086
 30
0.0
 10
-33.2531
 20
-35.8086
 30
0.0
 10
-33.2531
 20
-35.8086
 30
0.0
 10
-33.7939
 20
-35.7797
 30
0.0
 10
-33.7939
 20
-35.7797
 30
0.0
  0
SPLINE
  5
86
330
1F
100
AcDbEntity
  8
DEFAULT_1
 62
   250
100
AcDbSpline
210
0.0
220
0.0
230
1.0
 70
     8
 71
     3
 72
    16
 73
    12
 74
     0
 42
0.0000000001
 43
0.0000000001
 40
0.0
 40
0.0
 40
0.0
 40
0.0
 40
0.25
 40
0.25
 40
0.25
 40
0.25
 40
0.5
 40
0.5
 40
0.5
 40
0.5
 40
1.0
 40
1.0
 40
1.0
 40
1.0
 10
-34.6589
 20
-25.0482
 30
0.0
 10
-34.6589
 20
-25.0482
 30
0.0
 10
-34.6512
 20
-25.8137
 30
0.0
 10
-34.6512
 20
-25.8137
 30
0.0
 10
-34.6512
 20
-25.8137
 30
0.0
 10
-34.6512
 20
-25.8137
 30
0.0
 10
-23.2856
 20
-25.8137
 30
0.0
 10
-23.2856
 20
-25.8137
 30
0.0
 10
-23.2856
 20
-25.8137
 30
0.0
 10
-23.2856
 20
-25.8137
 30
0.0
 10
-23.2998
 20
-25.0482
 30
0.0
 10
-23.2998
 20
-25.0482
 30
0.0
  0
SPLINE
  5
87
330
1F
100
AcDbEntity
  8
DEFAULT_1
 62
   250
100
AcDbSpline
210
0.0
220
0.0
230
1.0
 70
     8
 71
     3
 72
    16
 73
    12
 74
     0
 42
0.0000000001
 43
0.0000000001
 40
0.0
 40
0.0
 40
0.0
 40
0.0
 40
0.25
 40
0.25
 40
0.25
 40
0.25
 40
0.5
 40
0.5
 40
0.5
 40
0.5
 40
1.0
 40
1.0
 40
1.0
 40
1.0
 10
-20.3376
 20
-32.1898
 30
0.0
 10
-20.3376
 20
-32.1898
 30
0.0
 10
-20.3352
 20
-32.883
 30
0.0
 10
-20.3352
 20
-32.883
 30
0.0
 10
-20.3352
 20
-32.883
 30
0.0
 10
-20.3352
 20
-32.883
 30
0.0
 10
-8.9508
 20
-32.883
 30
0.0
 10
-8.9508
 20
-32.883
 30
0.0
 10
-8.9508
 20
-32.883
 30
0.0
 10
-8.9508
 20
-32.883
 30
0.0
 10
-8.9717
 20
-32.147
 30
0.0
 10
-8.9717
 20
-32.147
 30
0.0
  0
SPLINE
  5
88
330
1F
100
AcDbEntity
  8
DEFAULT_1
 62
   250
100
AcDbSpline
210
0.0
220
0.0
230
1.0
 70
     8
 71
     3
 72
    28
 73
    24
 74
     0
 42
0.0000000001
 43
0.0000000001
 40
0.0
 40
0.0
 40
0.0
 40
0.0
 40
0.1428571428571428
 40
0.1428571428571428
 40
0.1428571428571428
 40
0.1428571428571428
 40
0.2857142857142857
 40
0.2857142857142857
 40
0.2857142857142857
 40
0.2857142857142857
 40
0.4285714285714285
 40
0.4285714285714285
 40
0.4285714285714285
 40
0.4285714285714285
 40
0.5714285714285714
 40
0.5714285714285714
 40
0.5714285714285714
 40
0.5714285714285714
 40
0.7142857142857143
 40
0.7142857142857143
 40
0.7142857142857143
 40
0.7142857142857143
 40
1.0
 40
1.0
 40
1.0
 40
1.0
 10
-23.6252
 20
-25.8258
 30
0.0
 10
-23.6252
 20
-25.8258
 30
0.0
 10
-23.6514
 20
-35.1771
 30
0.0
 10
-23.6514
 20
-35.1771
 30
0.0
 10
-23.6514
 20
-35.1771
 30
0.0
 10
-23.6514
 20
-35.1771
 30
0.0
 10
-24.1179
 20
-35.7882
 30
0.0
 10
-24.1179
 20
-35.7882
 30
0.0
 10
-24.1179
 20
-35.7882
 30
0.0
 10
-23.6759
 20
-36.6585
 30
0.0
 10
-22.7826
 20
-37.2068
 30
0.0
 10
-21.8066
 20
-37.2068
 30
0.0
 10
-21.8066
 20
-37.2068
 30
0.0
 10
-20.8306
 20
-37.2068
 30
0.0
 10
-19.9373
 20
-36.6585
 30
0.0
 10
-19.4954
 20
-35.7882
 30
0.0
 10
-19.4954
 20
-35.7882
 30
0.0
 10
-19.4954
 20
-35.7882
 30
0.0
 10
-19.9394
 20
-35.1771
 30
0.0
 10
-19.9394
 20
-35.1771
 30
0.0
 10
-19.9394
 20
-35.1771
 30
0.0
 10
-19.9394
 20
-35.1771
 30
0.0
 10
-19.9131
 20
-33.0032
 30
0.0
 10
-19.9131
 20
-33.0032
 30
0.0
  0
SPLINE
  5
89
330
1F
100
AcDbEntity
  8
DEFAULT_1
 62
   250
100
AcDbSpline
210
0.0
220
0.0
230
1.0
 70
     8
 71
     3
 72
    60
 73
    56
 74
     0
 42
0.0000000001
 43
0.0000000001
 40
0.0
 40
0.0
 40
0.0
 40
0.0
 40
0.0666666666666667
 40
0.0666666666666667
 40
0.0666666666666667
 40
0.0666666666666667
 40
0.1333333333333333
 40
0.1333333333333333
 40
0.1333333333333333
 40
0.1333333333333333
 40
0.2
 40
0.2
 40
0.2
 40
0.2
 40
0.2666666666666667
 40
0.2666666666666667
 40
0.2666666666666667
 40
0.2666666666666667
 40
0.3333333333333333
 40
0.3333333333333333
 40
0.3333333333333333
 40
0.3333333333333333
 40
0.4
 40
0.4
 40
0.4
 40
0.4
 40
0.4666666666666667
 40
0.4666666666666667
 40
0.4666666666666667
 40
0.4666666666666667
 40
0.5333333333333333
 40
0.5333333333333333
 40
0.5333333333333333
 40
0.5333333333333333
 40
0.6
 40
0.6
 40
0.6
 40
0.6
 40
0.6666666666666666
 40
0.6666666666666666
 40
0.6666666666666666
 40
0.6666666666666666
 40
0.7333333333333333
 40
0.7333333333333333
 40
0.7333333333333333
 40
0.7333333333333333
 40
0.8
 40
0.8
 40
0.8
 40
0.8
 40
0.8666666666666667
 40
0.8666666666666667
 40
0.8666666666666667
 40
0.8666666666666667
 40
1.0
 40
1.0
 40
1.0
 40
1.0
 10
-34.2822
 20
-25.7603
 30
0.0
 10
-34.2822
 20
-25.7603
 30
0.0
 10
-34.2822
 20
-35.1698
 30
0.0
 10
-34.2822
 20
-35.1698
 30
0.0
 10
-34.2822
 20
-35.1698
 30
0.0
 10
-34.2822
 20
-35.1698
 30
0.0
 10
-33.7665
 20
-35.793
 30
0.0
 10
-33.7665
 20
-35.793
 30
0.0
 10
-33.7665
 20
-35.793
 30
0.0
 10
-33.2841
 20
-40.6891
 30
0.0
 10
-29.866
 20
-44.7971
 30
0.0
 10
-25.139
 20
-46.1613
 30
0.0
 10
-25.139
 20
-46.1613
 30
0.0
 10
-25.139
 20
-46.1613
 30
0.0
 10
-18.4255
 20
-46.2336
 30
0.0
 10
-18.4255
 20
-46.2336
 30
0.0
 10
-18.4255
 20
-46.2336
 30
0.0
 10
-18.4255
 20
-46.2336
 30
0.0
 10
-17.3937
 20
-45.82
 30
0.0
 10
-17.3937
 20
-45.82
 30
0.0
 10
-17.3937
 20
-45.82
 30
0.0
 10
-17.3937
 20
-45.82
 30
0.0
 10
-15.605
 20
-44.9237
 30
0.0
 10
-15.605
 20
-44.9237
 30
0.0
 10
-15.605
 20
-44.9237
 30
0.0
 10
-15.605
 20
-44.9237
 30
0.0
 10
-14.0917
 20
-43.8208
 30
0.0
 10
-14.0917
 20
-43.8208
 30
0.0
 10
-14.0917
 20
-43.8208
 30
0.0
 10
-14.0917
 20
-43.8208
 30
0.0
 10
-12.7502
 20
-42.5455
 30
0.0
 10
-12.7502
 20
-42.5455
 30
0.0
 10
-12.7502
 20
-42.5455
 30
0.0
 10
-12.7502
 20
-42.5455
 30
0.0
 10
-11.6494
 20
-41.0635
 30
0.0
 10
-11.6494
 20
-41.0635
 30
0.0
 10
-11.6494
 20
-41.0635
 30
0.0
 10
-11.6494
 20
-41.0635
 30
0.0
 10
-10.5488
 20
-38.8231
 30
0.0
 10
-10.5488
 20
-38.8231
 30
0.0
 10
-10.5488
 20
-38.8231
 30
0.0
 10
-10.5488
 20
-38.8231
 30
0.0
 10
-10.0673
 20
-37.0653
 30
0.0
 10
-10.0673
 20
-37.0653
 30
0.0
 10
-10.0673
 20
-37.0653
 30
0.0
 10
-10.0673
 20
-37.0653
 30
0.0
 10
-9.8264
 20
-35.7212
 30
0.0
 10
-9.8264
 20
-35.7212
 30
0.0
 10
-9.8264
 20
-35.7212
 30
0.0
 10
-9.8264
 20
-35.7212
 30
0.0
 10
-9.3449
 20
-35.3076
 30
0.0
 10
-9.3449
 20
-35.3076
 30
0.0
 10
-9.3449
 20
-35.3076
 30
0.0
 10
-9.3449
 20
-35.3076
 30
0.0
 10
-9.3449
 20
-32.9639
 30
0.0
 10
-9.3449
 20
-32.9639
 30
0.0
  0
SPLINE
  5
8A
330
1F
100
AcDbEntity
  8
DEFAULT_1
 62
   250
100
AcDbSpline
210
0.0
220
0.0
230
1.0
 70
     8
 71
     3
 72
    48
 73
    44
 74
     0
 42
0.0000000001
 43
0.0000000001
 40
0.0
 40
0.0
 40
0.0
 40
0.0
 40
0.0833333333333333
 40
0.0833333333333333
 40
0.0833333333333333
 40
0.0833333333333333
 40
0.1666666666666667
 40
0.1666666666666667
 40
0.1666666666666667
 40
0.1666666666666667
 40
0.25
 40
0.25
 40
0.25
 40
0.25
 40
0.3333333333333333
 40
0.3333333333333333
 40
0.3333333333333333
 40
0.3333333333333333
 40
0.4166666666666667
 40
0.4166666666666667
 40
0.4166666666666667
 40
0.4166666666666667
 40
0.5
 40
0.5
 40
0.5
 40
0.5
 40
0.5833333333333334
 40
0.5833333333333334
 40
0.5833333333333334
 40
0.5833333333333334
 40
0.6666666666666666
 40
0.6666666666666666
 40
0.6666666666666666
 40
0.6666666666666666
 40
0.75
 40
0.75
 40
0.75
 40
0.75
 40
0.8333333333333334
 40
0.8333333333333334
 40
0.8333333333333334
 40
0.8333333333333334
 40
1.0
 40
1.0
 40
1.0
 40
1.0
 10
-19.4596
 20
-35.7874
 30
0.0
 10
-19.4596
 20
-35.7874
 30
0.0
 10
-18.9008
 20
-35.8154
 30
0.0
 10
-18.9008
 20
-35.8154
 30
0.0
 10
-18.9008
 20
-35.8154
 30
0.0
 10
-18.9008
 20
-35.8154
 30
0.0
 10
-18.4981
 20
-35.8399
 30
0.0
 10
-18.4981
 20
-35.8399
 30
0.0
 10
-18.4981
 20
-35.8399
 30
0.0
 10
-18.4981
 20
-35.8399
 30
0.0
 10
-18.0013
 20
-35.8632
 30
0.0
 10
-18.0013
 20
-35.8632
 30
0.0
 10
-18.0013
 20
-35.8632
 30
0.0
 10
-18.0013
 20
-35.8632
 30
0.0
 10
-17.4217
 20
-35.8824
 30
0.0
 10
-17.4217
 20
-35.8824
 30
0.0
 10
-17.4217
 20
-35.8824
 30
0.0
 10
-17.4217
 20
-35.8824
 30
0.0
 10
-16.777
 20
-35.896
 30
0.0
 10
-16.777
 20
-35.896
 30
0.0
 10
-16.777
 20
-35.896
 30
0.0
 10
-16.777
 20
-35.896
 30
0.0
 10
-16.0826
 20
-35.9031
 30
0.0
 10
-16.0826
 20
-35.9031
 30
0.0
 10
-16.0826
 20
-35.9031
 30
0.0
 10
-16.0826
 20
-35.9031
 30
0.0
 10
-15.3555
 20
-35.9043
 30
0.0
 10
-15.3555
 20
-35.9043
 30
0.0
 10
-15.3555
 20
-35.9043
 30
0.0
 10
-15.3555
 20
-35.9043
 30
0.0
 10
-14.6154
 20
-35.8995
 30
0.0
 10
-14.6154
 20
-35.8995
 30
0.0
 10
-14.6154
 20
-35.8995
 30
0.0
 10
-14.6154
 20
-35.8995
 30
0.0
 10
-12.6059
 20
-35.8975
 30
0.0
 10
-12.6059
 20
-35.8975
 30
0.0
 10
-12.6059
 20
-35.8975
 30
0.0
 10
-12.6059
 20
-35.8975
 30
0.0
 10
-11.0049
 20
-35.8322
 30
0.0
 10
-11.0049
 20
-35.8322
 30
0.0
 10
-11.0049
 20
-35.8322
 30
0.0
 10
-11.0049
 20
-35.8322
 30
0.0
 10
-9.8612
 20
-35.7667
 30
0.0
 10
-9.8612
 20
-35.7667
 30
0.0
  0
SPLINE
  5
8B
330
1F
100
AcDbEntity
  8
DEFAULT_1
 62
   250
100
AcDbSpline
210
0.0
220
0.0
230
1.0
 70
     8
 71
     3
 72
    20
 73
    16
 74
     0
 42
0.0000000001
 43
0.0000000001
 40
0.0
 40
0.0
 40
0.0
 40
0.0
 40
0.2
 40
0.2
 40
0.2
 40
0.2
 40
0.4
 40
0.4
 40
0.4
 40
0.4
 40
0.6
 40
0.6
 40
0.6
 40
0.6
 40
1.0
 40
1.0
 40
1.0
 40
1.0
 10
-9.9418
 20
-28.2879
 30
0.0
 10
-9.9418
 20
-28.2879
 30
0.0
 10
-9.9418
 20
-23.7753
 30
0.0
 10
-9.9418
 20
-23.7753
 30
0.0
 10
-9.9418
 20
-23.7753
 30
0.0
 10
-9.9418
 20
-23.7753
 30
0.0
 10
-14.5649
 20
-19.0677
 30
0.0
 10
-14.5649
 20
-19.0677
 30
0.0
 10
-14.5649
 20
-19.0677
 30
0.0
 10
-14.5649
 20
-19.0677
 30
0.0
 10
-9.8595
 20
-23.9792
 30
0.0
 10
-9.8595
 20
-23.9792
 30
0.0
 10
-9.8595
 20
-23.9792
 30
0.0
 10
-9.8595
 20
-23.9792
 30
0.0
 10
30.9859
 20
-23.7826
 30
0.0
 10
30.9859
 20
-23.7826
 30
0.0
  0
SPLINE
  5
8C
330
1F
100
AcDbEntity
  8
DEFAULT_1
 62
   250
100
AcDbSpline
210
0.0
220
0.0
230
1.0
 70
     8
 71
     3
 72
    16
 73
    12
 74
     0
 42
0.0000000001
 43
0.0000000001
 40
0.0
 40
0.0
 40
0.0
 40
0.0
 40
0.25
 40
0.25
 40
0.25
 40
0.25
 40
0.5
 40
0.5
 40
0.5
 40
0.5
 40
1.0
 40
1.0
 40
1.0
 40
1.0
 10
-19.2704
 20
-28.1702
 30
0.0
 10
-19.2704
 20
-28.1702
 30
0.0
 10
-19.3675
 20
-19.0624
 30
0.0
 10
-19.3675
 20
-19.0624
 30
0.0
 10
-19.3675
 20
-19.0624
 30
0.0
 10
-19.3675
 20
-16.4595
 30
0.0
 10
-17.2576
 20
-14.3495
 30
0.0
 10
-14.6547
 20
-14.3495
 30
0.0
 10
-14.6547
 20
-14.3495
 30
0.0
 10
-14.6547
 20
-14.3495
 30
0.0
 10
31.0515
 20
-14.2873
 30
0.0
 10
31.0515
 20
-14.2873
 30
0.0
  0
SPLINE
  5
8D
330
1F
100
AcDbEntity
  8
DEFAULT_1
 62
   250
100
AcDbSpline
210
0.0
220
0.0
230
1.0
 70
     8
 71
     3
 72
    16
 73
    12
 74
     0
 42
0.0000000001
 43
0.0000000001
 40
0.0
 40
0.0
 40
0.0
 40
0.0
 40
0.25
 40
0.25
 40
0.25
 40
0.25
 40
0.5
 40
0.5
 40
0.5
 40
0.5
 40
1.0
 40
1.0
 40
1.0
 40
1.0
 10
37.3252
 20
-14.3528
 30
0.0
 10
37.3252
 20
-14.3528
 30
0.0
 10
46.6121
 20
-14.3495
 30
0.0
 10
46.6121
 20
-14.3495
 30
0.0
 10
46.6121
 20
-14.3495
 30
0.0
 10
46.6121
 20
-14.3495
 30
0.0
 10
46.6121
 20
-23.7753
 30
0.0
 10
46.6121
 20
-23.7753
 30
0.0
 10
46.6121
 20
-23.7753
 30
0.0
 10
46.6121
 20
-23.7753
 30
0.0
 10
37.2599
 20
-23.7826
 30
0.0
 10
37.2599
 20
-23.7826
 30
0.0
  0
SPLINE
  5
8E
330
1F
100
AcDbEntity
  8
DEFAULT_1
 62
   250
100
AcDbSpline
210
0.0
220
0.0
230
1.0
 70
    11
 71
     3
 72
    84
 73
    80
 74
     0
 42
0.0000000001
 43
0.0000000001
 40
0.0
 40
0.0
 40
0.0
 40
0.0
 40
0.0476190476190476
 40
0.0476190476190476
 40
0.0476190476190476
 40
0.0476190476190476
 40
0.0952380952380952
 40
0.0952380952380952
 40
0.0952380952380952
 40
0.0952380952380952
 40
0.1428571428571428
 40
0.1428571428571428
 40
0.1428571428571428
 40
0.1428571428571428
 40
0.1904761904761905
 40
0.1904761904761905
 40
0.1904761904761905
 40
0.1904761904761905
 40
0.2380952380952381
 40
0.2380952380952381
 40
0.2380952380952381
 40
0.2380952380952381
 40
0.2857142857142857
 40
0.2857142857142857
 40
0.2857142857142857
 40
0.2857142857142857
 40
0.3333333333333333
 40
0.3333333333333333
 40
0.3333333333333333
 40
0.3333333333333333
 40
0.3809523809523809
 40
0.3809523809523809
 40
0.3809523809523809
 40
0.3809523809523809
 40
0.4285714285714285
 40
0.4285714285714285
 40
0.4285714285714285
 40
0.4285714285714285
 40
0.4761904761904762
 40
0.4761904761904762
 40
0.4761904761904762
 40
0.4761904761904762
 40
0.5238095238095238
 40
0.5238095238095238
 40
0.5238095238095238
 40
0.5238095238095238
 40
0.5714285714285714
 40
0.5714285714285714
 40
0.5714285714285714
 40
0.5714285714285714
 40
0.6190476190476191
 40
0.6190476190476191
 40
0.6190476190476191
 40
0.6190476190476191
 40
0.6666666666666666
 40
0.6666666666666666
 40
0.6666666666666666
 40
0.6666666666666666
 40
0.7142857142857143
 40
0.7142857142857143
 40
0.7142857142857143
 40
0.7142857142857143
 40
0.7619047619047619
 40
0.7619047619047619
 40
0.7619047619047619
 40
0.7619047619047619
 40
0.8095238095238095
 40
0.8095238095238095
 40
0.8095238095238095
 40
0.8095238095238095
 40
0.8571428571428571
 40
0.8571428571428571
 40
0.8571428571428571
 40
0.8571428571428571
 40
0.9047619047619048
 40
0.9047619047619048
 40
0.9047619047619048
 40
0.9047619047619048
 40
1.0
 40
1.0
 40
1.0
 40
1.0
 10
19.4222
 20
-19.622
 30
0.0
 10
19.4222
 20
-19.622
 30
0.0
 10
19.1631
 20
-19.3906
 30
0.0
 10
19.1631
 20
-19.3906
 30
0.0
 10
19.1631
 20
-19.3906
 30
0.0
 10
19.1631
 20
-19.3906
 30
0.0
 10
19.2788
 20
-19.2542
 30
0.0
 10
19.2788
 20
-19.2542
 30
0.0
 10
19.2788
 20
-19.2542
 30
0.0
 10
19.2788
 20
-19.2542
 30
0.0
 10
19.5516
 20
-19.4964
 30
0.0
 10
19.5516
 20
-19.4964
 30
0.0
 10
19.5516
 20
-19.4964
 30
0.0
 10
19.6692
 20
-19.4174
 30
0.0
 10
19.7722
 20
-19.3643
 30
0.0
 10
19.8601
 20
-19.3365
 30
0.0
 10
19.8601
 20
-19.3365
 30
0.0
 10
19.9759
 20
-19.2998
 30
0.0
 10
20.1057
 20
-19.2815
 30
0.0
 10
20.2487
 20
-19.2815
 30
0.0
 10
20.2487
 20
-19.2815
 30
0.0
 10
20.4556
 20
-19.2815
 30
0.0
 10
20.64
 20
-19.3233
 30
0.0
 10
20.8013
 20
-19.4071
 30
0.0
 10
20.8013
 20
-19.4071
 30
0.0
 10
20.9632
 20
-19.4908
 30
0.0
 10
21.0854
 20
-19.6079
 30
0.0
 10
21.1682
 20
-19.7589
 30
0.0
 10
21.1682
 20
-19.7589
 30
0.0
 10
21.2505
 20
-19.9104
 30
0.0
 10
21.2919
 20
-20.0707
 30
0.0
 10
21.2919
 20
-20.2405
 30
0.0
 10
21.2919
 20
-20.2405
 30
0.0
 10
21.2919
 20
-20.3675
 30
0.0
 10
21.2741
 20
-20.4823
 30
0.0
 10
21.2383
 20
-20.5853
 30
0.0
 10
21.2383
 20
-20.5853
 30
0.0
 10
21.2106
 20
-20.6643
 30
0.0
 10
21.1579
 20
-20.7565
 30
0.0
 10
21.0798
 20
-20.8624
 30
0.0
 10
21.0798
 20
-20.8624
 30
0.0
 10
21.0798
 20
-20.8624
 30
0.0
 10
21.339
 20
-21.0938
 30
0.0
 10
21.339
 20
-21.0938
 30
0.0
 10
21.339
 20
-21.0938
 30
0.0
 10
21.339
 20
-21.0938
 30
0.0
 10
21.2233
 20
-21.2302
 30
0.0
 10
21.2233
 20
-21.2302
 30
0.0
 10
21.2233
 20
-21.2302
 30
0.0
 10
21.2233
 20
-21.2302
 30
0.0
 10
20.9519
 20
-20.9875
 30
0.0
 10
20.9519
 20
-20.9875
 30
0.0
 10
20.9519
 20
-20.9875
 30
0.0
 10
20.815
 20
-21.0778
 30
0.0
 10
20.6979
 20
-21.138
 30
0.0
 10
20.601
 20
-21.1681
 30
0.0
 10
20.601
 20
-21.1681
 30
0.0
 10
20.5041
 20
-21.1982
 30
0.0
 10
20.3874
 20
-21.2137
 30
0.0
 10
20.2515
 20
-21.2137
 30
0.0
 10
20.2515
 20
-21.2137
 30
0.0
 10
20.0441
 20
-21.2137
 30
0.0
 10
19.8592
 20
-21.1723
 30
0.0
 10
19.6969
 20
-21.0896
 30
0.0
 10
19.6969
 20
-21.0896
 30
0.0
 10
19.5346
 20
-21.0068
 30
0.0
 10
19.4119
 20
-20.8911
 30
0.0
 10
19.3282
 20
-20.7415
 30
0.0
 10
19.3282
 20
-20.7415
 30
0.0
 10
19.2449
 20
-20.5924
 30
0.0
 10
19.203
 20
-20.4263
 30
0.0
 10
19.203
 20
-20.2434
 30
0.0
 10
19.203
 20
-20.2434
 30
0.0
 10
19.203
 20
-20.1201
 30
0.0
 10
19.219
 20
-20.0124
 30
0.0
 10
19.252
 20
-19.9202
 30
0.0
 10
19.252
 20
-19.9202
 30
0.0
 10
19.2844
 20
-19.828
 30
0.0
 10
19.3413
 20
-19.7283
 30
0.0
 10
19.4222
 20
-19.622
 30
0.0
  0
SPLINE
  5
8F
330
1F
100
AcDbEntity
  8
DEFAULT_1
 62
   250
100
AcDbSpline
210
0.0
220
0.0
230
1.0
 70
    11
 71
     3
 72
    32
 73
    28
 74
     0
 42
0.0000000001
 43
0.0000000001
 40
0.0
 40
0.0
 40
0.0
 40
0.0
 40
0.125
 40
0.125
 40
0.125
 40
0.125
 40
0.25
 40
0.25
 40
0.25
 40
0.25
 40
0.375
 40
0.375
 40
0.375
 40
0.375
 40
0.5
 40
0.5
 40
0.5
 40
0.5
 40
0.625
 40
0.625
 40
0.625
 40
0.625
 40
0.75
 40
0.75
 40
0.75
 40
0.75
 40
1.0
 40
1.0
 40
1.0
 40
1.0
 10
19.608
 20
-19.7871
 30
0.0
 10
19.5403
 20
-19.8737
 30
0.0
 10
19.4937
 20
-19.9494
 30
0.0
 10
19.4688
 20
-20.0138
 30
0.0
 10
19.4688
 20
-20.0138
 30
0.0
 10
19.4443
 20
-20.0787
 30
0.0
 10
19.4316
 20
-20.1549
 30
0.0
 10
19.4316
 20
-20.242
 30
0.0
 10
19.4316
 20
-20.242
 30
0.0
 10
19.4316
 20
-20.4433
 30
0.0
 10
19.4998
 20
-20.6093
 30
0.0
 10
19.6362
 20
-20.741
 30
0.0
 10
19.6362
 20
-20.741
 30
0.0
 10
19.7727
 20
-20.8723
 30
0.0
 10
19.9763
 20
-20.9381
 30
0.0
 10
20.2477
 20
-20.9381
 30
0.0
 10
20.2477
 20
-20.9381
 30
0.0
 10
20.354
 20
-20.9381
 30
0.0
 10
20.4486
 20
-20.9278
 30
0.0
 10
20.5314
 20
-20.9075
 30
0.0
 10
20.5314
 20
-20.9075
 30
0.0
 10
20.593
 20
-20.8929
 30
0.0
 10
20.6687
 20
-20.8624
 30
0.0
 10
20.7585
 20
-20.8153
 30
0.0
 10
20.7585
 20
-20.8153
 30
0.0
 10
20.7585
 20
-20.8153
 30
0.0
 10
19.608
 20
-19.7871
 30
0.0
 10
19.608
 20
-19.7871
 30
0.0
  0
SPLINE
  5
90
330
1F
100
AcDbEntity
  8
DEFAULT_1
 62
   250
100
AcDbSpline
210
0.0
220
0.0
230
1.0
 70
    11
 71
     3
 72
    28
 73
    24
 74
     0
 42
0.0000000001
 43
0.0000000001
 40
0.0
 40
0.0
 40
0.0
 40
0.0
 40
0.1428571428571428
 40
0.1428571428571428
 40
0.1428571428571428
 40
0.1428571428571428
 40
0.2857142857142857
 40
0.2857142857142857
 40
0.2857142857142857
 40
0.2857142857142857
 40
0.4285714285714285
 40
0.4285714285714285
 40
0.4285714285714285
 40
0.4285714285714285
 40
0.5714285714285714
 40
0.5714285714285714
 40
0.5714285714285714
 40
0.5714285714285714
 40
0.7142857142857143
 40
0.7142857142857143
 40
0.7142857142857143
 40
0.7142857142857143
 40
1.0
 40
1.0
 40
1.0
 40
1.0
 10
19.7501
 20
-19.6742
 30
0.0
 10
19.7501
 20
-19.6742
 30
0.0
 10
20.8964
 20
-20.6982
 30
0.0
 10
20.8964
 20
-20.6982
 30
0.0
 10
20.8964
 20
-20.6982
 30
0.0
 10
20.9542
 20
-20.6277
 30
0.0
 10
20.9947
 20
-20.5623
 30
0.0
 10
21.0177
 20
-20.5025
 30
0.0
 10
21.0177
 20
-20.5025
 30
0.0
 10
21.0483
 20
-20.4245
 30
0.0
 10
21.0633
 20
-20.3398
 30
0.0
 10
21.0633
 20
-20.249
 30
0.0
 10
21.0633
 20
-20.249
 30
0.0
 10
21.0633
 20
-20.0486
 30
0.0
 10
20.9928
 20
-19.8835
 30
0.0
 10
20.8512
 20
-19.7528
 30
0.0
 10
20.8512
 20
-19.7528
 30
0.0
 10
20.7096
 20
-19.6225
 30
0.0
 10
20.5111
 20
-19.5571
 30
0.0
 10
20.2557
 20
-19.5571
 30
0.0
 10
20.2557
 20
-19.5571
 30
0.0
 10
20.0648
 20
-19.5571
 30
0.0
 10
19.8959
 20
-19.5961
 30
0.0
 10
19.7501
 20
-19.6742
 30
0.0
  0
SPLINE
  5
91
330
1F
100
AcDbEntity
  8
DEFAULT_1
 62
   250
100
AcDbSpline
210
0.0
220
0.0
230
1.0
 70
    11
 71
     3
 72
    48
 73
    44
 74
     0
 42
0.0000000001
 43
0.0000000001
 40
0.0
 40
0.0
 40
0.0
 40
0.0
 40
0.0833333333333333
 40
0.0833333333333333
 40
0.0833333333333333
 40
0.0833333333333333
 40
0.1666666666666667
 40
0.1666666666666667
 40
0.1666666666666667
 40
0.1666666666666667
 40
0.25
 40
0.25
 40
0.25
 40
0.25
 40
0.3333333333333333
 40
0.3333333333333333
 40
0.3333333333333333
 40
0.3333333333333333
 40
0.4166666666666667
 40
0.4166666666666667
 40
0.4166666666666667
 40
0.4166666666666667
 40
0.5
 40
0.5
 40
0.5
 40
0.5
 40
0.5833333333333334
 40
0.5833333333333334
 40
0.5833333333333334
 40
0.5833333333333334
 40
0.6666666666666666
 40
0.6666666666666666
 40
0.6666666666666666
 40
0.6666666666666666
 40
0.75
 40
0.75
 40
0.75
 40
0.75
 40
0.8333333333333334
 40
0.8333333333333334
 40
0.8333333333333334
 40
0.8333333333333334
 40
1.0
 40
1.0
 40
1.0
 40
1.0
 10
21.2576
 20
-18.2373
 30
0.0
 10
21.2576
 20
-18.2373
 30
0.0
 10
20.7741
 20
-18.2373
 30
0.0
 10
20.7741
 20
-18.2373
 30
0.0
 10
20.7741
 20
-18.2373
 30
0.0
 10
20.7741
 20
-18.2373
 30
0.0
 10
20.7741
 20
-19.1136
 30
0.0
 10
20.7741
 20
-19.1136
 30
0.0
 10
20.7741
 20
-19.1136
 30
0.0
 10
20.7741
 20
-19.1136
 30
0.0
 10
20.5464
 20
-19.1136
 30
0.0
 10
20.5464
 20
-19.1136
 30
0.0
 10
20.5464
 20
-19.1136
 30
0.0
 10
20.5464
 20
-19.1136
 30
0.0
 10
19.2374
 20
-18.1916
 30
0.0
 10
19.2374
 20
-18.1916
 30
0.0
 10
19.2374
 20
-18.1916
 30
0.0
 10
19.2374
 20
-18.1916
 30
0.0
 10
19.2374
 20
-17.9889
 30
0.0
 10
19.2374
 20
-17.9889
 30
0.0
 10
19.2374
 20
-17.9889
 30
0.0
 10
19.2374
 20
-17.9889
 30
0.0
 10
20.5464
 20
-17.9889
 30
0.0
 10
20.5464
 20
-17.9889
 30
0.0
 10
20.5464
 20
-17.9889
 30
0.0
 10
20.5464
 20
-17.9889
 30
0.0
 10
20.5464
 20
-17.7161
 30
0.0
 10
20.5464
 20
-17.7161
 30
0.0
 10
20.5464
 20
-17.7161
 30
0.0
 10
20.5464
 20
-17.7161
 30
0.0
 10
20.7741
 20
-17.7161
 30
0.0
 10
20.7741
 20
-17.7161
 30
0.0
 10
20.7741
 20
-17.7161
 30
0.0
 10
20.7741
 20
-17.7161
 30
0.0
 10
20.7741
 20
-17.9889
 30
0.0
 10
20.7741
 20
-17.9889
 30
0.0
 10
20.7741
 20
-17.9889
 30
0.0
 10
20.7741
 20
-17.9889
 30
0.0
 10
21.2576
 20
-17.9889
 30
0.0
 10
21.2576
 20
-17.9889
 30
0.0
 10
21.2576
 20
-17.9889
 30
0.0
 10
21.2576
 20
-17.9889
 30
0.0
 10
21.2576
 20
-18.2373
 30
0.0
 10
21.2576
 20
-18.2373
 30
0.0
  0
SPLINE
  5
92
330
1F
100
AcDbEntity
  8
DEFAULT_1
 62
   250
100
AcDbSpline
210
0.0
220
0.0
230
1.0
 70
    11
 71
     3
 72
    16
 73
    12
 74
     0
 42
0.0000000001
 43
0.0000000001
 40
0.0
 40
0.0
 40
0.0
 40
0.0
 40
0.25
 40
0.25
 40
0.25
 40
0.25
 40
0.5
 40
0.5
 40
0.5
 40
0.5
 40
1.0
 40
1.0
 40
1.0
 40
1.0
 10
20.5464
 20
-18.2373
 30
0.0
 10
20.5464
 20
-18.2373
 30
0.0
 10
19.6358
 20
-18.2373
 30
0.0
 10
19.6358
 20
-18.2373
 30
0.0
 10
19.6358
 20
-18.2373
 30
0.0
 10
19.6358
 20
-18.2373
 30
0.0
 10
20.5464
 20
-18.8694
 30
0.0
 10
20.5464
 20
-18.8694
 30
0.0
 10
20.5464
 20
-18.8694
 30
0.0
 10
20.5464
 20
-18.8694
 30
0.0
 10
20.5464
 20
-18.2373
 30
0.0
 10
20.5464
 20
-18.2373
 30
0.0
  0
SPLINE
  5
93
330
1F
100
AcDbEntity
  8
DEFAULT_1
 62
   250
100
AcDbSpline
210
0.0
220
0.0
230
1.0
 70
    11
 71
     3
 72
    52
 73
    48
 74
     0
 42
0.0000000001
 43
0.0000000001
 40
0.0
 40
0.0
 40
0.0
 40
0.0
 40
0.0769230769230769
 40
0.0769230769230769
 40
0.0769230769230769
 40
0.0769230769230769
 40
0.1538461538461539
 40
0.1538461538461539
 40
0.1538461538461539
 40
0.1538461538461539
 40
0.2307692307692308
 40
0.2307692307692308
 40
0.2307692307692308
 40
0.2307692307692308
 40
0.3076923076923077
 40
0.3076923076923077
 40
0.3076923076923077
 40
0.3076923076923077
 40
0.3846153846153846
 40
0.3846153846153846
 40
0.3846153846153846
 40
0.3846153846153846
 40
0.4615384615384616
 40
0.4615384615384616
 40
0.4615384615384616
 40
0.4615384615384616
 40
0.5384615384615384
 40
0.5384615384615384
 40
0.5384615384615384
 40
0.5384615384615384
 40
0.6153846153846154
 40
0.6153846153846154
 40
0.6153846153846154
 40
0.6153846153846154
 40
0.6923076923076923
 40
0.6923076923076923
 40
0.6923076923076923
 40
0.6923076923076923
 40
0.7692307692307693
 40
0.7692307692307693
 40
0.7692307692307693
 40
0.7692307692307693
 40
0.8461538461538461
 40
0.8461538461538461
 40
0.8461538461538461
 40
0.8461538461538461
 40
1.0
 40
1.0
 40
1.0
 40
1.0
 10
20.2614
 20
-17.4626
 30
0.0
 10
20.0224
 20
-17.4626
 30
0.0
 10
19.83
 20
-17.4381
 30
0.0
 10
19.6847
 20
-17.3887
 30
0.0
 10
19.6847
 20
-17.3887
 30
0.0
 10
19.5389
 20
-17.3398
 30
0.0
 10
19.4265
 20
-17.2664
 30
0.0
 10
19.3474
 20
-17.1695
 30
0.0
 10
19.3474
 20
-17.1695
 30
0.0
 10
19.2684
 20
-17.0726
 30
0.0
 10
19.2289
 20
-16.9508
 30
0.0
 10
19.2289
 20
-16.8041
 30
0.0
 10
19.2289
 20
-16.8041
 30
0.0
 10
19.2289
 20
-16.6954
 30
0.0
 10
19.251
 20
-16.6004
 30
0.0
 10
19.2948
 20
-16.5186
 30
0.0
 10
19.2948
 20
-16.5186
 30
0.0
 10
19.338
 20
-16.4367
 30
0.0
 10
19.4011
 20
-16.3694
 30
0.0
 10
19.4834
 20
-16.3158
 30
0.0
 10
19.4834
 20
-16.3158
 30
0.0
 10
19.5657
 20
-16.2627
 30
0.0
 10
19.6659
 20
-16.2208
 30
0.0
 10
19.7839
 20
-16.1907
 30
0.0
 10
19.7839
 20
-16.1907
 30
0.0
 10
19.902
 20
-16.1601
 30
0.0
 10
20.061
 20
-16.1451
 30
0.0
 10
20.2614
 20
-16.1451
 30
0.0
 10
20.2614
 20
-16.1451
 30
0.0
 10
20.4984
 20
-16.1451
 30
0.0
 10
20.6894
 20
-16.1695
 30
0.0
 10
20.8352
 20
-16.218
 30
0.0
 10
20.8352
 20
-16.218
 30
0.0
 10
20.981
 20
-16.2669
 30
0.0
 10
21.0934
 20
-16.3398
 30
0.0
 10
21.1729
 20
-16.4367
 30
0.0
 10
21.1729
 20
-16.4367
 30
0.0
 10
21.2524
 20
-16.5336
 30
0.0
 10
21.2919
 20
-16.6559
 30
0.0
 10
21.2919
 20
-16.8041
 30
0.0
 10
21.2919
 20
-16.8041
 30
0.0
 10
21.2919
 20
-16.9988
 30
0.0
 10
21.2223
 20
-17.1517
 30
0.0
 10
21.0826
 20
-17.2627
 30
0.0
 10
21.0826
 20
-17.2627
 30
0.0
 10
20.9147
 20
-17.3958
 30
0.0
 10
20.6405
 20
-17.4626
 30
0.0
 10
20.2614
 20
-17.4626
 30
0.0
  0
SPLINE
  5
94
330
1F
100
AcDbEntity
  8
DEFAULT_1
 62
   250
100
AcDbSpline
210
0.0
220
0.0
230
1.0
 70
    11
 71
     3
 72
    36
 73
    32
 74
     0
 42
0.0000000001
 43
0.0000000001
 40
0.0
 40
0.0
 40
0.0
 40
0.0
 40
0.1111111111111111
 40
0.1111111111111111
 40
0.1111111111111111
 40
0.1111111111111111
 40
0.2222222222222222
 40
0.2222222222222222
 40
0.2222222222222222
 40
0.2222222222222222
 40
0.3333333333333333
 40
0.3333333333333333
 40
0.3333333333333333
 40
0.3333333333333333
 40
0.4444444444444444
 40
0.4444444444444444
 40
0.4444444444444444
 40
0.4444444444444444
 40
0.5555555555555556
 40
0.5555555555555556
 40
0.5555555555555556
 40
0.5555555555555556
 40
0.6666666666666666
 40
0.6666666666666666
 40
0.6666666666666666
 40
0.6666666666666666
 40
0.7777777777777778
 40
0.7777777777777778
 40
0.7777777777777778
 40
0.7777777777777778
 40
1.0
 40
1.0
 40
1.0
 40
1.0
 10
20.2614
 20
-17.2076
 30
0.0
 10
20.593
 20
-17.2076
 30
0.0
 10
20.8136
 20
-17.1686
 30
0.0
 10
20.9236
 20
-17.091
 30
0.0
 10
20.9236
 20
-17.091
 30
0.0
 10
21.0332
 20
-17.0134
 30
0.0
 10
21.0883
 20
-16.9179
 30
0.0
 10
21.0883
 20
-16.8041
 30
0.0
 10
21.0883
 20
-16.8041
 30
0.0
 10
21.0883
 20
-16.6898
 30
0.0
 10
21.0328
 20
-16.5943
 30
0.0
 10
20.9227
 20
-16.5167
 30
0.0
 10
20.9227
 20
-16.5167
 30
0.0
 10
20.8126
 20
-16.4391
 30
0.0
 10
20.592
 20
-16.4
 30
0.0
 10
20.2614
 20
-16.4
 30
0.0
 10
20.2614
 20
-16.4
 30
0.0
 10
19.9288
 20
-16.4
 30
0.0
 10
19.7077
 20
-16.4391
 30
0.0
 10
19.5986
 20
-16.5167
 30
0.0
 10
19.5986
 20
-16.5167
 30
0.0
 10
19.489
 20
-16.5943
 30
0.0
 10
19.4345
 20
-16.6907
 30
0.0
 10
19.4345
 20
-16.8064
 30
0.0
 10
19.4345
 20
-16.8064
 30
0.0
 10
19.4345
 20
-16.9207
 30
0.0
 10
19.4829
 20
-17.0115
 30
0.0
 10
19.5793
 20
-17.0797
 30
0.0
 10
19.5793
 20
-17.0797
 30
0.0
 10
19.7021
 20
-17.1648
 30
0.0
 10
19.9298
 20
-17.2076
 30
0.0
 10
20.2614
 20
-17.2076
 30
0.0
  0
SPLINE
  5
95
330
1F
100
AcDbEntity
  8
DEFAULT_1
 62
   250
100
AcDbSpline
210
0.0
220
0.0
230
1.0
 70
    24
 71
     3
 72
     8
 73
     4
 74
     0
 42
0.0000000001
 43
0.0000000001
 40
0.0
 40
0.0
 40
0.0
 40
0.0
 40
1.0
 40
1.0
 40
1.0
 40
1.0
 10
21.7736
 20
-10.5134
 30
0.0
 10
21.7736
 20
-10.5134
 30
0.0
 10
21.7736
 20
-27.7618
 30
0.0
 10
21.7736
 20
-27.7618
 30
0.0
  0
SPLINE
  5
96
330
1F
100
AcDbEntity
  8
DEFAULT_1
 62
   250
100
AcDbSpline
210
0.0
220
0.0
230
1.0
 70
    11
 71
     3
 72
    20
 73
    16
 74
     0
 42
0.0000000001
 43
0.0000000001
 40
0.0
 40
0.0
 40
0.0
 40
0.0
 40
0.2
 40
0.2
 40
0.2
 40
0.2
 40
0.4
 40
0.4
 40
0.4
 40
0.4
 40
0.6
 40
0.6
 40
0.6
 40
0.6
 40
1.0
 40
1.0
 40
1.0
 40
1.0
 10
21.3609
 20
-26.7982
 30
0.0
 10
21.3609
 20
-26.7982
 30
0.0
 10
21.7603
 20
-23.9678
 30
0.0
 10
21.7603
 20
-23.9678
 30
0.0
 10
21.7603
 20
-23.9678
 30
0.0
 10
21.7603
 20
-23.9678
 30
0.0
 10
21.849
 20
-23.9678
 30
0.0
 10
21.849
 20
-23.9678
 30
0.0
 10
21.849
 20
-23.9678
 30
0.0
 10
21.849
 20
-23.9678
 30
0.0
 10
22.2751
 20
-26.7982
 30
0.0
 10
22.2751
 20
-26.7982
 30
0.0
 10
22.2751
 20
-26.7982
 30
0.0
 10
22.2751
 20
-26.7982
 30
0.0
 10
21.3609
 20
-26.7982
 30
0.0
 10
21.3609
 20
-26.7982
 30
0.0
  0
SPLINE
  5
97
330
1F
100
AcDbEntity
  8
DEFAULT_1
 62
   250
100
AcDbSpline
210
0.0
220
0.0
230
1.0
 70
    11
 71
     3
 72
    20
 73
    16
 74
     0
 42
0.0000000001
 43
0.0000000001
 40
0.0
 40
0.0
 40
0.0
 40
0.0
 40
0.2
 40
0.2
 40
0.2
 40
0.2
 40
0.4
 40
0.4
 40
0.4
 40
0.4
 40
0.6
 40
0.6
 40
0.6
 40
0.6
 40
1.0
 40
1.0
 40
1.0
 40
1.0
 10
22.2146
 20
-11.3698
 30
0.0
 10
22.2146
 20
-11.3698
 30
0.0
 10
21.8151
 20
-14.2002
 30
0.0
 10
21.8151
 20
-14.2002
 30
0.0
 10
21.8151
 20
-14.2002
 30
0.0
 10
21.8151
 20
-14.2002
 30
0.0
 10
21.7264
 20
-14.2002
 30
0.0
 10
21.7264
 20
-14.2002
 30
0.0
 10
21.7264
 20
-14.2002
 30
0.0
 10
21.7264
 20
-14.2002
 30
0.0
 10
21.3004
 20
-11.3698
 30
0.0
 10
21.3004
 20
-11.3698
 30
0.0
 10
21.3004
 20
-11.3698
 30
0.0
 10
21.3004
 20
-11.3698
 30
0.0
 10
22.2146
 20
-11.3698
 30
0.0
 10
22.2146
 20
-11.3698
 30
0.0
  0
SPLINE
  5
98
330
1F
100
AcDbEntity
  8
DEFAULT_1
 62
   250
100
AcDbSpline
210
0.0
220
0.0
230
1.0
 70
    11
 71
     3
 72
    84
 73
    80
 74
     0
 42
0.0000000001
 43
0.0000000001
 40
0.0
 40
0.0
 40
0.0
 40
0.0
 40
0.0476190476190476
 40
0.0476190476190476
 40
0.0476190476190476
 40
0.0476190476190476
 40
0.0952380952380952
 40
0.0952380952380952
 40
0.0952380952380952
 40
0.0952380952380952
 40
0.1428571428571428
 40
0.1428571428571428
 40
0.1428571428571428
 40
0.1428571428571428
 40
0.1904761904761905
 40
0.1904761904761905
 40
0.1904761904761905
 40
0.1904761904761905
 40
0.2380952380952381
 40
0.2380952380952381
 40
0.2380952380952381
 40
0.2380952380952381
 40
0.2857142857142857
 40
0.2857142857142857
 40
0.2857142857142857
 40
0.2857142857142857
 40
0.3333333333333333
 40
0.3333333333333333
 40
0.3333333333333333
 40
0.3333333333333333
 40
0.3809523809523809
 40
0.3809523809523809
 40
0.3809523809523809
 40
0.3809523809523809
 40
0.4285714285714285
 40
0.4285714285714285
 40
0.4285714285714285
 40
0.4285714285714285
 40
0.4761904761904762
 40
0.4761904761904762
 40
0.4761904761904762
 40
0.4761904761904762
 40
0.5238095238095238
 40
0.5238095238095238
 40
0.5238095238095238
 40
0.5238095238095238
 40
0.5714285714285714
 40
0.5714285714285714
 40
0.5714285714285714
 40
0.5714285714285714
 40
0.6190476190476191
 40
0.6190476190476191
 40
0.6190476190476191
 40
0.6190476190476191
 40
0.6666666666666666
 40
0.6666666666666666
 40
0.6666666666666666
 40
0.6666666666666666
 40
0.7142857142857143
 40
0.7142857142857143
 40
0.7142857142857143
 40
0.7142857142857143
 40
0.7619047619047619
 40
0.7619047619047619
 40
0.7619047619047619
 40
0.7619047619047619
 40
0.8095238095238095
 40
0.8095238095238095
 40
0.8095238095238095
 40
0.8095238095238095
 40
0.8571428571428571
 40
0.8571428571428571
 40
0.8571428571428571
 40
0.8571428571428571
 40
0.9047619047619048
 40
0.9047619047619048
 40
0.9047619047619048
 40
0.9047619047619048
 40
1.0
 40
1.0
 40
1.0
 40
1.0
 10
-29.4953
 20
11.3834
 30
0.0
 10
-29.4953
 20
11.3834
 30
0.0
 10
-29.2639
 20
11.6425
 30
0.0
 10
-29.2639
 20
11.6425
 30
0.0
 10
-29.2639
 20
11.6425
 30
0.0
 10
-29.2639
 20
11.6425
 30
0.0
 10
-29.1275
 20
11.5268
 30
0.0
 10
-29.1275
 20
11.5268
 30
0.0
 10
-29.1275
 20
11.5268
 30
0.0
 10
-29.1275
 20
11.5268
 30
0.0
 10
-29.3697
 20
11.254
 30
0.0
 10
-29.3697
 20
11.254
 30
0.0
 10
-29.3697
 20
11.254
 30
0.0
 10
-29.2907
 20
11.1364
 30
0.0
 10
-29.2376
 20
11.0334
 30
0.0
 10
-29.2098
 20
10.9455
 30
0.0
 10
-29.2098
 20
10.9455
 30
0.0
 10
-29.1731
 20
10.8297
 30
0.0
 10
-29.1548
 20
10.6999
 30
0.0
 10
-29.1548
 20
10.5569
 30
0.0
 10
-29.1548
 20
10.5569
 30
0.0
 10
-29.1548
 20
10.35
 30
0.0
 10
-29.1966
 20
10.1656
 30
0.0
 10
-29.2804
 20
10.0043
 30
0.0
 10
-29.2804
 20
10.0043
 30
0.0
 10
-29.3641
 20
9.8424
 30
0.0
 10
-29.4812
 20
9.7202
 30
0.0
 10
-29.6322
 20
9.6374
 30
0.0
 10
-29.6322
 20
9.6374
 30
0.0
 10
-29.7837
 20
9.5551
 30
0.0
 10
-29.944
 20
9.5137
 30
0.0
 10
-30.1138
 20
9.5137
 30
0.0
 10
-30.1138
 20
9.5137
 30
0.0
 10
-30.2408
 20
9.5137
 30
0.0
 10
-30.3556
 20
9.5315
 30
0.0
 10
-30.4586
 20
9.5673
 30
0.0
 10
-30.4586
 20
9.5673
 30
0.0
 10
-30.5376
 20
9.595
 30
0.0
 10
-30.6298
 20
9.6477
 30
0.0
 10
-30.7357
 20
9.7258
 30
0.0
 10
-30.7357
 20
9.7258
 30
0.0
 10
-30.7357
 20
9.7258
 30
0.0
 10
-30.9671
 20
9.4666
 30
0.0
 10
-30.9671
 20
9.4666
 30
0.0
 10
-30.9671
 20
9.4666
 30
0.0
 10
-30.9671
 20
9.4666
 30
0.0
 10
-31.1035
 20
9.5823
 30
0.0
 10
-31.1035
 20
9.5823
 30
0.0
 10
-31.1035
 20
9.5823
 30
0.0
 10
-31.1035
 20
9.5823
 30
0.0
 10
-30.8608
 20
9.8537
 30
0.0
 10
-30.8608
 20
9.8537
 30
0.0
 10
-30.8608
 20
9.8537
 30
0.0
 10
-30.9511
 20
9.9906
 30
0.0
 10
-31.0113
 20
10.1077
 30
0.0
 10
-31.0414
 20
10.2046
 30
0.0
 10
-31.0414
 20
10.2046
 30
0.0
 10
-31.0715
 20
10.3015
 30
0.0
 10
-31.087
 20
10.4182
 30
0.0
 10
-31.087
 20
10.5541
 30
0.0
 10
-31.087
 20
10.5541
 30
0.0
 10
-31.087
 20
10.7615
 30
0.0
 10
-31.0456
 20
10.9464
 30
0.0
 10
-30.9629
 20
11.1087
 30
0.0
 10
-30.9629
 20
11.1087
 30
0.0
 10
-30.8801
 20
11.271
 30
0.0
 10
-30.7644
 20
11.3937
 30
0.0
 10
-30.6148
 20
11.4774
 30
0.0
 10
-30.6148
 20
11.4774
 30
0.0
 10
-30.4657
 20
11.5607
 30
0.0
 10
-30.2996
 20
11.6026
 30
0.0
 10
-30.1167
 20
11.6026
 30
0.0
 10
-30.1167
 20
11.6026
 30
0.0
 10
-29.9934
 20
11.6026
 30
0.0
 10
-29.8857
 20
11.5866
 30
0.0
 10
-29.7935
 20
11.5536
 30
0.0
 10
-29.7935
 20
11.5536
 30
0.0
 10
-29.7013
 20
11.5212
 30
0.0
 10
-29.6016
 20
11.4643
 30
0.0
 10
-29.4953
 20
11.3834
 30
0.0
  0
SPLINE
  5
99
330
1F
100
AcDbEntity
  8
DEFAULT_1
 62
   250
100
AcDbSpline
210
0.0
220
0.0
230
1.0
 70
    11
 71
     3
 72
    32
 73
    28
 74
     0
 42
0.0000000001
 43
0.0000000001
 40
0.0
 40
0.0
 40
0.0
 40
0.0
 40
0.125
 40
0.125
 40
0.125
 40
0.125
 40
0.25
 40
0.25
 40
0.25
 40
0.25
 40
0.375
 40
0.375
 40
0.375
 40
0.375
 40
0.5
 40
0.5
 40
0.5
 40
0.5
 40
0.625
 40
0.625
 40
0.625
 40
0.625
 40
0.75
 40
0.75
 40
0.75
 40
0.75
 40
1.0
 40
1.0
 40
1.0
 40
1.0
 10
-29.6604
 20
11.1976
 30
0.0
 10
-29.747
 20
11.2653
 30
0.0
 10
-29.8227
 20
11.3119
 30
0.0
 10
-29.8871
 20
11.3368
 30
0.0
 10
-29.8871
 20
11.3368
 30
0.0
 10
-29.952
 20
11.3613
 30
0.0
 10
-30.0282
 20
11.374
 30
0.0
 10
-30.1153
 20
11.374
 30
0.0
 10
-30.1153
 20
11.374
 30
0.0
 10
-30.3166
 20
11.374
 30
0.0
 10
-30.4826
 20
11.3058
 30
0.0
 10
-30.6143
 20
11.1694
 30
0.0
 10
-30.6143
 20
11.1694
 30
0.0
 10
-30.7456
 20
11.0329
 30
0.0
 10
-30.8114
 20
10.8293
 30
0.0
 10
-30.8114
 20
10.5579
 30
0.0
 10
-30.8114
 20
10.5579
 30
0.0
 10
-30.8114
 20
10.4516
 30
0.0
 10
-30.8011
 20
10.357
 30
0.0
 10
-30.7808
 20
10.2742
 30
0.0
 10
-30.7808
 20
10.2742
 30
0.0
 10
-30.7662
 20
10.2126
 30
0.0
 10
-30.7357
 20
10.1369
 30
0.0
 10
-30.6886
 20
10.0471
 30
0.0
 10
-30.6886
 20
10.0471
 30
0.0
 10
-30.6886
 20
10.0471
 30
0.0
 10
-29.6604
 20
11.1976
 30
0.0
 10
-29.6604
 20
11.1976
 30
0.0
  0
SPLINE
  5
9A
330
1F
100
AcDbEntity
  8
DEFAULT_1
 62
   250
100
AcDbSpline
210
0.0
220
0.0
230
1.0
 70
    11
 71
     3
 72
    28
 73
    24
 74
     0
 42
0.0000000001
 43
0.0000000001
 40
0.0
 40
0.0
 40
0.0
 40
0.0
 40
0.1428571428571428
 40
0.1428571428571428
 40
0.1428571428571428
 40
0.1428571428571428
 40
0.2857142857142857
 40
0.2857142857142857
 40
0.2857142857142857
 40
0.2857142857142857
 40
0.4285714285714285
 40
0.4285714285714285
 40
0.4285714285714285
 40
0.4285714285714285
 40
0.5714285714285714
 40
0.5714285714285714
 40
0.5714285714285714
 40
0.5714285714285714
 40
0.7142857142857143
 40
0.7142857142857143
 40
0.7142857142857143
 40
0.7142857142857143
 40
1.0
 40
1.0
 40
1.0
 40
1.0
 10
-29.5475
 20
11.0555
 30
0.0
 10
-29.5475
 20
11.0555
 30
0.0
 10
-30.5715
 20
9.9092
 30
0.0
 10
-30.5715
 20
9.9092
 30
0.0
 10
-30.5715
 20
9.9092
 30
0.0
 10
-30.501
 20
9.8514
 30
0.0
 10
-30.4356
 20
9.8109
 30
0.0
 10
-30.3758
 20
9.7879
 30
0.0
 10
-30.3758
 20
9.7879
 30
0.0
 10
-30.2978
 20
9.7573
 30
0.0
 10
-30.2131
 20
9.7423
 30
0.0
 10
-30.1223
 20
9.7423
 30
0.0
 10
-30.1223
 20
9.7423
 30
0.0
 10
-29.9219
 20
9.7423
 30
0.0
 10
-29.7568
 20
9.8128
 30
0.0
 10
-29.6261
 20
9.9544
 30
0.0
 10
-29.6261
 20
9.9544
 30
0.0
 10
-29.4958
 20
10.096
 30
0.0
 10
-29.4304
 20
10.2945
 30
0.0
 10
-29.4304
 20
10.5499
 30
0.0
 10
-29.4304
 20
10.5499
 30
0.0
 10
-29.4304
 20
10.7408
 30
0.0
 10
-29.4694
 20
10.9097
 30
0.0
 10
-29.5475
 20
11.0555
 30
0.0
  0
SPLINE
  5
9B
330
1F
100
AcDbEntity
  8
DEFAULT_1
 62
   250
100
AcDbSpline
210
0.0
220
0.0
230
1.0
 70
    11
 71
     3
 72
    48
 73
    44
 74
     0
 42
0.0000000001
 43
0.0000000001
 40
0.0
 40
0.0
 40
0.0
 40
0.0
 40
0.0833333333333333
 40
0.0833333333333333
 40
0.0833333333333333
 40
0.0833333333333333
 40
0.1666666666666667
 40
0.1666666666666667
 40
0.1666666666666667
 40
0.1666666666666667
 40
0.25
 40
0.25
 40
0.25
 40
0.25
 40
0.3333333333333333
 40
0.3333333333333333
 40
0.3333333333333333
 40
0.3333333333333333
 40
0.4166666666666667
 40
0.4166666666666667
 40
0.4166666666666667
 40
0.4166666666666667
 40
0.5
 40
0.5
 40
0.5
 40
0.5
 40
0.5833333333333334
 40
0.5833333333333334
 40
0.5833333333333334
 40
0.5833333333333334
 40
0.6666666666666666
 40
0.6666666666666666
 40
0.6666666666666666
 40
0.6666666666666666
 40
0.75
 40
0.75
 40
0.75
 40
0.75
 40
0.8333333333333334
 40
0.8333333333333334
 40
0.8333333333333334
 40
0.8333333333333334
 40
1.0
 40
1.0
 40
1.0
 40
1.0
 10
-28.1106
 20
9.548
 30
0.0
 10
-28.1106
 20
9.548
 30
0.0
 10
-28.1106
 20
10.0315
 30
0.0
 10
-28.1106
 20
10.0315
 30
0.0
 10
-28.1106
 20
10.0315
 30
0.0
 10
-28.1106
 20
10.0315
 30
0.0
 10
-28.9869
 20
10.0315
 30
0.0
 10
-28.9869
 20
10.0315
 30
0.0
 10
-28.9869
 20
10.0315
 30
0.0
 10
-28.9869
 20
10.0315
 30
0.0
 10
-28.9869
 20
10.2592
 30
0.0
 10
-28.9869
 20
10.2592
 30
0.0
 10
-28.9869
 20
10.2592
 30
0.0
 10
-28.9869
 20
10.2592
 30
0.0
 10
-28.0649
 20
11.5682
 30
0.0
 10
-28.0649
 20
11.5682
 30
0.0
 10
-28.0649
 20
11.5682
 30
0.0
 10
-28.0649
 20
11.5682
 30
0.0
 10
-27.8622
 20
11.5682
 30
0.0
 10
-27.8622
 20
11.5682
 30
0.0
 10
-27.8622
 20
11.5682
 30
0.0
 10
-27.8622
 20
11.5682
 30
0.0
 10
-27.8622
 20
10.2592
 30
0.0
 10
-27.8622
 20
10.2592
 30
0.0
 10
-27.8622
 20
10.2592
 30
0.0
 10
-27.8622
 20
10.2592
 30
0.0
 10
-27.5894
 20
10.2592
 30
0.0
 10
-27.5894
 20
10.2592
 30
0.0
 10
-27.5894
 20
10.2592
 30
0.0
 10
-27.5894
 20
10.2592
 30
0.0
 10
-27.5894
 20
10.0315
 30
0.0
 10
-27.5894
 20
10.0315
 30
0.0
 10
-27.5894
 20
10.0315
 30
0.0
 10
-27.5894
 20
10.0315
 30
0.0
 10
-27.8622
 20
10.0315
 30
0.0
 10
-27.8622
 20
10.0315
 30
0.0
 10
-27.8622
 20
10.0315
 30
0.0
 10
-27.8622
 20
10.0315
 30
0.0
 10
-27.8622
 20
9.548
 30
0.0
 10
-27.8622
 20
9.548
 30
0.0
 10
-27.8622
 20
9.548
 30
0.0
 10
-27.8622
 20
9.548
 30
0.0
 10
-28.1106
 20
9.548
 30
0.0
 10
-28.1106
 20
9.548
 30
0.0
  0
SPLINE
  5
9C
330
1F
100
AcDbEntity
  8
DEFAULT_1
 62
   250
100
AcDbSpline
210
0.0
220
0.0
230
1.0
 70
    11
 71
     3
 72
    16
 73
    12
 74
     0
 42
0.0000000001
 43
0.0000000001
 40
0.0
 40
0.0
 40
0.0
 40
0.0
 40
0.25
 40
0.25
 40
0.25
 40
0.25
 40
0.5
 40
0.5
 40
0.5
 40
0.5
 40
1.0
 40
1.0
 40
1.0
 40
1.0
 10
-28.1106
 20
10.2592
 30
0.0
 10
-28.1106
 20
10.2592
 30
0.0
 10
-28.1106
 20
11.1698
 30
0.0
 10
-28.1106
 20
11.1698
 30
0.0
 10
-28.1106
 20
11.1698
 30
0.0
 10
-28.1106
 20
11.1698
 30
0.0
 10
-28.7427
 20
10.2592
 30
0.0
 10
-28.7427
 20
10.2592
 30
0.0
 10
-28.7427
 20
10.2592
 30
0.0
 10
-28.7427
 20
10.2592
 30
0.0
 10
-28.1106
 20
10.2592
 30
0.0
 10
-28.1106
 20
10.2592
 30
0.0
  0
SPLINE
  5
9D
330
1F
100
AcDbEntity
  8
DEFAULT_1
 62
   250
100
AcDbSpline
210
0.0
220
0.0
230
1.0
 70
    11
 71
     3
 72
    52
 73
    48
 74
     0
 42
0.0000000001
 43
0.0000000001
 40
0.0
 40
0.0
 40
0.0
 40
0.0
 40
0.0769230769230769
 40
0.0769230769230769
 40
0.0769230769230769
 40
0.0769230769230769
 40
0.1538461538461539
 40
0.1538461538461539
 40
0.1538461538461539
 40
0.1538461538461539
 40
0.2307692307692308
 40
0.2307692307692308
 40
0.2307692307692308
 40
0.2307692307692308
 40
0.3076923076923077
 40
0.3076923076923077
 40
0.3076923076923077
 40
0.3076923076923077
 40
0.3846153846153846
 40
0.3846153846153846
 40
0.3846153846153846
 40
0.3846153846153846
 40
0.4615384615384616
 40
0.4615384615384616
 40
0.4615384615384616
 40
0.4615384615384616
 40
0.5384615384615384
 40
0.5384615384615384
 40
0.5384615384615384
 40
0.5384615384615384
 40
0.6153846153846154
 40
0.6153846153846154
 40
0.6153846153846154
 40
0.6153846153846154
 40
0.6923076923076923
 40
0.6923076923076923
 40
0.6923076923076923
 40
0.6923076923076923
 40
0.7692307692307693
 40
0.7692307692307693
 40
0.7692307692307693
 40
0.7692307692307693
 40
0.8461538461538461
 40
0.8461538461538461
 40
0.8461538461538461
 40
0.8461538461538461
 40
1.0
 40
1.0
 40
1.0
 40
1.0
 10
-27.3359
 20
10.5442
 30
0.0
 10
-27.3359
 20
10.7832
 30
0.0
 10
-27.3114
 20
10.9756
 30
0.0
 10
-27.262
 20
11.1209
 30
0.0
 10
-27.262
 20
11.1209
 30
0.0
 10
-27.2131
 20
11.2667
 30
0.0
 10
-27.1397
 20
11.3791
 30
0.0
 10
-27.0428
 20
11.4582
 30
0.0
 10
-27.0428
 20
11.4582
 30
0.0
 10
-26.9459
 20
11.5372
 30
0.0
 10
-26.8241
 20
11.5767
 30
0.0
 10
-26.6774
 20
11.5767
 30
0.0
 10
-26.6774
 20
11.5767
 30
0.0
 10
-26.5687
 20
11.5767
 30
0.0
 10
-26.4737
 20
11.5546
 30
0.0
 10
-26.3919
 20
11.5108
 30
0.0
 10
-26.3919
 20
11.5108
 30
0.0
 10
-26.31
 20
11.4676
 30
0.0
 10
-26.2427
 20
11.4045
 30
0.0
 10
-26.1891
 20
11.3222
 30
0.0
 10
-26.1891
 20
11.3222
 30
0.0
 10
-26.136
 20
11.2399
 30
0.0
 10
-26.0941
 20
11.1397
 30
0.0
 10
-26.064
 20
11.0217
 30
0.0
 10
-26.064
 20
11.0217
 30
0.0
 10
-26.0334
 20
10.9036
 30
0.0
 10
-26.0184
 20
10.7446
 30
0.0
 10
-26.0184
 20
10.5442
 30
0.0
 10
-26.0184
 20
10.5442
 30
0.0
 10
-26.0184
 20
10.3072
 30
0.0
 10
-26.0428
 20
10.1162
 30
0.0
 10
-26.0913
 20
9.9704
 30
0.0
 10
-26.0913
 20
9.9704
 30
0.0
 10
-26.1402
 20
9.8246
 30
0.0
 10
-26.2131
 20
9.7122
 30
0.0
 10
-26.31
 20
9.6327
 30
0.0
 10
-26.31
 20
9.6327
 30
0.0
 10
-26.4069
 20
9.5532
 30
0.0
 10
-26.5292
 20
9.5137
 30
0.0
 10
-26.6774
 20
9.5137
 30
0.0
 10
-26.6774
 20
9.5137
 30
0.0
 10
-26.8721
 20
9.5137
 30
0.0
 10
-27.025
 20
9.5833
 30
0.0
 10
-27.136
 20
9.723
 30
0.0
 10
-27.136
 20
9.723
 30
0.0
 10
-27.2691
 20
9.8909
 30
0.0
 10
-27.3359
 20
10.1651
 30
0.0
 10
-27.3359
 20
10.5442
 30
0.0
  0
SPLINE
  5
9E
330
1F
100
AcDbEntity
  8
DEFAULT_1
 62
   250
100
AcDbSpline
210
0.0
220
0.0
230
1.0
 70
    11
 71
     3
 72
    36
 73
    32
 74
     0
 42
0.0000000001
 43
0.0000000001
 40
0.0
 40
0.0
 40
0.0
 40
0.0
 40
0.1111111111111111
 40
0.1111111111111111
 40
0.1111111111111111
 40
0.1111111111111111
 40
0.2222222222222222
 40
0.2222222222222222
 40
0.2222222222222222
 40
0.2222222222222222
 40
0.3333333333333333
 40
0.3333333333333333
 40
0.3333333333333333
 40
0.3333333333333333
 40
0.4444444444444444
 40
0.4444444444444444
 40
0.4444444444444444
 40
0.4444444444444444
 40
0.5555555555555556
 40
0.5555555555555556
 40
0.5555555555555556
 40
0.5555555555555556
 40
0.6666666666666666
 40
0.6666666666666666
 40
0.6666666666666666
 40
0.6666666666666666
 40
0.7777777777777778
 40
0.7777777777777778
 40
0.7777777777777778
 40
0.7777777777777778
 40
1.0
 40
1.0
 40
1.0
 40
1.0
 10
-27.0809
 20
10.5442
 30
0.0
 10
-27.0809
 20
10.2126
 30
0.0
 10
-27.0419
 20
9.992
 30
0.0
 10
-26.9643
 20
9.882
 30
0.0
 10
-26.9643
 20
9.882
 30
0.0
 10
-26.8867
 20
9.7724
 30
0.0
 10
-26.7912
 20
9.7173
 30
0.0
 10
-26.6774
 20
9.7173
 30
0.0
 10
-26.6774
 20
9.7173
 30
0.0
 10
-26.5631
 20
9.7173
 30
0.0
 10
-26.4676
 20
9.7728
 30
0.0
 10
-26.39
 20
9.8829
 30
0.0
 10
-26.39
 20
9.8829
 30
0.0
 10
-26.3124
 20
9.993
 30
0.0
 10
-26.2733
 20
10.2136
 30
0.0
 10
-26.2733
 20
10.5442
 30
0.0
 10
-26.2733
 20
10.5442
 30
0.0
 10
-26.2733
 20
10.8768
 30
0.0
 10
-26.3124
 20
11.0979
 30
0.0
 10
-26.39
 20
11.207
 30
0.0
 10
-26.39
 20
11.207
 30
0.0
 10
-26.4676
 20
11.3166
 30
0.0
 10
-26.564
 20
11.3711
 30
0.0
 10
-26.6797
 20
11.3711
 30
0.0
 10
-26.6797
 20
11.3711
 30
0.0
 10
-26.794
 20
11.3711
 30
0.0
 10
-26.8848
 20
11.3227
 30
0.0
 10
-26.953
 20
11.2263
 30
0.0
 10
-26.953
 20
11.2263
 30
0.0
 10
-27.0381
 20
11.1035
 30
0.0
 10
-27.0809
 20
10.8758
 30
0.0
 10
-27.0809
 20
10.5442
 30
0.0
  0
SPLINE
  5
9F
330
1F
100
AcDbEntity
  8
DEFAULT_1
 62
   250
100
AcDbSpline
210
0.0
220
0.0
230
1.0
 70
    24
 71
     3
 72
     8
 73
     4
 74
     0
 42
0.0000000001
 43
0.0000000001
 40
0.0
 40
0.0
 40
0.0
 40
0.0
 40
1.0
 40
1.0
 40
1.0
 40
1.0
 10
-20.6225
 20
9.0922
 30
0.0
 10
-20.6225
 20
9.0922
 30
0.0
 10
-37.4625
 20
9.0922
 30
0.0
 10
-37.4625
 20
9.0922
 30
0.0
  0
SPLINE
  5
A0
330
1F
100
AcDbEntity
  8
DEFAULT_1
 62
   250
100
AcDbSpline
210
0.0
220
0.0
230
1.0
 70
    11
 71
     3
 72
    20
 73
    16
 74
     0
 42
0.0000000001
 43
0.0000000001
 40
0.0
 40
0.0
 40
0.0
 40
0.0
 40
0.2
 40
0.2
 40
0.2
 40
0.2
 40
0.4
 40
0.4
 40
0.4
 40
0.4
 40
0.6
 40
0.6
 40
0.6
 40
0.6
 40
1.0
 40
1.0
 40
1.0
 40
1.0
 10
-21.3291
 20
8.6582
 30
0.0
 10
-21.3291
 20
8.6582
 30
0.0
 10
-24.1596
 20
9.0577
 30
0.0
 10
-24.1596
 20
9.0577
 30
0.0
 10
-24.1596
 20
9.0577
 30
0.0
 10
-24.1596
 20
9.0577
 30
0.0
 10
-24.1596
 20
9.1464
 30
0.0
 10
-24.1596
 20
9.1464
 30
0.0
 10
-24.1596
 20
9.1464
 30
0.0
 10
-24.1596
 20
9.1464
 30
0.0
 10
-21.3291
 20
9.5724
 30
0.0
 10
-21.3291
 20
9.5724
 30
0.0
 10
-21.3291
 20
9.5724
 30
0.0
 10
-21.3291
 20
9.5724
 30
0.0
 10
-21.3291
 20
8.6582
 30
0.0
 10
-21.3291
 20
8.6582
 30
0.0
  0
SPLINE
  5
A1
330
1F
100
AcDbEntity
  8
DEFAULT_1
 62
   250
100
AcDbSpline
210
0.0
220
0.0
230
1.0
 70
    11
 71
     3
 72
    20
 73
    16
 74
     0
 42
0.0000000001
 43
0.0000000001
 40
0.0
 40
0.0
 40
0.0
 40
0.0
 40
0.2
 40
0.2
 40
0.2
 40
0.2
 40
0.4
 40
0.4
 40
0.4
 40
0.4
 40
0.6
 40
0.6
 40
0.6
 40
0.6
 40
1.0
 40
1.0
 40
1.0
 40
1.0
 10
-36.6704
 20
9.5105
 30
0.0
 10
-36.6704
 20
9.5105
 30
0.0
 10
-33.84
 20
9.1111
 30
0.0
 10
-33.84
 20
9.1111
 30
0.0
 10
-33.84
 20
9.1111
 30
0.0
 10
-33.84
 20
9.1111
 30
0.0
 10
-33.84
 20
9.0223
 30
0.0
 10
-33.84
 20
9.0223
 30
0.0
 10
-33.84
 20
9.0223
 30
0.0
 10
-33.84
 20
9.0223
 30
0.0
 10
-36.6704
 20
8.5963
 30
0.0
 10
-36.6704
 20
8.5963
 30
0.0
 10
-36.6704
 20
8.5963
 30
0.0
 10
-36.6704
 20
8.5963
 30
0.0
 10
-36.6704
 20
9.5105
 30
0.0
 10
-36.6704
 20
9.5105
 30
0.0
  0
SPLINE
  5
A2
330
1F
100
AcDbEntity
  8
DEFAULT_1
 62
   250
100
AcDbSpline
210
0.0
220
0.0
230
1.0
 70
     8
 71
     3
 72
    16
 73
    12
 74
     0
 42
0.0000000001
 43
0.0000000001
 40
0.0
 40
0.0
 40
0.0
 40
0.0
 40
0.25
 40
0.25
 40
0.25
 40
0.25
 40
0.5
 40
0.5
 40
0.5
 40
0.5
 40
1.0
 40
1.0
 40
1.0
 40
1.0
 10
-36.9794
 20
24.5223
 30
0.0
 10
-36.9794
 20
24.5223
 30
0.0
 10
-36.9789
 20
24.9506
 30
0.0
 10
-36.9789
 20
24.9506
 30
0.0
 10
-36.9789
 20
24.9506
 30
0.0
 10
-36.9789
 20
24.9506
 30
0.0
 10
-20.9755
 20
24.9506
 30
0.0
 10
-20.9755
 20
24.9506
 30
0.0
 10
-20.9755
 20
24.9506
 30
0.0
 10
-20.9755
 20
24.9506
 30
0.0
 10
-20.9454
 20
24.371
 30
0.0
 10
-20.9454
 20
24.371
 30
0.0
  0
SPLINE
  5
A3
330
1F
100
AcDbEntity
  8
DEFAULT_1
 62
   250
100
AcDbSpline
210
0.0
220
0.0
230
1.0
 70
     8
 71
     3
 72
    16
 73
    12
 74
     0
 42
0.0000000001
 43
0.0000000001
 40
0.0
 40
0.0
 40
0.0
 40
0.0
 40
0.25
 40
0.25
 40
0.25
 40
0.25
 40
0.5
 40
0.5
 40
0.5
 40
0.5
 40
1.0
 40
1.0
 40
1.0
 40
1.0
 10
-34.2925
 20
18.5492
 30
0.0
 10
-34.2925
 20
18.5492
 30
0.0
 10
-34.2925
 20
20.1495
 30
0.0
 10
-34.2925
 20
20.1495
 30
0.0
 10
-34.2925
 20
20.1495
 30
0.0
 10
-34.2925
 20
20.1495
 30
0.0
 10
-34.9615
 20
20.8234
 30
0.0
 10
-34.9615
 20
20.8234
 30
0.0
 10
-34.9615
 20
20.8234
 30
0.0
 10
-34.9615
 20
20.8234
 30
0.0
 10
-34.9615
 20
23.145
 30
0.0
 10
-34.9615
 20
23.145
 30
0.0
  0
SPLINE
  5
A4
330
1F
100
AcDbEntity
  8
DEFAULT_1
 62
   250
100
AcDbSpline
210
0.0
220
0.0
230
1.0
 70
    11
 71
     3
 72
    20
 73
    16
 74
     0
 42
0.0000000001
 43
0.0000000001
 40
0.0
 40
0.0
 40
0.0
 40
0.0
 40
0.2
 40
0.2
 40
0.2
 40
0.2
 40
0.4
 40
0.4
 40
0.4
 40
0.4
 40
0.6
 40
0.6
 40
0.6
 40
0.6
 40
1.0
 40
1.0
 40
1.0
 40
1.0
 10
-37.37
 20
24.4906
 30
0.0
 10
-37.37
 20
24.4906
 30
0.0
 10
-20.623
 20
24.4906
 30
0.0
 10
-20.623
 20
24.4906
 30
0.0
 10
-20.623
 20
24.4906
 30
0.0
 10
-20.623
 20
24.4906
 30
0.0
 10
-20.623
 20
23.088
 30
0.0
 10
-20.623
 20
23.088
 30
0.0
 10
-20.623
 20
23.088
 30
0.0
 10
-20.623
 20
23.088
 30
0.0
 10
-37.37
 20
23.088
 30
0.0
 10
-37.37
 20
23.088
 30
0.0
 10
-37.37
 20
23.088
 30
0.0
 10
-37.37
 20
23.088
 30
0.0
 10
-37.37
 20
24.4906
 30
0.0
 10
-37.37
 20
24.4906
 30
0.0
  0
SPLINE
  5
A5
330
1F
100
AcDbEntity
  8
DEFAULT_1
 62
   250
100
AcDbSpline
210
0.0
220
0.0
230
1.0
 70
     8
 71
     3
 72
    16
 73
    12
 74
     0
 42
0.0000000001
 43
0.0000000001
 40
0.0
 40
0.0
 40
0.0
 40
0.0
 40
0.25
 40
0.25
 40
0.25
 40
0.25
 40
0.5
 40
0.5
 40
0.5
 40
0.5
 40
1.0
 40
1.0
 40
1.0
 40
1.0
 10
-23.649
 20
18.5733
 30
0.0
 10
-23.649
 20
18.5733
 30
0.0
 10
-23.649
 20
20.1736
 30
0.0
 10
-23.649
 20
20.1736
 30
0.0
 10
-23.649
 20
20.1736
 30
0.0
 10
-23.649
 20
20.1736
 30
0.0
 10
-22.9906
 20
20.8474
 30
0.0
 10
-22.9906
 20
20.8474
 30
0.0
 10
-22.9906
 20
20.8474
 30
0.0
 10
-22.9906
 20
20.8474
 30
0.0
 10
-22.9906
 20
23.1691
 30
0.0
 10
-22.9906
 20
23.1691
 30
0.0
  0
SPLINE
  5
A6
330
1F
100
AcDbEntity
  8
DEFAULT_1
 62
   250
100
AcDbSpline
210
0.0
220
0.0
230
1.0
 70
    24
 71
     3
 72
     8
 73
     4
 74
     0
 42
0.0000000001
 43
0.0000000001
 40
0.0
 40
0.0
 40
0.0
 40
0.0
 40
1.0
 40
1.0
 40
1.0
 40
1.0
 10
-34.2134
 20
19.3964
 30
0.0
 10
-34.2134
 20
19.3964
 30
0.0
 10
-23.6423
 20
19.8077
 30
0.0
 10
-23.6423
 20
19.8077
 30
0.0
  0
SPLINE
  5
A7
330
1F
100
AcDbEntity
  8
DEFAULT_1
 62
   250
100
AcDbSpline
210
0.0
220
0.0
230
1.0
 70
    24
 71
     3
 72
     8
 73
     4
 74
     0
 42
0.0000000001
 43
0.0000000001
 40
0.0
 40
0.0
 40
0.0
 40
0.0
 40
1.0
 40
1.0
 40
1.0
 40
1.0
 10
-34.2616
 20
18.7676
 30
0.0
 10
-34.2616
 20
18.7676
 30
0.0
 10
-23.6905
 20
19.1789
 30
0.0
 10
-23.6905
 20
19.1789
 30
0.0
  0
SPLINE
  5
A8
330
1F
100
AcDbEntity
  8
DEFAULT_1
 62
   250
100
AcDbSpline
210
0.0
220
0.0
230
1.0
 70
    27
 71
     3
 72
    12
 73
     8
 74
     0
 42
0.0000000001
 43
0.0000000001
 40
0.0
 40
0.0
 40
0.0
 40
0.0
 40
0.3333333333333333
 40
0.3333333333333333
 40
0.3333333333333333
 40
0.3333333333333333
 40
1.0
 40
1.0
 40
1.0
 40
1.0
 10
-23.6619
 20
20.1502
 30
0.0
 10
-23.6619
 20
20.1502
 30
0.0
 10
-34.2928
 20
20.1502
 30
0.0
 10
-34.2928
 20
20.1502
 30
0.0
 10
-34.2928
 20
20.1502
 30
0.0
 10
-34.2928
 20
20.1502
 30
0.0
 10
-23.6619
 20
20.1502
 30
0.0
 10
-23.6619
 20
20.1502
 30
0.0
  0
SPLINE
  5
A9
330
1F
100
AcDbEntity
  8
DEFAULT_1
 62
   250
100
AcDbSpline
210
0.0
220
0.0
230
1.0
 70
    11
 71
     3
 72
    20
 73
    16
 74
     0
 42
0.0000000001
 43
0.0000000001
 40
0.0
 40
0.0
 40
0.0
 40
0.0
 40
0.2
 40
0.2
 40
0.2
 40
0.2
 40
0.4
 40
0.4
 40
0.4
 40
0.4
 40
0.6
 40
0.6
 40
0.6
 40
0.6
 40
1.0
 40
1.0
 40
1.0
 40
1.0
 10
-20.9793
 20
27.7297
 30
0.0
 10
-20.9793
 20
27.7297
 30
0.0
 10
-20.9793
 20
27.1686
 30
0.0
 10
-20.9793
 20
27.1686
 30
0.0
 10
-20.9793
 20
27.1686
 30
0.0
 10
-20.9793
 20
27.1686
 30
0.0
 10
-36.9883
 20
27.1686
 30
0.0
 10
-36.9883
 20
27.1686
 30
0.0
 10
-36.9883
 20
27.1686
 30
0.0
 10
-36.9883
 20
27.1686
 30
0.0
 10
-36.9883
 20
27.7297
 30
0.0
 10
-36.9883
 20
27.7297
 30
0.0
 10
-36.9883
 20
27.7297
 30
0.0
 10
-36.9883
 20
27.7297
 30
0.0
 10
-20.9793
 20
27.7297
 30
0.0
 10
-20.9793
 20
27.7297
 30
0.0
  0
SPLINE
  5
AA
330
1F
100
AcDbEntity
  8
DEFAULT_1
 62
   250
100
AcDbSpline
210
0.0
220
0.0
230
1.0
 70
    11
 71
     3
 72
    24
 73
    20
 74
     0
 42
0.0000000001
 43
0.0000000001
 40
0.0
 40
0.0
 40
0.0
 40
0.0
 40
0.1666666666666667
 40
0.1666666666666667
 40
0.1666666666666667
 40
0.1666666666666667
 40
0.3333333333333333
 40
0.3333333333333333
 40
0.3333333333333333
 40
0.3333333333333333
 40
0.5
 40
0.5
 40
0.5
 40
0.5
 40
0.6666666666666666
 40
0.6666666666666666
 40
0.6666666666666666
 40
0.6666666666666666
 40
1.0
 40
1.0
 40
1.0
 40
1.0
 10
-36.9633
 20
30.3118
 30
0.0
 10
-36.9633
 20
30.3118
 30
0.0
 10
-21.0722
 20
30.3118
 30
0.0
 10
-21.0722
 20
30.3118
 30
0.0
 10
-21.0722
 20
30.3118
 30
0.0
 10
-21.0722
 20
30.3118
 30
0.0
 10
-21.0722
 20
30.0025
 30
0.0
 10
-21.0722
 20
30.0025
 30
0.0
 10
-21.0722
 20
30.0025
 30
0.0
 10
-21.0722
 20
30.0025
 30
0.0
 10
-34.2854
 20
30.0025
 30
0.0
 10
-34.2854
 20
30.0025
 30
0.0
 10
-34.2854
 20
30.0025
 30
0.0
 10
-34.2854
 20
30.0025
 30
0.0
 10
-36.9633
 20
30.0025
 30
0.0
 10
-36.9633
 20
30.0025
 30
0.0
 10
-36.9633
 20
30.0025
 30
0.0
 10
-36.9633
 20
30.0025
 30
0.0
 10
-36.9633
 20
30.3118
 30
0.0
 10
-36.9633
 20
30.3118
 30
0.0
  0
SPLINE
  5
AB
330
1F
100
AcDbEntity
  8
DEFAULT_1
 62
   250
100
AcDbSpline
210
0.0
220
0.0
230
1.0
 70
     8
 71
     3
 72
    16
 73
    12
 74
     0
 42
0.0000000001
 43
0.0000000001
 40
0.0
 40
0.0
 40
0.0
 40
0.0
 40
0.25
 40
0.25
 40
0.25
 40
0.25
 40
0.5
 40
0.5
 40
0.5
 40
0.5
 40
1.0
 40
1.0
 40
1.0
 40
1.0
 10
-30.3964
 20
27.1224
 30
0.0
 10
-30.3964
 20
27.1224
 30
0.0
 10
-29.8583
 20
26.5843
 30
0.0
 10
-29.8583
 20
26.5843
 30
0.0
 10
-29.8583
 20
26.5843
 30
0.0
 10
-29.8583
 20
26.5843
 30
0.0
 10
-28.0514
 20
26.5701
 30
0.0
 10
-28.0514
 20
26.5701
 30
0.0
 10
-28.0514
 20
26.5701
 30
0.0
 10
-28.0514
 20
26.5701
 30
0.0
 10
-27.5115
 20
27.2114
 30
0.0
 10
-27.5115
 20
27.2114
 30
0.0
  0
SPLINE
  5
AC
330
1F
100
AcDbEntity
  8
DEFAULT_1
 62
   250
100
AcDbSpline
210
0.0
220
0.0
230
1.0
 70
    11
 71
     3
 72
    16
 73
    12
 74
     0
 42
0.0000000001
 43
0.0000000001
 40
0.0
 40
0.0
 40
0.0
 40
0.0
 40
0.25
 40
0.25
 40
0.25
 40
0.25
 40
0.5
 40
0.5
 40
0.5
 40
0.5
 40
1.0
 40
1.0
 40
1.0
 40
1.0
 10
-33.7843
 20
27.6944
 30
0.0
 10
-33.7843
 20
27.6944
 30
0.0
 10
-34.2854
 20
30.0025
 30
0.0
 10
-34.2854
 20
30.0025
 30
0.0
 10
-34.2854
 20
30.0025
 30
0.0
 10
-34.2854
 20
30.0025
 30
0.0
 10
-34.3168
 20
30.1469
 30
0.0
 10
-34.3168
 20
30.1469
 30
0.0
 10
-34.3168
 20
30.1469
 30
0.0
 10
-34.3168
 20
30.1469
 30
0.0
 10
-33.7843
 20
27.6944
 30
0.0
 10
-33.7843
 20
27.6944
 30
0.0
  0
SPLINE
  5
AD
330
1F
100
AcDbEntity
  8
DEFAULT_1
 62
   250
100
AcDbSpline
210
0.0
220
0.0
230
1.0
 70
    27
 71
     3
 72
    12
 73
     8
 74
     0
 42
0.0000000001
 43
0.0000000001
 40
0.0
 40
0.0
 40
0.0
 40
0.0
 40
0.3333333333333333
 40
0.3333333333333333
 40
0.3333333333333333
 40
0.3333333333333333
 40
1.0
 40
1.0
 40
1.0
 40
1.0
 10
-24.1711
 20
27.6944
 30
0.0
 10
-24.1711
 20
27.6944
 30
0.0
 10
-23.6729
 20
29.9818
 30
0.0
 10
-23.6729
 20
29.9818
 30
0.0
 10
-23.6729
 20
29.9818
 30
0.0
 10
-23.6729
 20
29.9818
 30
0.0
 10
-24.1711
 20
27.6944
 30
0.0
 10
-24.1711
 20
27.6944
 30
0.0
  0
SPLINE
  5
AE
330
1F
100
AcDbEntity
  8
DEFAULT_1
 62
   250
100
AcDbSpline
210
0.0
220
0.0
230
1.0
 70
    11
 71
     3
 72
    16
 73
    12
 74
     0
 42
0.0000000001
 43
0.0000000001
 40
0.0
 40
0.0
 40
0.0
 40
0.0
 40
0.25
 40
0.25
 40
0.25
 40
0.25
 40
0.5
 40
0.5
 40
0.5
 40
0.5
 40
1.0
 40
1.0
 40
1.0
 40
1.0
 10
-29.691
 20
25.9655
 30
0.0
 10
-29.691
 20
25.9655
 30
0.0
 10
-29.6627
 20
25.9704
 30
0.0
 10
-29.6627
 20
25.9704
 30
0.0
 10
-29.6627
 20
25.9704
 30
0.0
 10
-29.6627
 20
25.9704
 30
0.0
 10
-28.3629
 20
26.1993
 30
0.0
 10
-28.3629
 20
26.1993
 30
0.0
 10
-28.3629
 20
26.1993
 30
0.0
 10
-28.3629
 20
26.1993
 30
0.0
 10
-29.691
 20
25.9655
 30
0.0
 10
-29.691
 20
25.9655
 30
0.0
  0
SPLINE
  5
AF
330
1F
100
AcDbEntity
  8
DEFAULT_1
 62
   250
100
AcDbSpline
210
0.0
220
0.0
230
1.0
 70
    11
 71
     3
 72
    16
 73
    12
 74
     0
 42
0.0000000001
 43
0.0000000001
 40
0.0
 40
0.0
 40
0.0
 40
0.0
 40
0.25
 40
0.25
 40
0.25
 40
0.25
 40
0.5
 40
0.5
 40
0.5
 40
0.5
 40
1.0
 40
1.0
 40
1.0
 40
1.0
 10
-29.5653
 20
25.3002
 30
0.0
 10
-29.5653
 20
25.3002
 30
0.0
 10
-28.2909
 20
25.5246
 30
0.0
 10
-28.2909
 20
25.5246
 30
0.0
 10
-28.2909
 20
25.5246
 30
0.0
 10
-28.2909
 20
25.5246
 30
0.0
 10
-28.2372
 20
25.5339
 30
0.0
 10
-28.2372
 20
25.5339
 30
0.0
 10
-28.2372
 20
25.5339
 30
0.0
 10
-28.2372
 20
25.5339
 30
0.0
 10
-29.5653
 20
25.3002
 30
0.0
 10
-29.5653
 20
25.3002
 30
0.0
  0
SPLINE
  5
B0
330
1F
100
AcDbEntity
  8
DEFAULT_1
 62
   250
100
AcDbSpline
210
0.0
220
0.0
230
1.0
 70
    27
 71
     3
 72
    28
 73
    24
 74
     0
 42
0.0000000001
 43
0.0000000001
 40
0.0
 40
0.0
 40
0.0
 40
0.0
 40
0.1428571428571428
 40
0.1428571428571428
 40
0.1428571428571428
 40
0.1428571428571428
 40
0.2857142857142857
 40
0.2857142857142857
 40
0.2857142857142857
 40
0.2857142857142857
 40
0.4285714285714285
 40
0.4285714285714285
 40
0.4285714285714285
 40
0.4285714285714285
 40
0.5714285714285714
 40
0.5714285714285714
 40
0.5714285714285714
 40
0.5714285714285714
 40
0.7142857142857143
 40
0.7142857142857143
 40
0.7142857142857143
 40
0.7142857142857143
 40
1.0
 40
1.0
 40
1.0
 40
1.0
 10
-28.2909
 20
24.9503
 30
0.0
 10
-28.2909
 20
24.9503
 30
0.0
 10
-28.2909
 20
25.5226
 30
0.0
 10
-28.2909
 20
25.5226
 30
0.0
 10
-28.2909
 20
25.5226
 30
0.0
 10
-28.2909
 20
25.5226
 30
0.0
 10
-28.2909
 20
25.5246
 30
0.0
 10
-28.2909
 20
25.5246
 30
0.0
 10
-28.2909
 20
25.5246
 30
0.0
 10
-28.2909
 20
25.5246
 30
0.0
 10
-28.2909
 20
26.5843
 30
0.0
 10
-28.2909
 20
26.5843
 30
0.0
 10
-28.2909
 20
26.5843
 30
0.0
 10
-28.2909
 20
26.5843
 30
0.0
 10
-28.2909
 20
25.5246
 30
0.0
 10
-28.2909
 20
25.5246
 30
0.0
 10
-28.2909
 20
25.5246
 30
0.0
 10
-28.2909
 20
25.5246
 30
0.0
 10
-28.2909
 20
25.5226
 30
0.0
 10
-28.2909
 20
25.5226
 30
0.0
 10
-28.2909
 20
25.5226
 30
0.0
 10
-28.2909
 20
25.5226
 30
0.0
 10
-28.2909
 20
24.9503
 30
0.0
 10
-28.2909
 20
24.9503
 30
0.0
  0
SPLINE
  5
B1
330
1F
100
AcDbEntity
  8
DEFAULT_1
 62
   250
100
AcDbSpline
210
0.0
220
0.0
230
1.0
 70
    27
 71
     3
 72
    28
 73
    24
 74
     0
 42
0.0000000001
 43
0.0000000001
 40
0.0
 40
0.0
 40
0.0
 40
0.0
 40
0.1428571428571428
 40
0.1428571428571428
 40
0.1428571428571428
 40
0.1428571428571428
 40
0.2857142857142857
 40
0.2857142857142857
 40
0.2857142857142857
 40
0.2857142857142857
 40
0.4285714285714285
 40
0.4285714285714285
 40
0.4285714285714285
 40
0.4285714285714285
 40
0.5714285714285714
 40
0.5714285714285714
 40
0.5714285714285714
 40
0.5714285714285714
 40
0.7142857142857143
 40
0.7142857142857143
 40
0.7142857142857143
 40
0.7142857142857143
 40
1.0
 40
1.0
 40
1.0
 40
1.0
 10
-29.6627
 20
24.9503
 30
0.0
 10
-29.6627
 20
24.9503
 30
0.0
 10
-29.6627
 20
25.9655
 30
0.0
 10
-29.6627
 20
25.9655
 30
0.0
 10
-29.6627
 20
25.9655
 30
0.0
 10
-29.6627
 20
25.9655
 30
0.0
 10
-29.6627
 20
25.9704
 30
0.0
 10
-29.6627
 20
25.9704
 30
0.0
 10
-29.6627
 20
25.9704
 30
0.0
 10
-29.6627
 20
25.9704
 30
0.0
 10
-29.6627
 20
26.5843
 30
0.0
 10
-29.6627
 20
26.5843
 30
0.0
 10
-29.6627
 20
26.5843
 30
0.0
 10
-29.6627
 20
26.5843
 30
0.0
 10
-29.6627
 20
25.9704
 30
0.0
 10
-29.6627
 20
25.9704
 30
0.0
 10
-29.6627
 20
25.9704
 30
0.0
 10
-29.6627
 20
25.9704
 30
0.0
 10
-29.6627
 20
25.9655
 30
0.0
 10
-29.6627
 20
25.9655
 30
0.0
 10
-29.6627
 20
25.9655
 30
0.0
 10
-29.6627
 20
25.9655
 30
0.0
 10
-29.6627
 20
24.9503
 30
0.0
 10
-29.6627
 20
24.9503
 30
0.0
  0
SPLINE
  5
B2
330
1F
100
AcDbEntity
  8
DEFAULT_1
 62
   250
100
AcDbSpline
210
0.0
220
0.0
230
1.0
 70
     8
 71
     3
 72
    12
 73
     8
 74
     0
 42
0.0000000001
 43
0.0000000001
 40
0.0
 40
0.0
 40
0.0
 40
0.0
 40
0.3333333333333333
 40
0.3333333333333333
 40
0.3333333333333333
 40
0.3333333333333333
 40
1.0
 40
1.0
 40
1.0
 40
1.0
 10
-29.691
 20
25.9655
 30
0.0
 10
-29.691
 20
25.9655
 30
0.0
 10
-29.6627
 20
25.9704
 30
0.0
 10
-29.6627
 20
25.9704
 30
0.0
 10
-29.6627
 20
25.9704
 30
0.0
 10
-29.6627
 20
25.9704
 30
0.0
 10
-28.3629
 20
26.1993
 30
0.0
 10
-28.3629
 20
26.1993
 30
0.0
  0
SPLINE
  5
B3
330
1F
100
AcDbEntity
  8
DEFAULT_1
 62
   250
100
AcDbSpline
210
0.0
220
0.0
230
1.0
 70
     8
 71
     3
 72
    12
 73
     8
 74
     0
 42
0.0000000001
 43
0.0000000001
 40
0.0
 40
0.0
 40
0.0
 40
0.0
 40
0.3333333333333333
 40
0.3333333333333333
 40
0.3333333333333333
 40
0.3333333333333333
 40
1.0
 40
1.0
 40
1.0
 40
1.0
 10
-29.5653
 20
25.3002
 30
0.0
 10
-29.5653
 20
25.3002
 30
0.0
 10
-28.2909
 20
25.5246
 30
0.0
 10
-28.2909
 20
25.5246
 30
0.0
 10
-28.2909
 20
25.5246
 30
0.0
 10
-28.2909
 20
25.5246
 30
0.0
 10
-28.2372
 20
25.5339
 30
0.0
 10
-28.2372
 20
25.5339
 30
0.0
  0
SPLINE
  5
B4
330
1F
100
AcDbEntity
  8
DEFAULT_1
 62
   250
100
AcDbSpline
210
0.0
220
0.0
230
1.0
 70
    27
 71
     3
 72
    28
 73
    24
 74
     0
 42
0.0000000001
 43
0.0000000001
 40
0.0
 40
0.0
 40
0.0
 40
0.0
 40
0.1428571428571428
 40
0.1428571428571428
 40
0.1428571428571428
 40
0.1428571428571428
 40
0.2857142857142857
 40
0.2857142857142857
 40
0.2857142857142857
 40
0.2857142857142857
 40
0.4285714285714285
 40
0.4285714285714285
 40
0.4285714285714285
 40
0.4285714285714285
 40
0.5714285714285714
 40
0.5714285714285714
 40
0.5714285714285714
 40
0.5714285714285714
 40
0.7142857142857143
 40
0.7142857142857143
 40
0.7142857142857143
 40
0.7142857142857143
 40
1.0
 40
1.0
 40
1.0
 40
1.0
 10
-28.2909
 20
24.9503
 30
0.0
 10
-28.2909
 20
24.9503
 30
0.0
 10
-28.2909
 20
25.5226
 30
0.0
 10
-28.2909
 20
25.5226
 30
0.0
 10
-28.2909
 20
25.5226
 30
0.0
 10
-28.2909
 20
25.5226
 30
0.0
 10
-28.2909
 20
25.5246
 30
0.0
 10
-28.2909
 20
25.5246
 30
0.0
 10
-28.2909
 20
25.5246
 30
0.0
 10
-28.2909
 20
25.5246
 30
0.0
 10
-28.2909
 20
26.5843
 30
0.0
 10
-28.2909
 20
26.5843
 30
0.0
 10
-28.2909
 20
26.5843
 30
0.0
 10
-28.2909
 20
26.5843
 30
0.0
 10
-28.2909
 20
25.5246
 30
0.0
 10
-28.2909
 20
25.5246
 30
0.0
 10
-28.2909
 20
25.5246
 30
0.0
 10
-28.2909
 20
25.5246
 30
0.0
 10
-28.2909
 20
25.5226
 30
0.0
 10
-28.2909
 20
25.5226
 30
0.0
 10
-28.2909
 20
25.5226
 30
0.0
 10
-28.2909
 20
25.5226
 30
0.0
 10
-28.2909
 20
24.9503
 30
0.0
 10
-28.2909
 20
24.9503
 30
0.0
  0
SPLINE
  5
B5
330
1F
100
AcDbEntity
  8
DEFAULT_1
 62
   250
100
AcDbSpline
210
0.0
220
0.0
230
1.0
 70
    27
 71
     3
 72
    28
 73
    24
 74
     0
 42
0.0000000001
 43
0.0000000001
 40
0.0
 40
0.0
 40
0.0
 40
0.0
 40
0.1428571428571428
 40
0.1428571428571428
 40
0.1428571428571428
 40
0.1428571428571428
 40
0.2857142857142857
 40
0.2857142857142857
 40
0.2857142857142857
 40
0.2857142857142857
 40
0.4285714285714285
 40
0.4285714285714285
 40
0.4285714285714285
 40
0.4285714285714285
 40
0.5714285714285714
 40
0.5714285714285714
 40
0.5714285714285714
 40
0.5714285714285714
 40
0.7142857142857143
 40
0.7142857142857143
 40
0.7142857142857143
 40
0.7142857142857143
 40
1.0
 40
1.0
 40
1.0
 40
1.0
 10
-29.6627
 20
24.9503
 30
0.0
 10
-29.6627
 20
24.9503
 30
0.0
 10
-29.6627
 20
25.9655
 30
0.0
 10
-29.6627
 20
25.9655
 30
0.0
 10
-29.6627
 20
25.9655
 30
0.0
 10
-29.6627
 20
25.9655
 30
0.0
 10
-29.6627
 20
25.9704
 30
0.0
 10
-29.6627
 20
25.9704
 30
0.0
 10
-29.6627
 20
25.9704
 30
0.0
 10
-29.6627
 20
25.9704
 30
0.0
 10
-29.6627
 20
26.5843
 30
0.0
 10
-29.6627
 20
26.5843
 30
0.0
 10
-29.6627
 20
26.5843
 30
0.0
 10
-29.6627
 20
26.5843
 30
0.0
 10
-29.6627
 20
25.9704
 30
0.0
 10
-29.6627
 20
25.9704
 30
0.0
 10
-29.6627
 20
25.9704
 30
0.0
 10
-29.6627
 20
25.9704
 30
0.0
 10
-29.6627
 20
25.9655
 30
0.0
 10
-29.6627
 20
25.9655
 30
0.0
 10
-29.6627
 20
25.9655
 30
0.0
 10
-29.6627
 20
25.9655
 30
0.0
 10
-29.6627
 20
24.9503
 30
0.0
 10
-29.6627
 20
24.9503
 30
0.0
  0
SPLINE
  5
B6
330
1F
100
AcDbEntity
  8
DEFAULT_1
 62
   250
100
AcDbSpline
210
0.0
220
0.0
230
1.0
 70
    24
 71
     3
 72
     8
 73
     4
 74
     0
 42
0.0000000001
 43
0.0000000001
 40
0.0
 40
0.0
 40
0.0
 40
0.0
 40
1.0
 40
1.0
 40
1.0
 40
1.0
 10
-37.7838
 20
29.9896
 30
0.0
 10
-37.7838
 20
29.9896
 30
0.0
 10
-44.6458
 20
29.9896
 30
0.0
 10
-44.6458
 20
29.9896
 30
0.0
  0
SPLINE
  5
B7
330
1F
100
AcDbEntity
  8
DEFAULT_1
 62
   250
100
AcDbSpline
210
0.0
220
0.0
230
1.0
 70
    11
 71
     3
 72
   116
 73
   112
 74
     0
 42
0.0000000001
 43
0.0000000001
 40
0.0
 40
0.0
 40
0.0
 40
0.0
 40
0.0344827586206897
 40
0.0344827586206897
 40
0.0344827586206897
 40
0.0344827586206897
 40
0.0689655172413793
 40
0.0689655172413793
 40
0.0689655172413793
 40
0.0689655172413793
 40
0.103448275862069
 40
0.103448275862069
 40
0.103448275862069
 40
0.103448275862069
 40
0.1379310344827586
 40
0.1379310344827586
 40
0.1379310344827586
 40
0.1379310344827586
 40
0.1724137931034483
 40
0.1724137931034483
 40
0.1724137931034483
 40
0.1724137931034483
 40
0.2068965517241379
 40
0.2068965517241379
 40
0.2068965517241379
 40
0.2068965517241379
 40
0.2413793103448276
 40
0.2413793103448276
 40
0.2413793103448276
 40
0.2413793103448276
 40
0.2758620689655172
 40
0.2758620689655172
 40
0.2758620689655172
 40
0.2758620689655172
 40
0.3103448275862069
 40
0.3103448275862069
 40
0.3103448275862069
 40
0.3103448275862069
 40
0.3448275862068966
 40
0.3448275862068966
 40
0.3448275862068966
 40
0.3448275862068966
 40
0.3793103448275862
 40
0.3793103448275862
 40
0.3793103448275862
 40
0.3793103448275862
 40
0.4137931034482759
 40
0.4137931034482759
 40
0.4137931034482759
 40
0.4137931034482759
 40
0.4482758620689655
 40
0.4482758620689655
 40
0.4482758620689655
 40
0.4482758620689655
 40
0.4827586206896552
 40
0.4827586206896552
 40
0.4827586206896552
 40
0.4827586206896552
 40
0.5172413793103449
 40
0.5172413793103449
 40
0.5172413793103449
 40
0.5172413793103449
 40
0.5517241379310345
 40
0.5517241379310345
 40
0.5517241379310345
 40
0.5517241379310345
 40
0.5862068965517241
 40
0.5862068965517241
 40
0.5862068965517241
 40
0.5862068965517241
 40
0.6206896551724138
 40
0.6206896551724138
 40
0.6206896551724138
 40
0.6206896551724138
 40
0.6551724137931034
 40
0.6551724137931034
 40
0.6551724137931034
 40
0.6551724137931034
 40
0.6896551724137931
 40
0.6896551724137931
 40
0.6896551724137931
 40
0.6896551724137931
 40
0.7241379310344828
 40
0.7241379310344828
 40
0.7241379310344828
 40
0.7241379310344828
 40
0.7586206896551724
 40
0.7586206896551724
 40
0.7586206896551724
 40
0.7586206896551724
 40
0.7931034482758621
 40
0.7931034482758621
 40
0.7931034482758621
 40
0.7931034482758621
 40
0.8275862068965517
 40
0.8275862068965517
 40
0.8275862068965517
 40
0.8275862068965517
 40
0.8620689655172413
 40
0.8620689655172413
 40
0.8620689655172413
 40
0.8620689655172413
 40
0.896551724137931
 40
0.896551724137931
 40
0.896551724137931
 40
0.896551724137931
 40
0.9310344827586207
 40
0.9310344827586207
 40
0.9310344827586207
 40
0.9310344827586207
 40
1.0
 40
1.0
 40
1.0
 40
1.0
 10
-45.0934
 20
25.9555
 30
0.0
 10
-45.0934
 20
25.9555
 30
0.0
 10
-46.5567
 20
25.9555
 30
0.0
 10
-46.5567
 20
25.9555
 30
0.0
 10
-46.5567
 20
25.9555
 30
0.0
 10
-46.5567
 20
25.9555
 30
0.0
 10
-46.5567
 20
26.177
 30
0.0
 10
-46.5567
 20
26.177
 30
0.0
 10
-46.5567
 20
26.177
 30
0.0
 10
-46.5567
 20
26.177
 30
0.0
 10
-46.3516
 20
26.177
 30
0.0
 10
-46.3516
 20
26.177
 30
0.0
 10
-46.3516
 20
26.177
 30
0.0
 10
-46.4231
 20
26.2231
 30
0.0
 10
-46.481
 20
26.2843
 30
0.0
 10
-46.5243
 20
26.3605
 30
0.0
 10
-46.5243
 20
26.3605
 30
0.0
 10
-46.568
 20
26.4367
 30
0.0
 10
-46.5901
 20
26.5237
 30
0.0
 10
-46.5901
 20
26.621
 30
0.0
 10
-46.5901
 20
26.621
 30
0.0
 10
-46.5901
 20
26.7292
 30
0.0
 10
-46.5675
 20
26.8181
 30
0.0
 10
-46.5224
 20
26.8873
 30
0.0
 10
-46.5224
 20
26.8873
 30
0.0
 10
-46.4772
 20
26.9569
 30
0.0
 10
-46.4147
 20
27.0058
 30
0.0
 10
-46.3338
 20
27.034
 30
0.0
 10
-46.3338
 20
27.034
 30
0.0
 10
-46.5045
 20
27.1502
 30
0.0
 10
-46.5901
 20
27.3007
 30
0.0
 10
-46.5901
 20
27.486
 30
0.0
 10
-46.5901
 20
27.486
 30
0.0
 10
-46.5901
 20
27.6314
 30
0.0
 10
-46.5497
 20
27.7429
 30
0.0
 10
-46.4692
 20
27.8209
 30
0.0
 10
-46.4692
 20
27.8209
 30
0.0
 10
-46.3888
 20
27.899
 30
0.0
 10
-46.2651
 20
27.9381
 30
0.0
 10
-46.0981
 20
27.9381
 30
0.0
 10
-46.0981
 20
27.9381
 30
0.0
 10
-46.0981
 20
27.9381
 30
0.0
 10
-45.0934
 20
27.9381
 30
0.0
 10
-45.0934
 20
27.9381
 30
0.0
 10
-45.0934
 20
27.9381
 30
0.0
 10
-45.0934
 20
27.9381
 30
0.0
 10
-45.0934
 20
27.6916
 30
0.0
 10
-45.0934
 20
27.6916
 30
0.0
 10
-45.0934
 20
27.6916
 30
0.0
 10
-45.0934
 20
27.6916
 30
0.0
 10
-46.0153
 20
27.6916
 30
0.0
 10
-46.0153
 20
27.6916
 30
0.0
 10
-46.0153
 20
27.6916
 30
0.0
 10
-46.1146
 20
27.6916
 30
0.0
 10
-46.1861
 20
27.6836
 30
0.0
 10
-46.2298
 20
27.6676
 30
0.0
 10
-46.2298
 20
27.6676
 30
0.0
 10
-46.2731
 20
27.6511
 30
0.0
 10
-46.3084
 20
27.622
 30
0.0
 10
-46.3352
 20
27.5801
 30
0.0
 10
-46.3352
 20
27.5801
 30
0.0
 10
-46.3615
 20
27.5378
 30
0.0
 10
-46.3751
 20
27.4879
 30
0.0
 10
-46.3751
 20
27.431
 30
0.0
 10
-46.3751
 20
27.431
 30
0.0
 10
-46.3751
 20
27.328
 30
0.0
 10
-46.3408
 20
27.2429
 30
0.0
 10
-46.2721
 20
27.1747
 30
0.0
 10
-46.2721
 20
27.1747
 30
0.0
 10
-46.2039
 20
27.1069
 30
0.0
 10
-46.0943
 20
27.0726
 30
0.0
 10
-45.9438
 20
27.0726
 30
0.0
 10
-45.9438
 20
27.0726
 30
0.0
 10
-45.9438
 20
27.0726
 30
0.0
 10
-45.0934
 20
27.0726
 30
0.0
 10
-45.0934
 20
27.0726
 30
0.0
 10
-45.0934
 20
27.0726
 30
0.0
 10
-45.0934
 20
27.0726
 30
0.0
 10
-45.0934
 20
26.8247
 30
0.0
 10
-45.0934
 20
26.8247
 30
0.0
 10
-45.0934
 20
26.8247
 30
0.0
 10
-45.0934
 20
26.8247
 30
0.0
 10
-46.044
 20
26.8247
 30
0.0
 10
-46.044
 20
26.8247
 30
0.0
 10
-46.044
 20
26.8247
 30
0.0
 10
-46.1545
 20
26.8247
 30
0.0
 10
-46.2373
 20
26.8045
 30
0.0
 10
-46.2924
 20
26.764
 30
0.0
 10
-46.2924
 20
26.764
 30
0.0
 10
-46.3474
 20
26.7236
 30
0.0
 10
-46.3751
 20
26.6577
 30
0.0
 10
-46.3751
 20
26.5655
 30
0.0
 10
-46.3751
 20
26.5655
 30
0.0
 10
-46.3751
 20
26.4959
 30
0.0
 10
-46.3568
 20
26.4315
 30
0.0
 10
-46.3196
 20
26.3722
 30
0.0
 10
-46.3196
 20
26.3722
 30
0.0
 10
-46.283
 20
26.3129
 30
0.0
 10
-46.2293
 20
26.2697
 30
0.0
 10
-46.1588
 20
26.2433
 30
0.0
 10
-46.1588
 20
26.2433
 30
0.0
 10
-46.0878
 20
26.2165
 30
0.0
 10
-45.9857
 20
26.2033
 30
0.0
 10
-45.8526
 20
26.2033
 30
0.0
 10
-45.8526
 20
26.2033
 30
0.0
 10
-45.8526
 20
26.2033
 30
0.0
 10
-45.0934
 20
26.2033
 30
0.0
 10
-45.0934
 20
26.2033
 30
0.0
 10
-45.0934
 20
26.2033
 30
0.0
 10
-45.0934
 20
26.2033
 30
0.0
 10
-45.0934
 20
25.9555
 30
0.0
 10
-45.0934
 20
25.9555
 30
0.0
  0
SPLINE
  5
B8
330
1F
100
AcDbEntity
  8
DEFAULT_1
 62
   250
100
AcDbSpline
210
0.0
220
0.0
230
1.0
 70
    11
 71
     3
 72
   112
 73
   108
 74
     0
 42
0.0000000001
 43
0.0000000001
 40
0.0
 40
0.0
 40
0.0
 40
0.0
 40
0.0357142857142857
 40
0.0357142857142857
 40
0.0357142857142857
 40
0.0357142857142857
 40
0.0714285714285714
 40
0.0714285714285714
 40
0.0714285714285714
 40
0.0714285714285714
 40
0.1071428571428571
 40
0.1071428571428571
 40
0.1071428571428571
 40
0.1071428571428571
 40
0.1428571428571428
 40
0.1428571428571428
 40
0.1428571428571428
 40
0.1428571428571428
 40
0.1785714285714286
 40
0.1785714285714286
 40
0.1785714285714286
 40
0.1785714285714286
 40
0.2142857142857143
 40
0.2142857142857143
 40
0.2142857142857143
 40
0.2142857142857143
 40
0.25
 40
0.25
 40
0.25
 40
0.25
 40
0.2857142857142857
 40
0.2857142857142857
 40
0.2857142857142857
 40
0.2857142857142857
 40
0.3214285714285715
 40
0.3214285714285715
 40
0.3214285714285715
 40
0.3214285714285715
 40
0.3571428571428572
 40
0.3571428571428572
 40
0.3571428571428572
 40
0.3571428571428572
 40
0.3928571428571428
 40
0.3928571428571428
 40
0.3928571428571428
 40
0.3928571428571428
 40
0.4285714285714285
 40
0.4285714285714285
 40
0.4285714285714285
 40
0.4285714285714285
 40
0.4642857142857143
 40
0.4642857142857143
 40
0.4642857142857143
 40
0.4642857142857143
 40
0.5
 40
0.5
 40
0.5
 40
0.5
 40
0.5357142857142857
 40
0.5357142857142857
 40
0.5357142857142857
 40
0.5357142857142857
 40
0.5714285714285714
 40
0.5714285714285714
 40
0.5714285714285714
 40
0.5714285714285714
 40
0.6071428571428571
 40
0.6071428571428571
 40
0.6071428571428571
 40
0.6071428571428571
 40
0.6428571428571429
 40
0.6428571428571429
 40
0.6428571428571429
 40
0.6428571428571429
 40
0.6785714285714286
 40
0.6785714285714286
 40
0.6785714285714286
 40
0.6785714285714286
 40
0.7142857142857143
 40
0.7142857142857143
 40
0.7142857142857143
 40
0.7142857142857143
 40
0.75
 40
0.75
 40
0.75
 40
0.75
 40
0.7857142857142857
 40
0.7857142857142857
 40
0.7857142857142857
 40
0.7857142857142857
 40
0.8214285714285714
 40
0.8214285714285714
 40
0.8214285714285714
 40
0.8214285714285714
 40
0.8571428571428571
 40
0.8571428571428571
 40
0.8571428571428571
 40
0.8571428571428571
 40
0.8928571428571429
 40
0.8928571428571429
 40
0.8928571428571429
 40
0.8928571428571429
 40
0.9285714285714286
 40
0.9285714285714286
 40
0.9285714285714286
 40
0.9285714285714286
 40
1.0
 40
1.0
 40
1.0
 40
1.0
 10
-45.274
 20
29.2612
 30
0.0
 10
-45.1959
 20
29.169
 30
0.0
 10
-45.1409
 20
29.0806
 30
0.0
 10
-45.1085
 20
28.9959
 30
0.0
 10
-45.1085
 20
28.9959
 30
0.0
 10
-45.0765
 20
28.9108
 30
0.0
 10
-45.0605
 20
28.8195
 30
0.0
 10
-45.0605
 20
28.7222
 30
0.0
 10
-45.0605
 20
28.7222
 30
0.0
 10
-45.0605
 20
28.5613
 30
0.0
 10
-45.0995
 20
28.4381
 30
0.0
 10
-45.1781
 20
28.3515
 30
0.0
 10
-45.1781
 20
28.3515
 30
0.0
 10
-45.2566
 20
28.2654
 30
0.0
 10
-45.3573
 20
28.2222
 30
0.0
 10
-45.4791
 20
28.2222
 30
0.0
 10
-45.4791
 20
28.2222
 30
0.0
 10
-45.5511
 20
28.2222
 30
0.0
 10
-45.6164
 20
28.2382
 30
0.0
 10
-45.6757
 20
28.2711
 30
0.0
 10
-45.6757
 20
28.2711
 30
0.0
 10
-45.735
 20
28.3035
 30
0.0
 10
-45.7825
 20
28.3463
 30
0.0
 10
-45.8182
 20
28.399
 30
0.0
 10
-45.8182
 20
28.399
 30
0.0
 10
-45.854
 20
28.4522
 30
0.0
 10
-45.8813
 20
28.5114
 30
0.0
 10
-45.8996
 20
28.5778
 30
0.0
 10
-45.8996
 20
28.5778
 30
0.0
 10
-45.9123
 20
28.6262
 30
0.0
 10
-45.925
 20
28.6996
 30
0.0
 10
-45.9368
 20
28.7979
 30
0.0
 10
-45.9368
 20
28.7979
 30
0.0
 10
-45.9608
 20
28.9983
 30
0.0
 10
-45.989
 20
29.146
 30
0.0
 10
-46.0224
 20
29.2405
 30
0.0
 10
-46.0224
 20
29.2405
 30
0.0
 10
-46.0562
 20
29.2415
 30
0.0
 10
-46.0779
 20
29.2419
 30
0.0
 10
-46.0868
 20
29.2419
 30
0.0
 10
-46.0868
 20
29.2419
 30
0.0
 10
-46.1879
 20
29.2419
 30
0.0
 10
-46.2594
 20
29.2184
 30
0.0
 10
-46.3004
 20
29.1714
 30
0.0
 10
-46.3004
 20
29.1714
 30
0.0
 10
-46.3568
 20
29.1083
 30
0.0
 10
-46.3846
 20
29.0138
 30
0.0
 10
-46.3846
 20
28.8891
 30
0.0
 10
-46.3846
 20
28.8891
 30
0.0
 10
-46.3846
 20
28.7725
 30
0.0
 10
-46.3643
 20
28.6864
 30
0.0
 10
-46.3234
 20
28.6304
 30
0.0
 10
-46.3234
 20
28.6304
 30
0.0
 10
-46.2825
 20
28.5749
 30
0.0
 10
-46.2101
 20
28.534
 30
0.0
 10
-46.1061
 20
28.5072
 30
0.0
 10
-46.1061
 20
28.5072
 30
0.0
 10
-46.1061
 20
28.5072
 30
0.0
 10
-46.1395
 20
28.265
 30
0.0
 10
-46.1395
 20
28.265
 30
0.0
 10
-46.1395
 20
28.265
 30
0.0
 10
-46.243
 20
28.2871
 30
0.0
 10
-46.3272
 20
28.3233
 30
0.0
 10
-46.3907
 20
28.3736
 30
0.0
 10
-46.3907
 20
28.3736
 30
0.0
 10
-46.4546
 20
28.424
 30
0.0
 10
-46.504
 20
28.4973
 30
0.0
 10
-46.5384
 20
28.5928
 30
0.0
 10
-46.5384
 20
28.5928
 30
0.0
 10
-46.5727
 20
28.6883
 30
0.0
 10
-46.5901
 20
28.7988
 30
0.0
 10
-46.5901
 20
28.9249
 30
0.0
 10
-46.5901
 20
28.9249
 30
0.0
 10
-46.5901
 20
29.05
 30
0.0
 10
-46.5751
 20
29.1511
 30
0.0
 10
-46.5459
 20
29.2292
 30
0.0
 10
-46.5459
 20
29.2292
 30
0.0
 10
-46.5163
 20
29.3073
 30
0.0
 10
-46.4796
 20
29.3647
 30
0.0
 10
-46.4349
 20
29.4018
 30
0.0
 10
-46.4349
 20
29.4018
 30
0.0
 10
-46.3902
 20
29.4385
 30
0.0
 10
-46.3342
 20
29.4639
 30
0.0
 10
-46.266
 20
29.479
 30
0.0
 10
-46.266
 20
29.479
 30
0.0
 10
-46.2237
 20
29.487
 30
0.0
 10
-46.1475
 20
29.4912
 30
0.0
 10
-46.0374
 20
29.4912
 30
0.0
 10
-46.0374
 20
29.4912
 30
0.0
 10
-46.0374
 20
29.4912
 30
0.0
 10
-45.7068
 20
29.4912
 30
0.0
 10
-45.7068
 20
29.4912
 30
0.0
 10
-45.7068
 20
29.4912
 30
0.0
 10
-45.4758
 20
29.4912
 30
0.0
 10
-45.33
 20
29.4964
 30
0.0
 10
-45.2693
 20
29.5072
 30
0.0
 10
-45.2693
 20
29.5072
 30
0.0
 10
-45.2082
 20
29.5176
 30
0.0
 10
-45.1494
 20
29.5387
 30
0.0
 10
-45.0934
 20
29.5698
 30
0.0
 10
-45.0934
 20
29.5698
 30
0.0
 10
-45.0934
 20
29.5698
 30
0.0
 10
-45.0934
 20
29.3106
 30
0.0
 10
-45.0934
 20
29.3106
 30
0.0
 10
-45.0934
 20
29.3106
 30
0.0
 10
-45.1447
 20
29.2852
 30
0.0
 10
-45.2049
 20
29.2683
 30
0.0
 10
-45.274
 20
29.2612
 30
0.0
  0
SPLINE
  5
B9
330
1F
100
AcDbEntity
  8
DEFAULT_1
 62
   250
100
AcDbSpline
210
0.0
220
0.0
230
1.0
 70
    11
 71
     3
 72
    44
 73
    40
 74
     0
 42
0.0000000001
 43
0.0000000001
 40
0.0
 40
0.0
 40
0.0
 40
0.0
 40
0.0909090909090909
 40
0.0909090909090909
 40
0.0909090909090909
 40
0.0909090909090909
 40
0.1818181818181818
 40
0.1818181818181818
 40
0.1818181818181818
 40
0.1818181818181818
 40
0.2727272727272727
 40
0.2727272727272727
 40
0.2727272727272727
 40
0.2727272727272727
 40
0.3636363636363636
 40
0.3636363636363636
 40
0.3636363636363636
 40
0.3636363636363636
 40
0.4545454545454545
 40
0.4545454545454545
 40
0.4545454545454545
 40
0.4545454545454545
 40
0.5454545454545454
 40
0.5454545454545454
 40
0.5454545454545454
 40
0.5454545454545454
 40
0.6363636363636364
 40
0.6363636363636364
 40
0.6363636363636364
 40
0.6363636363636364
 40
0.7272727272727273
 40
0.7272727272727273
 40
0.7272727272727273
 40
0.7272727272727273
 40
0.8181818181818182
 40
0.8181818181818182
 40
0.8181818181818182
 40
0.8181818181818182
 40
1.0
 40
1.0
 40
1.0
 40
1.0
 10
-45.8281
 20
29.2405
 30
0.0
 10
-45.791
 20
29.1502
 30
0.0
 10
-45.7599
 20
29.0152
 30
0.0
 10
-45.734
 20
28.8355
 30
0.0
 10
-45.734
 20
28.8355
 30
0.0
 10
-45.7195
 20
28.7335
 30
0.0
 10
-45.703
 20
28.661
 30
0.0
 10
-45.6847
 20
28.6192
 30
0.0
 10
-45.6847
 20
28.6192
 30
0.0
 10
-45.6663
 20
28.5768
 30
0.0
 10
-45.6395
 20
28.5439
 30
0.0
 10
-45.6037
 20
28.5213
 30
0.0
 10
-45.6037
 20
28.5213
 30
0.0
 10
-45.5685
 20
28.4983
 30
0.0
 10
-45.5294
 20
28.4865
 30
0.0
 10
-45.4862
 20
28.4865
 30
0.0
 10
-45.4862
 20
28.4865
 30
0.0
 10
-45.4198
 20
28.4865
 30
0.0
 10
-45.3648
 20
28.5119
 30
0.0
 10
-45.3206
 20
28.5618
 30
0.0
 10
-45.3206
 20
28.5618
 30
0.0
 10
-45.2768
 20
28.6116
 30
0.0
 10
-45.2547
 20
28.685
 30
0.0
 10
-45.2547
 20
28.7814
 30
0.0
 10
-45.2547
 20
28.7814
 30
0.0
 10
-45.2547
 20
28.8769
 30
0.0
 10
-45.2754
 20
28.9621
 30
0.0
 10
-45.3173
 20
29.0364
 30
0.0
 10
-45.3173
 20
29.0364
 30
0.0
 10
-45.3592
 20
29.1107
 30
0.0
 10
-45.4165
 20
29.1657
 30
0.0
 10
-45.489
 20
29.2005
 30
0.0
 10
-45.489
 20
29.2005
 30
0.0
 10
-45.545
 20
29.2273
 30
0.0
 10
-45.6277
 20
29.2405
 30
0.0
 10
-45.7369
 20
29.2405
 30
0.0
 10
-45.7369
 20
29.2405
 30
0.0
 10
-45.7369
 20
29.2405
 30
0.0
 10
-45.8281
 20
29.2405
 30
0.0
 10
-45.8281
 20
29.2405
 30
0.0
  0
SPLINE
  5
BA
330
1F
100
AcDbEntity
  8
DEFAULT_1
 62
   250
100
AcDbSpline
210
0.0
220
0.0
230
1.0
 70
    11
 71
     3
 72
    64
 73
    60
 74
     0
 42
0.0000000001
 43
0.0000000001
 40
0.0
 40
0.0
 40
0.0
 40
0.0
 40
0.0625
 40
0.0625
 40
0.0625
 40
0.0625
 40
0.125
 40
0.125
 40
0.125
 40
0.125
 40
0.1875
 40
0.1875
 40
0.1875
 40
0.1875
 40
0.25
 40
0.25
 40
0.25
 40
0.25
 40
0.3125
 40
0.3125
 40
0.3125
 40
0.3125
 40
0.375
 40
0.375
 40
0.375
 40
0.375
 40
0.4375
 40
0.4375
 40
0.4375
 40
0.4375
 40
0.5
 40
0.5
 40
0.5
 40
0.5
 40
0.5625
 40
0.5625
 40
0.5625
 40
0.5625
 40
0.625
 40
0.625
 40
0.625
 40
0.625
 40
0.6875
 40
0.6875
 40
0.6875
 40
0.6875
 40
0.75
 40
0.75
 40
0.75
 40
0.75
 40
0.8125
 40
0.8125
 40
0.8125
 40
0.8125
 40
0.875
 40
0.875
 40
0.875
 40
0.875
 40
1.0
 40
1.0
 40
1.0
 40
1.0
 10
-45.0934
 20
29.7104
 30
0.0
 10
-45.0934
 20
29.7104
 30
0.0
 10
-45.854
 20
30.2452
 30
0.0
 10
-45.854
 20
30.2452
 30
0.0
 10
-45.854
 20
30.2452
 30
0.0
 10
-45.854
 20
30.2452
 30
0.0
 10
-46.5567
 20
29.7504
 30
0.0
 10
-46.5567
 20
29.7504
 30
0.0
 10
-46.5567
 20
29.7504
 30
0.0
 10
-46.5567
 20
29.7504
 30
0.0
 10
-46.5567
 20
30.0603
 30
0.0
 10
-46.5567
 20
30.0603
 30
0.0
 10
-46.5567
 20
30.0603
 30
0.0
 10
-46.5567
 20
30.0603
 30
0.0
 10
-46.2138
 20
30.2852
 30
0.0
 10
-46.2138
 20
30.2852
 30
0.0
 10
-46.2138
 20
30.2852
 30
0.0
 10
-46.1484
 20
30.327
 30
0.0
 10
-46.0939
 20
30.3614
 30
0.0
 10
-46.0497
 20
30.3868
 30
0.0
 10
-46.0497
 20
30.3868
 30
0.0
 10
-46.1103
 20
30.4272
 30
0.0
 10
-46.164
 20
30.4644
 30
0.0
 10
-46.211
 20
30.4987
 30
0.0
 10
-46.211
 20
30.4987
 30
0.0
 10
-46.211
 20
30.4987
 30
0.0
 10
-46.5567
 20
30.7452
 30
0.0
 10
-46.5567
 20
30.7452
 30
0.0
 10
-46.5567
 20
30.7452
 30
0.0
 10
-46.5567
 20
30.7452
 30
0.0
 10
-46.5567
 20
31.0415
 30
0.0
 10
-46.5567
 20
31.0415
 30
0.0
 10
-46.5567
 20
31.0415
 30
0.0
 10
-46.5567
 20
31.0415
 30
0.0
 10
-45.8676
 20
30.5359
 30
0.0
 10
-45.8676
 20
30.5359
 30
0.0
 10
-45.8676
 20
30.5359
 30
0.0
 10
-45.8676
 20
30.5359
 30
0.0
 10
-45.0934
 20
31.0801
 30
0.0
 10
-45.0934
 20
31.0801
 30
0.0
 10
-45.0934
 20
31.0801
 30
0.0
 10
-45.0934
 20
31.0801
 30
0.0
 10
-45.0934
 20
30.7758
 30
0.0
 10
-45.0934
 20
30.7758
 30
0.0
 10
-45.0934
 20
30.7758
 30
0.0
 10
-45.0934
 20
30.7758
 30
0.0
 10
-45.5482
 20
30.4752
 30
0.0
 10
-45.5482
 20
30.4752
 30
0.0
 10
-45.5482
 20
30.4752
 30
0.0
 10
-45.5482
 20
30.4752
 30
0.0
 10
-45.671
 20
30.3953
 30
0.0
 10
-45.671
 20
30.3953
 30
0.0
 10
-45.671
 20
30.3953
 30
0.0
 10
-45.671
 20
30.3953
 30
0.0
 10
-45.0934
 20
30.011
 30
0.0
 10
-45.0934
 20
30.011
 30
0.0
 10
-45.0934
 20
30.011
 30
0.0
 10
-45.0934
 20
30.011
 30
0.0
 10
-45.0934
 20
29.7104
 30
0.0
 10
-45.0934
 20
29.7104
 30
0.0
  0
SPLINE
  5
BB
330
1F
100
AcDbEntity
  8
DEFAULT_1
 62
   250
100
AcDbSpline
210
0.0
220
0.0
230
1.0
 70
    11
 71
     3
 72
    40
 73
    36
 74
     0
 42
0.0000000001
 43
0.0000000001
 40
0.0
 40
0.0
 40
0.0
 40
0.0
 40
0.1
 40
0.1
 40
0.1
 40
0.1
 40
0.2
 40
0.2
 40
0.2
 40
0.2
 40
0.3
 40
0.3
 40
0.3
 40
0.3
 40
0.4
 40
0.4
 40
0.4
 40
0.4
 40
0.5
 40
0.5
 40
0.5
 40
0.5
 40
0.6
 40
0.6
 40
0.6
 40
0.6
 40
0.7
 40
0.7
 40
0.7
 40
0.7
 40
0.8
 40
0.8
 40
0.8
 40
0.8
 40
1.0
 40
1.0
 40
1.0
 40
1.0
 10
-45.0934
 20
32.9362
 30
0.0
 10
-45.0934
 20
32.9362
 30
0.0
 10
-45.0934
 20
32.6883
 30
0.0
 10
-45.0934
 20
32.6883
 30
0.0
 10
-45.0934
 20
32.6883
 30
0.0
 10
-45.0934
 20
32.6883
 30
0.0
 10
-46.6738
 20
32.6883
 30
0.0
 10
-46.6738
 20
32.6883
 30
0.0
 10
-46.6738
 20
32.6883
 30
0.0
 10
-46.6169
 20
32.6285
 30
0.0
 10
-46.56
 20
32.5505
 30
0.0
 10
-46.5031
 20
32.4536
 30
0.0
 10
-46.5031
 20
32.4536
 30
0.0
 10
-46.4462
 20
32.3562
 30
0.0
 10
-46.4034
 20
32.2692
 30
0.0
 10
-46.3751
 20
32.192
 30
0.0
 10
-46.3751
 20
32.192
 30
0.0
 10
-46.3751
 20
32.192
 30
0.0
 10
-46.6146
 20
32.192
 30
0.0
 10
-46.6146
 20
32.192
 30
0.0
 10
-46.6146
 20
32.192
 30
0.0
 10
-46.6799
 20
32.3308
 30
0.0
 10
-46.759
 20
32.4522
 30
0.0
 10
-46.8516
 20
32.5561
 30
0.0
 10
-46.8516
 20
32.5561
 30
0.0
 10
-46.9448
 20
32.6596
 30
0.0
 10
-47.0346
 20
32.7334
 30
0.0
 10
-47.1221
 20
32.7767
 30
0.0
 10
-47.1221
 20
32.7767
 30
0.0
 10
-47.1221
 20
32.7767
 30
0.0
 10
-47.1221
 20
32.9362
 30
0.0
 10
-47.1221
 20
32.9362
 30
0.0
 10
-47.1221
 20
32.9362
 30
0.0
 10
-47.1221
 20
32.9362
 30
0.0
 10
-45.0934
 20
32.9362
 30
0.0
 10
-45.0934
 20
32.9362
 30
0.0
  0
SPLINE
  5
BC
330
1F
100
AcDbEntity
  8
DEFAULT_1
 62
   250
100
AcDbSpline
210
0.0
220
0.0
230
1.0
 70
    11
 71
     3
 72
    80
 73
    76
 74
     0
 42
0.0000000001
 43
0.0000000001
 40
0.0
 40
0.0
 40
0.0
 40
0.0
 40
0.05
 40
0.05
 40
0.05
 40
0.05
 40
0.1
 40
0.1
 40
0.1
 40
0.1
 40
0.15
 40
0.15
 40
0.15
 40
0.15
 40
0.2
 40
0.2
 40
0.2
 40
0.2
 40
0.25
 40
0.25
 40
0.25
 40
0.25
 40
0.3
 40
0.3
 40
0.3
 40
0.3
 40
0.35
 40
0.35
 40
0.35
 40
0.35
 40
0.4
 40
0.4
 40
0.4
 40
0.4
 40
0.45
 40
0.45
 40
0.45
 40
0.45
 40
0.5
 40
0.5
 40
0.5
 40
0.5
 40
0.55
 40
0.55
 40
0.55
 40
0.55
 40
0.6
 40
0.6
 40
0.6
 40
0.6
 40
0.65
 40
0.65
 40
0.65
 40
0.65
 40
0.7
 40
0.7
 40
0.7
 40
0.7
 40
0.75
 40
0.75
 40
0.75
 40
0.75
 40
0.8
 40
0.8
 40
0.8
 40
0.8
 40
0.85
 40
0.85
 40
0.85
 40
0.85
 40
0.9
 40
0.9
 40
0.9
 40
0.9
 40
1.0
 40
1.0
 40
1.0
 40
1.0
 10
-46.6188
 20
34.8585
 30
0.0
 10
-46.6188
 20
34.8585
 30
0.0
 10
-46.5995
 20
34.6121
 30
0.0
 10
-46.5995
 20
34.6121
 30
0.0
 10
-46.5995
 20
34.6121
 30
0.0
 10
-46.6969
 20
34.59
 30
0.0
 10
-46.7679
 20
34.5589
 30
0.0
 10
-46.8116
 20
34.5185
 30
0.0
 10
-46.8116
 20
34.5185
 30
0.0
 10
-46.8827
 20
34.4512
 30
0.0
 10
-46.918
 20
34.3684
 30
0.0
 10
-46.918
 20
34.2701
 30
0.0
 10
-46.918
 20
34.2701
 30
0.0
 10
-46.918
 20
34.1911
 30
0.0
 10
-46.8958
 20
34.122
 30
0.0
 10
-46.8516
 20
34.0622
 30
0.0
 10
-46.8516
 20
34.0622
 30
0.0
 10
-46.7947
 20
33.9841
 30
0.0
 10
-46.7115
 20
33.9225
 30
0.0
 10
-46.6023
 20
33.8774
 30
0.0
 10
-46.6023
 20
33.8774
 30
0.0
 10
-46.4932
 20
33.8327
 30
0.0
 10
-46.3375
 20
33.8092
 30
0.0
 10
-46.1353
 20
33.8073
 30
0.0
 10
-46.1353
 20
33.8073
 30
0.0
 10
-46.226
 20
33.867
 30
0.0
 10
-46.2938
 20
33.9399
 30
0.0
 10
-46.338
 20
34.0265
 30
0.0
 10
-46.338
 20
34.0265
 30
0.0
 10
-46.3817
 20
34.1125
 30
0.0
 10
-46.4038
 20
34.2033
 30
0.0
 10
-46.4038
 20
34.2979
 30
0.0
 10
-46.4038
 20
34.2979
 30
0.0
 10
-46.4038
 20
34.4634
 30
0.0
 10
-46.3432
 20
34.6041
 30
0.0
 10
-46.2213
 20
34.7203
 30
0.0
 10
-46.2213
 20
34.7203
 30
0.0
 10
-46.0995
 20
34.8364
 30
0.0
 10
-45.9424
 20
34.8948
 30
0.0
 10
-45.7496
 20
34.8948
 30
0.0
 10
-45.7496
 20
34.8948
 30
0.0
 10
-45.6226
 20
34.8948
 30
0.0
 10
-45.505
 20
34.867
 30
0.0
 10
-45.3958
 20
34.8124
 30
0.0
 10
-45.3958
 20
34.8124
 30
0.0
 10
-45.2872
 20
34.7579
 30
0.0
 10
-45.2035
 20
34.6826
 30
0.0
 10
-45.1456
 20
34.5871
 30
0.0
 10
-45.1456
 20
34.5871
 30
0.0
 10
-45.0878
 20
34.4917
 30
0.0
 10
-45.0591
 20
34.3835
 30
0.0
 10
-45.0591
 20
34.2621
 30
0.0
 10
-45.0591
 20
34.2621
 30
0.0
 10
-45.0591
 20
34.0552
 30
0.0
 10
-45.1348
 20
33.8868
 30
0.0
 10
-45.2872
 20
33.7565
 30
0.0
 10
-45.2872
 20
33.7565
 30
0.0
 10
-45.4391
 20
33.6257
 30
0.0
 10
-45.6898
 20
33.5608
 30
0.0
 10
-46.0388
 20
33.5608
 30
0.0
 10
-46.0388
 20
33.5608
 30
0.0
 10
-46.4292
 20
33.5608
 30
0.0
 10
-46.7129
 20
33.6328
 30
0.0
 10
-46.8902
 20
33.7772
 30
0.0
 10
-46.8902
 20
33.7772
 30
0.0
 10
-47.0445
 20
33.9028
 30
0.0
 10
-47.1221
 20
34.0721
 30
0.0
 10
-47.1221
 20
34.2856
 30
0.0
 10
-47.1221
 20
34.2856
 30
0.0
 10
-47.1221
 20
34.4442
 30
0.0
 10
-47.0774
 20
34.5744
 30
0.0
 10
-46.988
 20
34.676
 30
0.0
 10
-46.988
 20
34.676
 30
0.0
 10
-46.8991
 20
34.7776
 30
0.0
 10
-46.7759
 20
34.8383
 30
0.0
 10
-46.6188
 20
34.8585
 30
0.0
  0
SPLINE
  5
BD
330
1F
100
AcDbEntity
  8
DEFAULT_1
 62
   250
100
AcDbSpline
210
0.0
220
0.0
230
1.0
 70
    11
 71
     3
 72
    40
 73
    36
 74
     0
 42
0.0000000001
 43
0.0000000001
 40
0.0
 40
0.0
 40
0.0
 40
0.0
 40
0.1
 40
0.1
 40
0.1
 40
0.1
 40
0.2
 40
0.2
 40
0.2
 40
0.2
 40
0.3
 40
0.3
 40
0.3
 40
0.3
 40
0.4
 40
0.4
 40
0.4
 40
0.4
 40
0.5
 40
0.5
 40
0.5
 40
0.5
 40
0.6
 40
0.6
 40
0.6
 40
0.6
 40
0.7
 40
0.7
 40
0.7
 40
0.7
 40
0.8
 40
0.8
 40
0.8
 40
0.8
 40
1.0
 40
1.0
 40
1.0
 40
1.0
 10
-45.7482
 20
33.8458
 30
0.0
 10
-45.6625
 20
33.8458
 30
0.0
 10
-45.5807
 20
33.8642
 30
0.0
 10
-45.5026
 20
33.9004
 30
0.0
 10
-45.5026
 20
33.9004
 30
0.0
 10
-45.4245
 20
33.9366
 30
0.0
 10
-45.3653
 20
33.9874
 30
0.0
 10
-45.3244
 20
34.0523
 30
0.0
 10
-45.3244
 20
34.0523
 30
0.0
 10
-45.2834
 20
34.1177
 30
0.0
 10
-45.2627
 20
34.1864
 30
0.0
 10
-45.2627
 20
34.2579
 30
0.0
 10
-45.2627
 20
34.2579
 30
0.0
 10
-45.2627
 20
34.3628
 30
0.0
 10
-45.3051
 20
34.4526
 30
0.0
 10
-45.3897
 20
34.5279
 30
0.0
 10
-45.3897
 20
34.5279
 30
0.0
 10
-45.4744
 20
34.6031
 30
0.0
 10
-45.5892
 20
34.6408
 30
0.0
 10
-45.734
 20
34.6408
 30
0.0
 10
-45.734
 20
34.6408
 30
0.0
 10
-45.8737
 20
34.6408
 30
0.0
 10
-45.9838
 20
34.6036
 30
0.0
 10
-46.0642
 20
34.5293
 30
0.0
 10
-46.0642
 20
34.5293
 30
0.0
 10
-46.1447
 20
34.455
 30
0.0
 10
-46.1847
 20
34.3614
 30
0.0
 10
-46.1847
 20
34.2485
 30
0.0
 10
-46.1847
 20
34.2485
 30
0.0
 10
-46.1847
 20
34.1361
 30
0.0
 10
-46.1447
 20
34.041
 30
0.0
 10
-46.0642
 20
33.963
 30
0.0
 10
-46.0642
 20
33.963
 30
0.0
 10
-45.9838
 20
33.8849
 30
0.0
 10
-45.8784
 20
33.8458
 30
0.0
 10
-45.7482
 20
33.8458
 30
0.0
  0
SPLINE
  5
BE
330
1F
100
AcDbEntity
  8
DEFAULT_1
 62
   250
100
AcDbSpline
210
0.0
220
0.0
230
1.0
 70
    24
 71
     3
 72
     8
 73
     4
 74
     0
 42
0.0000000001
 43
0.0000000001
 40
0.0
 40
0.0
 40
0.0
 40
0.0
 40
1.0
 40
1.0
 40
1.0
 40
1.0
 10
-44.1497
 20
36.7225
 30
0.0
 10
-44.1497
 20
36.7225
 30
0.0
 10
-44.1497
 20
25.0256
 30
0.0
 10
-44.1497
 20
25.0256
 30
0.0
  0
SPLINE
  5
BF
330
1F
100
AcDbEntity
  8
DEFAULT_1
 62
   250
100
AcDbSpline
210
0.0
220
0.0
230
1.0
 70
    11
 71
     3
 72
    20
 73
    16
 74
     0
 42
0.0000000001
 43
0.0000000001
 40
0.0
 40
0.0
 40
0.0
 40
0.0
 40
0.2
 40
0.2
 40
0.2
 40
0.2
 40
0.4
 40
0.4
 40
0.4
 40
0.4
 40
0.6
 40
0.6
 40
0.6
 40
0.6
 40
1.0
 40
1.0
 40
1.0
 40
1.0
 10
-43.6708
 20
32.9576
 30
0.0
 10
-43.6708
 20
32.9576
 30
0.0
 10
-44.0703
 20
30.1272
 30
0.0
 10
-44.0703
 20
30.1272
 30
0.0
 10
-44.0703
 20
30.1272
 30
0.0
 10
-44.0703
 20
30.1272
 30
0.0
 10
-44.159
 20
30.1272
 30
0.0
 10
-44.159
 20
30.1272
 30
0.0
 10
-44.159
 20
30.1272
 30
0.0
 10
-44.159
 20
30.1272
 30
0.0
 10
-44.585
 20
32.9576
 30
0.0
 10
-44.585
 20
32.9576
 30
0.0
 10
-44.585
 20
32.9576
 30
0.0
 10
-44.585
 20
32.9576
 30
0.0
 10
-43.6708
 20
32.9576
 30
0.0
 10
-43.6708
 20
32.9576
 30
0.0
  0
SPLINE
  5
C0
330
1F
100
AcDbEntity
  8
DEFAULT_1
 62
   250
100
AcDbSpline
210
0.0
220
0.0
230
1.0
 70
     8
 71
     3
 72
    60
 73
    56
 74
     0
 42
0.0000000001
 43
0.0000000001
 40
0.0
 40
0.0
 40
0.0
 40
0.0
 40
0.0666666666666667
 40
0.0666666666666667
 40
0.0666666666666667
 40
0.0666666666666667
 40
0.1333333333333333
 40
0.1333333333333333
 40
0.1333333333333333
 40
0.1333333333333333
 40
0.2
 40
0.2
 40
0.2
 40
0.2
 40
0.2666666666666667
 40
0.2666666666666667
 40
0.2666666666666667
 40
0.2666666666666667
 40
0.3333333333333333
 40
0.3333333333333333
 40
0.3333333333333333
 40
0.3333333333333333
 40
0.4
 40
0.4
 40
0.4
 40
0.4
 40
0.4666666666666667
 40
0.4666666666666667
 40
0.4666666666666667
 40
0.4666666666666667
 40
0.5333333333333333
 40
0.5333333333333333
 40
0.5333333333333333
 40
0.5333333333333333
 40
0.6
 40
0.6
 40
0.6
 40
0.6
 40
0.6666666666666666
 40
0.6666666666666666
 40
0.6666666666666666
 40
0.6666666666666666
 40
0.7333333333333333
 40
0.7333333333333333
 40
0.7333333333333333
 40
0.7333333333333333
 40
0.8
 40
0.8
 40
0.8
 40
0.8
 40
0.8666666666666667
 40
0.8666666666666667
 40
0.8666666666666667
 40
0.8666666666666667
 40
1.0
 40
1.0
 40
1.0
 40
1.0
 10
-29.7802
 20
42.0325
 30
0.0
 10
-29.7802
 20
42.0325
 30
0.0
 10
-29.7758
 20
42.1185
 30
0.0
 10
-29.7758
 20
42.1185
 30
0.0
 10
-29.7758
 20
42.1185
 30
0.0
 10
-29.7758
 20
42.1185
 30
0.0
 10
-29.7609
 20
42.2116
 30
0.0
 10
-29.7609
 20
42.2116
 30
0.0
 10
-29.7609
 20
42.2116
 30
0.0
 10
-29.7609
 20
42.2116
 30
0.0
 10
-29.7354
 20
42.3027
 30
0.0
 10
-29.7354
 20
42.3027
 30
0.0
 10
-29.7354
 20
42.3027
 30
0.0
 10
-29.7354
 20
42.3027
 30
0.0
 10
-29.6998
 20
42.3907
 30
0.0
 10
-29.6998
 20
42.3907
 30
0.0
 10
-29.6998
 20
42.3907
 30
0.0
 10
-29.6998
 20
42.3907
 30
0.0
 10
-29.6543
 20
42.4741
 30
0.0
 10
-29.6543
 20
42.4741
 30
0.0
 10
-29.6543
 20
42.4741
 30
0.0
 10
-29.6543
 20
42.4741
 30
0.0
 10
-29.5996
 20
42.5519
 30
0.0
 10
-29.5996
 20
42.5519
 30
0.0
 10
-29.5996
 20
42.5519
 30
0.0
 10
-29.5996
 20
42.5519
 30
0.0
 10
-29.5365
 20
42.623
 30
0.0
 10
-29.5365
 20
42.623
 30
0.0
 10
-29.5365
 20
42.623
 30
0.0
 10
-29.5365
 20
42.623
 30
0.0
 10
-29.4657
 20
42.6865
 30
0.0
 10
-29.4657
 20
42.6865
 30
0.0
 10
-29.4657
 20
42.6865
 30
0.0
 10
-29.4657
 20
42.6865
 30
0.0
 10
-29.3881
 20
42.7415
 30
0.0
 10
-29.3881
 20
42.7415
 30
0.0
 10
-29.3881
 20
42.7415
 30
0.0
 10
-29.3881
 20
42.7415
 30
0.0
 10
-29.3048
 20
42.7875
 30
0.0
 10
-29.3048
 20
42.7875
 30
0.0
 10
-29.3048
 20
42.7875
 30
0.0
 10
-29.3048
 20
42.7875
 30
0.0
 10
-29.2167
 20
42.8238
 30
0.0
 10
-29.2167
 20
42.8238
 30
0.0
 10
-29.2167
 20
42.8238
 30
0.0
 10
-29.2167
 20
42.8238
 30
0.0
 10
-29.125
 20
42.8499
 30
0.0
 10
-29.125
 20
42.8499
 30
0.0
 10
-29.125
 20
42.8499
 30
0.0
 10
-29.125
 20
42.8499
 30
0.0
 10
-29.0308
 20
42.8654
 30
0.0
 10
-29.0308
 20
42.8654
 30
0.0
 10
-29.0308
 20
42.8654
 30
0.0
 10
-29.0308
 20
42.8654
 30
0.0
 10
-28.9402
 20
42.8703
 30
0.0
 10
-28.9402
 20
42.8703
 30
0.0
  0
SPLINE
  5
C1
330
1F
100
AcDbEntity
  8
DEFAULT_1
 62
   250
100
AcDbSpline
210
0.0
220
0.0
230
1.0
 70
    24
 71
     3
 72
     8
 73
     4
 74
     0
 42
0.0000000001
 43
0.0000000001
 40
0.0
 40
0.0
 40
0.0
 40
0.0
 40
1.0
 40
1.0
 40
1.0
 40
1.0
 10
-26.9462
 20
41.7303
 30
0.0
 10
-26.9462
 20
41.7303
 30
0.0
 10
-26.9462
 20
41.8564
 30
0.0
 10
-26.9462
 20
41.8564
 30
0.0
  0
SPLINE
  5
C2
330
1F
100
AcDbEntity
  8
DEFAULT_1
 62
   250
100
AcDbSpline
210
0.0
220
0.0
230
1.0
 70
    24
 71
     3
 72
     8
 73
     4
 74
     0
 42
0.0000000001
 43
0.0000000001
 40
0.0
 40
0.0
 40
0.0
 40
0.0
 40
1.0
 40
1.0
 40
1.0
 40
1.0
 10
-27.5126
 20
42.7941
 30
0.0
 10
-27.5126
 20
42.7941
 30
0.0
 10
-27.5126
 20
41.1879
 30
0.0
 10
-27.5126
 20
41.1879
 30
0.0
  0
SPLINE
  5
C3
330
1F
100
AcDbEntity
  8
DEFAULT_1
 62
   250
100
AcDbSpline
210
0.0
220
0.0
230
1.0
 70
    24
 71
     3
 72
     8
 73
     4
 74
     0
 42
0.0000000001
 43
0.0000000001
 40
0.0
 40
0.0
 40
0.0
 40
0.0
 40
1.0
 40
1.0
 40
1.0
 40
1.0
 10
-28.1195
 20
40.671
 30
0.0
 10
-28.1195
 20
40.671
 30
0.0
 10
-28.1195
 20
43.0843
 30
0.0
 10
-28.1195
 20
43.0843
 30
0.0
  0
SPLINE
  5
C4
330
1F
100
AcDbEntity
  8
DEFAULT_1
 62
   250
100
AcDbSpline
210
0.0
220
0.0
230
1.0
 70
    24
 71
     3
 72
     8
 73
     4
 74
     0
 42
0.0000000001
 43
0.0000000001
 40
0.0
 40
0.0
 40
0.0
 40
0.0
 40
1.0
 40
1.0
 40
1.0
 40
1.0
 10
-29.7783
 20
43.0843
 30
0.0
 10
-29.7783
 20
43.0843
 30
0.0
 10
-29.7783
 20
40.675
 30
0.0
 10
-29.7783
 20
40.675
 30
0.0
  0
SPLINE
  5
C5
330
1F
100
AcDbEntity
  8
DEFAULT_1
 62
   250
100
AcDbSpline
210
0.0
220
0.0
230
1.0
 70
    24
 71
     3
 72
     8
 73
     4
 74
     0
 42
0.0000000001
 43
0.0000000001
 40
0.0
 40
0.0
 40
0.0
 40
0.0
 40
1.0
 40
1.0
 40
1.0
 40
1.0
 10
-30.3852
 20
41.1879
 30
0.0
 10
-30.3852
 20
41.1879
 30
0.0
 10
-30.3852
 20
42.7941
 30
0.0
 10
-30.3852
 20
42.7941
 30
0.0
  0
SPLINE
  5
C6
330
1F
100
AcDbEntity
  8
DEFAULT_1
 62
   250
100
AcDbSpline
210
0.0
220
0.0
230
1.0
 70
    24
 71
     3
 72
     8
 73
     4
 74
     0
 42
0.0000000001
 43
0.0000000001
 40
0.0
 40
0.0
 40
0.0
 40
0.0
 40
1.0
 40
1.0
 40
1.0
 40
1.0
 10
-30.992
 20
41.3897
 30
0.0
 10
-30.992
 20
41.3897
 30
0.0
 10
-30.992
 20
42.1971
 30
0.0
 10
-30.992
 20
42.1971
 30
0.0
  0
SPLINE
  5
C7
330
1F
100
AcDbEntity
  8
DEFAULT_1
 62
   250
100
AcDbSpline
210
0.0
220
0.0
230
1.0
 70
    24
 71
     3
 72
     8
 73
     4
 74
     0
 42
0.0000000001
 43
0.0000000001
 40
0.0
 40
0.0
 40
0.0
 40
0.0
 40
1.0
 40
1.0
 40
1.0
 40
1.0
 10
-33.1318
 20
38.5036
 30
0.0
 10
-33.1318
 20
38.5036
 30
0.0
 10
-33.5308
 20
40.2996
 30
0.0
 10
-33.5308
 20
40.2996
 30
0.0
  0
SPLINE
  5
C8
330
1F
100
AcDbEntity
  8
DEFAULT_1
 62
   250
100
AcDbSpline
210
0.0
220
0.0
230
1.0
 70
    24
 71
     3
 72
     8
 73
     4
 74
     0
 42
0.0000000001
 43
0.0000000001
 40
0.0
 40
0.0
 40
0.0
 40
0.0
 40
1.0
 40
1.0
 40
1.0
 40
1.0
 10
-24.7255
 20
38.5036
 30
0.0
 10
-24.7255
 20
38.5036
 30
0.0
 10
-24.3265
 20
40.2996
 30
0.0
 10
-24.3265
 20
40.2996
 30
0.0
  0
SPLINE
  5
C9
330
1F
100
AcDbEntity
  8
DEFAULT_1
 62
   250
100
AcDbSpline
210
0.0
220
0.0
230
1.0
 70
    24
 71
     3
 72
     8
 73
     4
 74
     0
 42
0.0000000001
 43
0.0000000001
 40
0.0
 40
0.0
 40
0.0
 40
0.0
 40
1.0
 40
1.0
 40
1.0
 40
1.0
 10
-27.5126
 20
41.5015
 30
0.0
 10
-27.5126
 20
41.5015
 30
0.0
 10
-27.0211
 20
41.6328
 30
0.0
 10
-27.0211
 20
41.6328
 30
0.0
  0
SPLINE
  5
CA
330
1F
100
AcDbEntity
  8
DEFAULT_1
 62
   250
100
AcDbSpline
210
0.0
220
0.0
230
1.0
 70
    24
 71
     3
 72
     8
 73
     4
 74
     0
 42
0.0000000001
 43
0.0000000001
 40
0.0
 40
0.0
 40
0.0
 40
0.0
 40
1.0
 40
1.0
 40
1.0
 40
1.0
 10
-24.7255
 20
38.5036
 30
0.0
 10
-24.7255
 20
38.5036
 30
0.0
 10
-33.1318
 20
38.5036
 30
0.0
 10
-33.1318
 20
38.5036
 30
0.0
  0
SPLINE
  5
CB
330
1F
100
AcDbEntity
  8
DEFAULT_1
 62
   250
100
AcDbSpline
210
0.0
220
0.0
230
1.0
 70
    24
 71
     3
 72
     8
 73
     4
 74
     0
 42
0.0000000001
 43
0.0000000001
 40
0.0
 40
0.0
 40
0.0
 40
0.0
 40
1.0
 40
1.0
 40
1.0
 40
1.0
 10
-27.5126
 20
41.1879
 30
0.0
 10
-27.5126
 20
41.1879
 30
0.0
 10
-28.1195
 20
41.1879
 30
0.0
 10
-28.1195
 20
41.1879
 30
0.0
  0
SPLINE
  5
CC
330
1F
100
AcDbEntity
  8
DEFAULT_1
 62
   250
100
AcDbSpline
210
0.0
220
0.0
230
1.0
 70
    24
 71
     3
 72
     8
 73
     4
 74
     0
 42
0.0000000001
 43
0.0000000001
 40
0.0
 40
0.0
 40
0.0
 40
0.0
 40
1.0
 40
1.0
 40
1.0
 40
1.0
 10
-29.7783
 20
41.1879
 30
0.0
 10
-29.7783
 20
41.1879
 30
0.0
 10
-30.3852
 20
41.1879
 30
0.0
 10
-30.3852
 20
41.1879
 30
0.0
  0
SPLINE
  5
CD
330
1F
100
AcDbEntity
  8
DEFAULT_1
 62
   250
100
AcDbSpline
210
0.0
220
0.0
230
1.0
 70
    24
 71
     3
 72
     8
 73
     4
 74
     0
 42
0.0000000001
 43
0.0000000001
 40
0.0
 40
0.0
 40
0.0
 40
0.0
 40
1.0
 40
1.0
 40
1.0
 40
1.0
 10
-30.992
 20
41.3897
 30
0.0
 10
-30.992
 20
41.3897
 30
0.0
 10
-30.3852
 20
41.3897
 30
0.0
 10
-30.3852
 20
41.3897
 30
0.0
  0
SPLINE
  5
CE
330
1F
100
AcDbEntity
  8
DEFAULT_1
 62
   250
100
AcDbSpline
210
0.0
220
0.0
230
1.0
 70
    24
 71
     3
 72
     8
 73
     4
 74
     0
 42
0.0000000001
 43
0.0000000001
 40
0.0
 40
0.0
 40
0.0
 40
0.0
 40
1.0
 40
1.0
 40
1.0
 40
1.0
 10
-30.992
 20
42.1971
 30
0.0
 10
-30.992
 20
42.1971
 30
0.0
 10
-30.3852
 20
42.1971
 30
0.0
 10
-30.3852
 20
42.1971
 30
0.0
  0
SPLINE
  5
CF
330
1F
100
AcDbEntity
  8
DEFAULT_1
 62
   250
100
AcDbSpline
210
0.0
220
0.0
230
1.0
 70
    24
 71
     3
 72
     8
 73
     4
 74
     0
 42
0.0000000001
 43
0.0000000001
 40
0.0
 40
0.0
 40
0.0
 40
0.0
 40
1.0
 40
1.0
 40
1.0
 40
1.0
 10
-28.9266
 20
42.8703
 30
0.0
 10
-28.9266
 20
42.8703
 30
0.0
 10
-28.9402
 20
42.8703
 30
0.0
 10
-28.9402
 20
42.8703
 30
0.0
  0
SPLINE
  5
D0
330
1F
100
AcDbEntity
  8
DEFAULT_1
 62
   250
100
AcDbSpline
210
0.0
220
0.0
230
1.0
 70
    24
 71
     3
 72
     8
 73
     4
 74
     0
 42
0.0000000001
 43
0.0000000001
 40
0.0
 40
0.0
 40
0.0
 40
0.0
 40
1.0
 40
1.0
 40
1.0
 40
1.0
 10
-27.5126
 20
42.0853
 30
0.0
 10
-27.5126
 20
42.0853
 30
0.0
 10
-27.0211
 20
41.9539
 30
0.0
 10
-27.0211
 20
41.9539
 30
0.0
  0
SPLINE
  5
D1
330
1F
100
AcDbEntity
  8
DEFAULT_1
 62
   250
100
AcDbSpline
210
0.0
220
0.0
230
1.0
 70
     8
 71
     3
 72
     8
 73
     4
 74
     0
 42
0.0000000001
 43
0.0000000001
 40
0.0
 40
0.0
 40
0.0
 40
0.0
 40
1.0
 40
1.0
 40
1.0
 40
1.0
 10
-27.0211
 20
41.9539
 30
0.0
 10
-26.9769
 20
41.9421
 30
0.0
 10
-26.9462
 20
41.9021
 30
0.0
 10
-26.9462
 20
41.8564
 30
0.0
  0
SPLINE
  5
D2
330
1F
100
AcDbEntity
  8
DEFAULT_1
 62
   250
100
AcDbSpline
210
0.0
220
0.0
230
1.0
 70
     8
 71
     3
 72
     8
 73
     4
 74
     0
 42
0.0000000001
 43
0.0000000001
 40
0.0
 40
0.0
 40
0.0
 40
0.0
 40
1.0
 40
1.0
 40
1.0
 40
1.0
 10
-26.9462
 20
41.7303
 30
0.0
 10
-26.9462
 20
41.6847
 30
0.0
 10
-26.9769
 20
41.6447
 30
0.0
 10
-27.0211
 20
41.6328
 30
0.0
  0
SPLINE
  5
D3
330
1F
100
AcDbEntity
  8
DEFAULT_1
 62
   250
100
AcDbSpline
210
0.0
220
0.0
230
1.0
 70
     8
 71
     3
 72
     8
 73
     4
 74
     0
 42
0.0000000001
 43
0.0000000001
 40
0.0
 40
0.0
 40
0.0
 40
0.0
 40
1.0
 40
1.0
 40
1.0
 40
1.0
 10
-29.8153
 20
43.1623
 30
0.0
 10
-29.7918
 20
43.1431
 30
0.0
 10
-29.7783
 20
43.1145
 30
0.0
 10
-29.7783
 20
43.0843
 30
0.0
  0
SPLINE
  5
D4
330
1F
100
AcDbEntity
  8
DEFAULT_1
 62
   250
100
AcDbSpline
210
0.0
220
0.0
230
1.0
 70
     8
 71
     3
 72
     8
 73
     4
 74
     0
 42
0.0000000001
 43
0.0000000001
 40
0.0
 40
0.0
 40
0.0
 40
0.0
 40
1.0
 40
1.0
 40
1.0
 40
1.0
 10
-28.1195
 20
43.0843
 30
0.0
 10
-28.1195
 20
43.1145
 30
0.0
 10
-28.1059
 20
43.1431
 30
0.0
 10
-28.0825
 20
43.1623
 30
0.0
  0
SPLINE
  5
D5
330
1F
100
AcDbEntity
  8
DEFAULT_1
 62
   250
100
AcDbSpline
210
0.0
220
0.0
230
1.0
 70
     8
 71
     3
 72
    20
 73
    16
 74
     0
 42
0.0000000001
 43
0.0000000001
 40
0.0
 40
0.0
 40
0.0
 40
0.0
 40
0.2
 40
0.2
 40
0.2
 40
0.2
 40
0.4
 40
0.4
 40
0.4
 40
0.4
 40
0.6
 40
0.6
 40
0.6
 40
0.6
 40
1.0
 40
1.0
 40
1.0
 40
1.0
 10
-29.8153
 20
43.1623
 30
0.0
 10
-30.261
 20
43.5274
 30
0.0
 10
-30.4288
 20
44.1326
 30
0.0
 10
-30.2345
 20
44.6744
 30
0.0
 10
-30.2345
 20
44.6744
 30
0.0
 10
-30.0401
 20
45.2161
 30
0.0
 10
-29.5256
 20
45.5776
 30
0.0
 10
-28.9489
 20
45.5776
 30
0.0
 10
-28.9489
 20
45.5776
 30
0.0
 10
-28.3721
 20
45.5776
 30
0.0
 10
-27.8575
 20
45.2161
 30
0.0
 10
-27.6632
 20
44.6744
 30
0.0
 10
-27.6632
 20
44.6744
 30
0.0
 10
-27.4689
 20
44.1326
 30
0.0
 10
-27.6367
 20
43.5274
 30
0.0
 10
-28.0825
 20
43.1623
 30
0.0
  0
SPLINE
  5
D6
330
1F
100
AcDbEntity
  8
DEFAULT_1
 62
   250
100
AcDbSpline
210
0.0
220
0.0
230
1.0
 70
     8
 71
     3
 72
    16
 73
    12
 74
     0
 42
0.0000000001
 43
0.0000000001
 40
0.0
 40
0.0
 40
0.0
 40
0.0
 40
0.25
 40
0.25
 40
0.25
 40
0.25
 40
0.5
 40
0.5
 40
0.5
 40
0.5
 40
1.0
 40
1.0
 40
1.0
 40
1.0
 10
-30.3852
 20
42.7941
 30
0.0
 10
-31.1704
 20
43.5839
 30
0.0
 10
-31.1669
 20
44.8588
 30
0.0
 10
-30.3773
 20
45.6444
 30
0.0
 10
-30.3773
 20
45.6444
 30
0.0
 10
-29.5878
 20
46.4299
 30
0.0
 10
-28.31
 20
46.4299
 30
0.0
 10
-27.5204
 20
45.6444
 30
0.0
 10
-27.5204
 20
45.6444
 30
0.0
 10
-26.7308
 20
44.8588
 30
0.0
 10
-26.7273
 20
43.5839
 30
0.0
 10
-27.5126
 20
42.7941
 30
0.0
  0
SPLINE
  5
D7
330
1F
100
AcDbEntity
  8
DEFAULT_1
 62
   250
100
AcDbSpline
210
0.0
220
0.0
230
1.0
 70
     8
 71
     3
 72
     8
 73
     4
 74
     0
 42
0.0000000001
 43
0.0000000001
 40
0.0
 40
0.0
 40
0.0
 40
0.0
 40
1.0
 40
1.0
 40
1.0
 40
1.0
 10
-28.9266
 20
42.8703
 30
0.0
 10
-28.4852
 20
42.8703
 30
0.0
 10
-28.1257
 20
42.5166
 30
0.0
 10
-28.1196
 20
42.0763
 30
0.0
  0
SPLINE
  5
D8
330
1F
100
AcDbEntity
  8
DEFAULT_1
 62
   250
100
AcDbSpline
210
0.0
220
0.0
230
1.0
 70
     8
 71
     3
 72
     8
 73
     4
 74
     0
 42
0.0000000001
 43
0.0000000001
 40
0.0
 40
0.0
 40
0.0
 40
0.0
 40
1.0
 40
1.0
 40
1.0
 40
1.0
 10
-28.1185
 20
40.9065
 30
0.0
 10
-26.8357
 20
40.8461
 30
0.0
 10
-25.5638
 20
40.6426
 30
0.0
 10
-24.3265
 20
40.2996
 30
0.0
  0
SPLINE
  5
D9
330
1F
100
AcDbEntity
  8
DEFAULT_1
 62
   250
100
AcDbSpline
210
0.0
220
0.0
230
1.0
 70
     8
 71
     3
 72
     8
 73
     4
 74
     0
 42
0.0000000001
 43
0.0000000001
 40
0.0
 40
0.0
 40
0.0
 40
0.0
 40
1.0
 40
1.0
 40
1.0
 40
1.0
 10
-33.5308
 20
40.2996
 30
0.0
 10
-32.3003
 20
40.6407
 30
0.0
 10
-31.0353
 20
40.8431
 30
0.0
 10
-29.7596
 20
40.9032
 30
0.0
  0
SPLINE
  5
DA
330
1F
100
AcDbEntity
  8
DEFAULT_1
 62
   250
100
AcDbSpline
210
0.0
220
0.0
230
1.0
 70
     8
 71
     3
 72
    32
 73
    28
 74
     0
 42
0.0000000001
 43
0.0000000001
 40
0.0
 40
0.0
 40
0.0
 40
0.0
 40
0.125
 40
0.125
 40
0.125
 40
0.125
 40
0.25
 40
0.25
 40
0.25
 40
0.25
 40
0.375
 40
0.375
 40
0.375
 40
0.375
 40
0.5
 40
0.5
 40
0.5
 40
0.5
 40
0.625
 40
0.625
 40
0.625
 40
0.625
 40
0.75
 40
0.75
 40
0.75
 40
0.75
 40
1.0
 40
1.0
 40
1.0
 40
1.0
 10
-28.1196
 20
42.0707
 30
0.0
 10
-28.1196
 20
42.0707
 30
0.0
 10
-28.1202
 20
42.0529
 30
0.0
 10
-28.1202
 20
42.0529
 30
0.0
 10
-28.1202
 20
42.0529
 30
0.0
 10
-28.1202
 20
42.0529
 30
0.0
 10
-28.1211
 20
42.031
 30
0.0
 10
-28.1211
 20
42.031
 30
0.0
 10
-28.1211
 20
42.031
 30
0.0
 10
-28.1211
 20
42.031
 30
0.0
 10
-28.1219
 20
42.0051
 30
0.0
 10
-28.1219
 20
42.0051
 30
0.0
 10
-28.1219
 20
42.0051
 30
0.0
 10
-28.1219
 20
42.0051
 30
0.0
 10
-28.1225
 20
41.9758
 30
0.0
 10
-28.1225
 20
41.9758
 30
0.0
 10
-28.1225
 20
41.9758
 30
0.0
 10
-28.1225
 20
41.9758
 30
0.0
 10
-28.1227
 20
41.9436
 30
0.0
 10
-28.1227
 20
41.9436
 30
0.0
 10
-28.1227
 20
41.9436
 30
0.0
 10
-28.1227
 20
41.9436
 30
0.0
 10
-28.1225
 20
41.9088
 30
0.0
 10
-28.1225
 20
41.9088
 30
0.0
 10
-28.1225
 20
41.9088
 30
0.0
 10
-28.1225
 20
41.9088
 30
0.0
 10
-28.1222
 20
41.8942
 30
0.0
 10
-28.1222
 20
41.8942
 30
0.0
  0
SPLINE
  5
DB
330
1F
100
AcDbEntity
  8
DEFAULT_1
 62
   250
100
AcDbSpline
210
0.0
220
0.0
230
1.0
 70
     8
 71
     3
 72
    16
 73
    12
 74
     0
 42
0.0000000001
 43
0.0000000001
 40
0.0
 40
0.0
 40
0.0
 40
0.0
 40
0.25
 40
0.25
 40
0.25
 40
0.25
 40
0.5
 40
0.5
 40
0.5
 40
0.5
 40
1.0
 40
1.0
 40
1.0
 40
1.0
 10
-28.1222
 20
41.8942
 30
0.0
 10
-28.1222
 20
41.8942
 30
0.0
 10
-28.1218
 20
41.872
 30
0.0
 10
-28.1218
 20
41.872
 30
0.0
 10
-28.1218
 20
41.872
 30
0.0
 10
-28.1218
 20
41.872
 30
0.0
 10
-28.1209
 20
41.8334
 30
0.0
 10
-28.1209
 20
41.8334
 30
0.0
 10
-28.1209
 20
41.8334
 30
0.0
 10
-28.1209
 20
41.8334
 30
0.0
 10
-28.12
 20
41.7934
 30
0.0
 10
-28.12
 20
41.7934
 30
0.0
  0
SPLINE
  5
DC
330
1F
100
AcDbEntity
  8
DEFAULT_1
 62
   250
100
AcDbSpline
210
0.0
220
0.0
230
1.0
 70
    24
 71
     3
 72
    12
 73
     8
 74
     0
 42
0.0000000001
 43
0.0000000001
 40
0.0
 40
0.0
 40
0.0
 40
0.0
 40
0.3333333333333333
 40
0.3333333333333333
 40
0.3333333333333333
 40
0.3333333333333333
 40
1.0
 40
1.0
 40
1.0
 40
1.0
 10
-28.9286
 20
40.4834
 30
0.0
 10
-28.9286
 20
40.4834
 30
0.0
 10
-28.9276
 20
40.4834
 30
0.0
 10
-28.9276
 20
40.4834
 30
0.0
 10
-28.9276
 20
40.4834
 30
0.0
 10
-28.9276
 20
40.4834
 30
0.0
 10
-28.9266
 20
40.4834
 30
0.0
 10
-28.9266
 20
40.4834
 30
0.0
  0
SPLINE
  5
DD
330
1F
100
AcDbEntity
  8
DEFAULT_1
 62
   250
100
AcDbSpline
210
0.0
220
0.0
230
1.0
 70
     8
 71
     3
 72
    60
 73
    56
 74
     0
 42
0.0000000001
 43
0.0000000001
 40
0.0
 40
0.0
 40
0.0
 40
0.0
 40
0.0666666666666667
 40
0.0666666666666667
 40
0.0666666666666667
 40
0.0666666666666667
 40
0.1333333333333333
 40
0.1333333333333333
 40
0.1333333333333333
 40
0.1333333333333333
 40
0.2
 40
0.2
 40
0.2
 40
0.2
 40
0.2666666666666667
 40
0.2666666666666667
 40
0.2666666666666667
 40
0.2666666666666667
 40
0.3333333333333333
 40
0.3333333333333333
 40
0.3333333333333333
 40
0.3333333333333333
 40
0.4
 40
0.4
 40
0.4
 40
0.4
 40
0.4666666666666667
 40
0.4666666666666667
 40
0.4666666666666667
 40
0.4666666666666667
 40
0.5333333333333333
 40
0.5333333333333333
 40
0.5333333333333333
 40
0.5333333333333333
 40
0.6
 40
0.6
 40
0.6
 40
0.6
 40
0.6666666666666666
 40
0.6666666666666666
 40
0.6666666666666666
 40
0.6666666666666666
 40
0.7333333333333333
 40
0.7333333333333333
 40
0.7333333333333333
 40
0.7333333333333333
 40
0.8
 40
0.8
 40
0.8
 40
0.8
 40
0.8666666666666667
 40
0.8666666666666667
 40
0.8666666666666667
 40
0.8666666666666667
 40
1.0
 40
1.0
 40
1.0
 40
1.0
 10
-28.9266
 20
40.4834
 30
0.0
 10
-28.9266
 20
40.4834
 30
0.0
 10
-28.8505
 20
40.4843
 30
0.0
 10
-28.8505
 20
40.4843
 30
0.0
 10
-28.8505
 20
40.4843
 30
0.0
 10
-28.8505
 20
40.4843
 30
0.0
 10
-28.7739
 20
40.487
 30
0.0
 10
-28.7739
 20
40.487
 30
0.0
 10
-28.7739
 20
40.487
 30
0.0
 10
-28.7739
 20
40.487
 30
0.0
 10
-28.698
 20
40.4917
 30
0.0
 10
-28.698
 20
40.4917
 30
0.0
 10
-28.698
 20
40.4917
 30
0.0
 10
-28.698
 20
40.4917
 30
0.0
 10
-28.6228
 20
40.4982
 30
0.0
 10
-28.6228
 20
40.4982
 30
0.0
 10
-28.6228
 20
40.4982
 30
0.0
 10
-28.6228
 20
40.4982
 30
0.0
 10
-28.5483
 20
40.5069
 30
0.0
 10
-28.5483
 20
40.5069
 30
0.0
 10
-28.5483
 20
40.5069
 30
0.0
 10
-28.5483
 20
40.5069
 30
0.0
 10
-28.475
 20
40.5177
 30
0.0
 10
-28.475
 20
40.5177
 30
0.0
 10
-28.475
 20
40.5177
 30
0.0
 10
-28.475
 20
40.5177
 30
0.0
 10
-28.4045
 20
40.5307
 30
0.0
 10
-28.4045
 20
40.5307
 30
0.0
 10
-28.4045
 20
40.5307
 30
0.0
 10
-28.4045
 20
40.5307
 30
0.0
 10
-28.3385
 20
40.5459
 30
0.0
 10
-28.3385
 20
40.5459
 30
0.0
 10
-28.3385
 20
40.5459
 30
0.0
 10
-28.3385
 20
40.5459
 30
0.0
 10
-28.278
 20
40.5631
 30
0.0
 10
-28.278
 20
40.5631
 30
0.0
 10
-28.278
 20
40.5631
 30
0.0
 10
-28.278
 20
40.5631
 30
0.0
 10
-28.2244
 20
40.5823
 30
0.0
 10
-28.2244
 20
40.5823
 30
0.0
 10
-28.2244
 20
40.5823
 30
0.0
 10
-28.2244
 20
40.5823
 30
0.0
 10
-28.1801
 20
40.6033
 30
0.0
 10
-28.1801
 20
40.6033
 30
0.0
 10
-28.1801
 20
40.6033
 30
0.0
 10
-28.1801
 20
40.6033
 30
0.0
 10
-28.1468
 20
40.6254
 30
0.0
 10
-28.1468
 20
40.6254
 30
0.0
 10
-28.1468
 20
40.6254
 30
0.0
 10
-28.1468
 20
40.6254
 30
0.0
 10
-28.1263
 20
40.6482
 30
0.0
 10
-28.1263
 20
40.6482
 30
0.0
 10
-28.1263
 20
40.6482
 30
0.0
 10
-28.1263
 20
40.6482
 30
0.0
 10
-28.1195
 20
40.671
 30
0.0
 10
-28.1195
 20
40.671
 30
0.0
  0
SPLINE
  5
DE
330
1F
100
AcDbEntity
  8
DEFAULT_1
 62
   250
100
AcDbSpline
210
0.0
220
0.0
230
1.0
 70
     8
 71
     3
 72
    60
 73
    56
 74
     0
 42
0.0000000001
 43
0.0000000001
 40
0.0
 40
0.0
 40
0.0
 40
0.0
 40
0.0666666666666667
 40
0.0666666666666667
 40
0.0666666666666667
 40
0.0666666666666667
 40
0.1333333333333333
 40
0.1333333333333333
 40
0.1333333333333333
 40
0.1333333333333333
 40
0.2
 40
0.2
 40
0.2
 40
0.2
 40
0.2666666666666667
 40
0.2666666666666667
 40
0.2666666666666667
 40
0.2666666666666667
 40
0.3333333333333333
 40
0.3333333333333333
 40
0.3333333333333333
 40
0.3333333333333333
 40
0.4
 40
0.4
 40
0.4
 40
0.4
 40
0.4666666666666667
 40
0.4666666666666667
 40
0.4666666666666667
 40
0.4666666666666667
 40
0.5333333333333333
 40
0.5333333333333333
 40
0.5333333333333333
 40
0.5333333333333333
 40
0.6
 40
0.6
 40
0.6
 40
0.6
 40
0.6666666666666666
 40
0.6666666666666666
 40
0.6666666666666666
 40
0.6666666666666666
 40
0.7333333333333333
 40
0.7333333333333333
 40
0.7333333333333333
 40
0.7333333333333333
 40
0.8
 40
0.8
 40
0.8
 40
0.8
 40
0.8666666666666667
 40
0.8666666666666667
 40
0.8666666666666667
 40
0.8666666666666667
 40
1.0
 40
1.0
 40
1.0
 40
1.0
 10
-29.7766
 20
40.6761
 30
0.0
 10
-29.7766
 20
40.6761
 30
0.0
 10
-29.7695
 20
40.6524
 30
0.0
 10
-29.7695
 20
40.6524
 30
0.0
 10
-29.7695
 20
40.6524
 30
0.0
 10
-29.7695
 20
40.6524
 30
0.0
 10
-29.7484
 20
40.629
 30
0.0
 10
-29.7484
 20
40.629
 30
0.0
 10
-29.7484
 20
40.629
 30
0.0
 10
-29.7484
 20
40.629
 30
0.0
 10
-29.7143
 20
40.606
 30
0.0
 10
-29.7143
 20
40.606
 30
0.0
 10
-29.7143
 20
40.606
 30
0.0
 10
-29.7143
 20
40.606
 30
0.0
 10
-29.6687
 20
40.5844
 30
0.0
 10
-29.6687
 20
40.5844
 30
0.0
 10
-29.6687
 20
40.5844
 30
0.0
 10
-29.6687
 20
40.5844
 30
0.0
 10
-29.6138
 20
40.5647
 30
0.0
 10
-29.6138
 20
40.5647
 30
0.0
 10
-29.6138
 20
40.5647
 30
0.0
 10
-29.6138
 20
40.5647
 30
0.0
 10
-29.5517
 20
40.547
 30
0.0
 10
-29.5517
 20
40.547
 30
0.0
 10
-29.5517
 20
40.547
 30
0.0
 10
-29.5517
 20
40.547
 30
0.0
 10
-29.484
 20
40.5315
 30
0.0
 10
-29.484
 20
40.5315
 30
0.0
 10
-29.484
 20
40.5315
 30
0.0
 10
-29.484
 20
40.5315
 30
0.0
 10
-29.4117
 20
40.5181
 30
0.0
 10
-29.4117
 20
40.5181
 30
0.0
 10
-29.4117
 20
40.5181
 30
0.0
 10
-29.4117
 20
40.5181
 30
0.0
 10
-29.3366
 20
40.5071
 30
0.0
 10
-29.3366
 20
40.5071
 30
0.0
 10
-29.3366
 20
40.5071
 30
0.0
 10
-29.3366
 20
40.5071
 30
0.0
 10
-29.2601
 20
40.4983
 30
0.0
 10
-29.2601
 20
40.4983
 30
0.0
 10
-29.2601
 20
40.4983
 30
0.0
 10
-29.2601
 20
40.4983
 30
0.0
 10
-29.183
 20
40.4916
 30
0.0
 10
-29.183
 20
40.4916
 30
0.0
 10
-29.183
 20
40.4916
 30
0.0
 10
-29.183
 20
40.4916
 30
0.0
 10
-29.1053
 20
40.4869
 30
0.0
 10
-29.1053
 20
40.4869
 30
0.0
 10
-29.1053
 20
40.4869
 30
0.0
 10
-29.1053
 20
40.4869
 30
0.0
 10
-29.0269
 20
40.4842
 30
0.0
 10
-29.0269
 20
40.4842
 30
0.0
 10
-29.0269
 20
40.4842
 30
0.0
 10
-29.0269
 20
40.4842
 30
0.0
 10
-28.9489
 20
40.4834
 30
0.0
 10
-28.9489
 20
40.4834
 30
0.0
  0
SPLINE
  5
DF
330
1F
100
AcDbEntity
  8
DEFAULT_1
 62
   250
100
AcDbSpline
210
0.0
220
0.0
230
1.0
 70
    24
 71
     3
 72
    12
 73
     8
 74
     0
 42
0.0000000001
 43
0.0000000001
 40
0.0
 40
0.0
 40
0.0
 40
0.0
 40
0.3333333333333333
 40
0.3333333333333333
 40
0.3333333333333333
 40
0.3333333333333333
 40
1.0
 40
1.0
 40
1.0
 40
1.0
 10
-28.9489
 20
40.4834
 30
0.0
 10
-28.9489
 20
40.4834
 30
0.0
 10
-28.9388
 20
40.4834
 30
0.0
 10
-28.9388
 20
40.4834
 30
0.0
 10
-28.9388
 20
40.4834
 30
0.0
 10
-28.9388
 20
40.4834
 30
0.0
 10
-28.9286
 20
40.4834
 30
0.0
 10
-28.9286
 20
40.4834
 30
0.0
  0
ENDSEC
  0
SECTION
  2
OBJECTS
  0
DICTIONARY
  5
C
330
0
100
AcDbDictionary
  3
ACAD_GROUP
350
D
  3
ACAD_LAYOUT
350
1A
  3
ACAD_MATERIAL
350
3B
  3
ACAD_MLEADERSTYLE
350
102
  3
ACAD_MLINESTYLE
350
17
  3
ACAD_PLOTSETTINGS
350
19
  3
ACAD_VISUALSTYLE
350
2A
  3
ACDBHEADERROUNDTRIPXREC
350
E0
  3
ACDBVARIABLEDICTIONARY
350
100
  0
DICTIONARY
  5
D
102
{ACAD_REACTORS
330
C
102
}
330
C
100
AcDbDictionary
  0
DICTIONARY
  5
1A
102
{ACAD_REACTORS
330
C
102
}
330
C
100
AcDbDictionary
  0
DICTIONARY
  5
3B
102
{ACAD_REACTORS
330
C
102
}
330
C
100
AcDbDictionary
  3
BYBLOCK
350
3D
  3
BYLAYER
350
3C
  3
GLOBAL
350
3E
  0
DICTIONARY
  5
102
102
{ACAD_REACTORS
330
C
102
}
330
C
100
AcDbDictionary
  0
DICTIONARY
  5
17
102
{ACAD_REACTORS
330
C
102
}
330
C
100
AcDbDictionary
  3
STANDARD
350
18
  0
DICTIONARY
  5
19
102
{ACAD_REACTORS
330
C
102
}
330
C
100
AcDbDictionary
  0
DICTIONARY
  5
2A
102
{ACAD_REACTORS
330
C
102
}
330
C
100
AcDbDictionary
  3
2DWIREFRAME
350
2F
  3
3D_HIDDEN
350
31
  3
3DWIREFRAME
350
30
  3
BASIC
350
32
  3
BRIGHTEN
350
36
  3
COLORCHANGE
350
3A
  3
CONCEPTUAL
350
34
  3
DIM
350
35
  3
FACEPATTERN
350
39
  3
FLAT
350
2B
  3
FLATWITHEDGES
350
2C
  3
GOURAUD
350
2D
  3
GOURAUDWITHEDGES
350
2E
  3
LINEPATTERN
350
38
  3
REALISTIC
350
33
  3
THICKEN
350
37
  0
DICTIONARY
  5
E0
102
{ACAD_REACTORS
330
C
102
}
330
C
100
AcDbDictionary
  3
CEPSNTYPE
350
E9
  3
DIMSTYLEDATA
350
FF
  3
FINGERPRINTGUID
350
EA
  3
HYPERLINKBASE
350
E3
  3
INSUNITS
350
E8
  3
LAYOUTDICT
350
E5
  3
LWETCUNION
350
E7
  3
PLOTSETDICT
350
E6
  3
PSVPSCALE
350
EC
  3
PUCSBASE
350
EF
  3
PUCSORGBACK
350
F5
  3
PUCSORGBOTTOM
350
F1
  3
PUCSORGFRONT
350
F4
  3
PUCSORGLEFT
350
F2
  3
PUCSORGRIGHT
350
F3
  3
PUCSORGTOP
350
F0
  3
PUCSORTHOREF
350
ED
  3
PUCSORTHOVIEW
350
EE
  3
STYLESHEET
350
E4
  3
TSTACKALIGN
350
E1
  3
TSTACKSIZE
350
E2
  3
UCSBASE
350
F8
  3
UCSORGBACK
350
FE
  3
UCSORGBOTTOM
350
FA
  3
UCSORGFRONT
350
FD
  3
UCSORGLEFT
350
FB
  3
UCSORGRIGHT
350
FC
  3
UCSORGTOP
350
F9
  3
UCSORTHOREF
350
F6
  3
UCSORTHOVIEW
350
F7
  3
VERSIONGUID
350
EB
  0
DICTIONARY
  5
100
102
{ACAD_REACTORS
330
C
102
}
330
C
100
AcDbDictionary
  3
DIMASSOC
350
103
  3
HIDETEXT
350
104
  0
MATERIAL
  5
3D
102
{ACAD_REACTORS
330
3B
102
}
102
{ACAD_XDICTIONARY
360
107
102
}
330
3B
100
AcDbMaterial
  1
ByBlock
  0
MATERIAL
  5
3C
102
{ACAD_REACTORS
330
3B
102
}
102
{ACAD_XDICTIONARY
360
105
102
}
330
3B
100
AcDbMaterial
  1
ByLayer
  0
MATERIAL
  5
3E
102
{ACAD_REACTORS
330
3B
102
}
102
{ACAD_XDICTIONARY
360
109
102
}
330
3B
100
AcDbMaterial
  1
Global
  0
MLINESTYLE
  5
18
102
{ACAD_REACTORS
330
17
102
}
330
17
100
AcDbMlineStyle
  2
Standard
 70
     0
  3

 62
   256
 51
90.0
 52
90.0
 71
     2
 49
0.5
 62
   256
  6
BYLAYER
 49
-0.5
 62
   256
  6
BYLAYER
  0
ACAD_PROXY_OBJECT
  5
2F
102
{ACAD_REACTORS
330
2A
102
}
330
2A
100
AcDbProxyObject
 90
      499
 91
      501
 93
      436
310
42CC9915DA5C99599C985B595049028333333333333E3BF0000000000000FB0107901411070040501600405405064090741402480A0340
1001
ACAD
1000
AcDbSavedByObjectVersion
1070
     0
  0
ACAD_PROXY_OBJECT
  5
31
102
{ACAD_REACTORS
330
2A
102
}
330
2A
100
AcDbProxyObject
 90
      499
 91
      501
 93
      500
310
424CD108121A5919195B90640502408333333333333E3BF0000000000000FB01079024090700405020000000000001110200405405064090740C02480A0340
1001
ACAD
1000
AcDbSavedByObjectVersion
1070
     0
  0
ACAD_PROXY_OBJECT
  5
30
102
{ACAD_REACTORS
330
2A
102
}
330
2A
100
AcDbProxyObject
 90
      499
 91
      501
 93
      436
310
42CCD915DA5C99599C985B595059028333333333333E3BF0000000000000FB0107901411070040501600405405064090741402480A0340
1001
ACAD
1000
AcDbSavedByObjectVersion
1070
     0
  0
ACAD_PROXY_OBJECT
  5
32
102
{ACAD_REACTORS
330
2A
102
}
330
2A
100
AcDbProxyObject
 90
      499
 91
      501
 93
      388
310
4150985CDA58D07406404333333333333E3BF0000000000000FB0107A41107004050150841D405064090741402480A0350
1001
ACAD
1000
AcDbSavedByObjectVersion
1070
     0
  0
ACAD_PROXY_OBJECT
  5
36
102
{ACAD_REACTORS
330
2A
102
}
330
2A
100
AcDbProxyObject
 90
      499
 91
      501
 93
      428
310
42109C9A59DA1D195B90C409028333333333333E3BF0000000000000FB010790141107004050150841D405064090741402480A029950
1001
ACAD
1000
AcDbSavedByObjectVersion
1070
     0
  0
ACAD_PROXY_OBJECT
  5
3A
102
{ACAD_REACTORS
330
2A
102
}
330
2A
100
AcDbProxyObject
 90
      499
 91
      501
 93
      452
310
42D0DBDB1BDC90DA185B99D95104090240C333333333333E3BF0000000000000FB0108901411070040501508421405064090741402480A0350
1001
ACAD
1000
AcDbSavedByObjectVersion
1070
     0
  0
ACAD_PROXY_OBJECT
  5
34
102
{ACAD_REACTORS
330
2A
102
}
330
2A
100
AcDbProxyObject
 90
      499
 91
      501
 93
      500
310
4290DBDB98D95C1D1D585B10940D028333333333333E3BF0000000000000FB0107902409070040501000000000000111010841D405064090740C02480A0340
1001
ACAD
1000
AcDbSavedByObjectVersion
1070
     0
  0
ACAD_PROXY_OBJECT
  5
35
102
{ACAD_REACTORS
330
2A
102
}
330
2A
100
AcDbProxyObject
 90
      499
 91
      501
 93
      412
310
40D11A5B50B409028333333333333E3BF0000000000000FB010790141107004050150841D405064090741402480A02677FFFFFD0
1001
ACAD
1000
AcDbSavedByObjectVersion
1070
     0
  0
ACAD_PROXY_OBJECT
  5
39
102
{ACAD_REACTORS
330
2A
102
}
330
2A
100
AcDbProxyObject
 90
      499
 91
      501
 93
      444
310
42D19858D95C185D1D195C9B90F409028333333333333E3BF0000000000000FB010790141107004050150841D405064090741402480A0350
1001
ACAD
1000
AcDbSavedByObjectVersion
1070
     0
  0
ACAD_PROXY_OBJECT
  5
2B
102
{ACAD_REACTORS
330
2A
102
}
330
2A
100
AcDbProxyObject
 90
      499
 91
      501
 93
      388
310
41119B185D240901404333333333333E3BF0000000000000F9010740A41107004050150841D405064090741402480A1B50
1001
ACAD
1000
AcDbSavedByObjectVersion
1070
     0
  0
ACAD_PROXY_OBJECT
  5
2C
102
{ACAD_REACTORS
330
2A
102
}
330
2A
100
AcDbProxyObject
 90
      499
 91
      501
 93
      476
310
43519B185D15DA5D1A115919D95CD0140901404333333333333E3BF0000000000000F9010740901411070040501600405405064090741402480A1B50
1001
ACAD
1000
AcDbSavedByObjectVersion
1070
     0
  0
ACAD_PROXY_OBJECT
  5
2D
102
{ACAD_REACTORS
330
2A
102
}
330
2A
100
AcDbProxyObject
 90
      499
 91
      501
 93
      412
310
41D1DBDD5C985D5910240902404333333333333E3BF0000000000000F9010740A411070040501641D405064090741402480A1B50
1001
ACAD
1000
AcDbSavedByObjectVersion
1070
     0
  0
ACAD_PROXY_OBJECT
  5
2E
102
{ACAD_REACTORS
330
2A
102
}
330
2A
100
AcDbProxyObject
 90
      499
 91
      501
 93
      500
310
4411DBDD5C985D5915DA5D1A115919D95CD0340902404333333333333E3BF0000000000000F9010740901411070040501600405405064090741402480A1B50
1001
ACAD
1000
AcDbSavedByObjectVersion
1070
     0
  0
ACAD_PROXY_OBJECT
  5
38
102
{ACAD_REACTORS
330
2A
102
}
330
2A
100
AcDbProxyObject
 90
      499
 91
      501
 93
      444
310
42D31A5B995C185D1D195C9B90E409028333333333333E3BF0000000000000FB010790141107004050750841D405064090741402483A0350
1001
ACAD
1000
AcDbSavedByObjectVersion
1070
     0
  0
ACAD_PROXY_OBJECT
  5
33
102
{ACAD_REACTORS
330
2A
102
}
330
2A
100
AcDbProxyObject
 90
      499
 91
      501
 93
      420
310
425499585B1A5CDD1A58D08409028333333333333E3BF0000000000000FB01079019070040501508421405064090741402480A1B40
1001
ACAD
1000
AcDbSavedByObjectVersion
1070
     0
  0
ACAD_PROXY_OBJECT
  5
37
102
{ACAD_REACTORS
330
2A
102
}
330
2A
100
AcDbProxyObject
 90
      499
 91
      501
 93
      412
310
41D51A1A58DAD95B90D409028333333333333E3BF0000000000000FB010790141107004050150C41D405064090741402480A0350
1001
ACAD
1000
AcDbSavedByObjectVersion
1070
     0
  0
XRECORD
  5
E9
102
{ACAD_REACTORS
330
E0
102
}
330
E0
100
AcDbXrecord
 90
        0
  0
XRECORD
  5
FF
102
{ACAD_REACTORS
330
E0
102
}
330
E0
100
AcDbXrecord
1000
DSTYLE
1002
{
1070
   340
340
11
1002
}
  0
XRECORD
  5
EA
102
{ACAD_REACTORS
330
E0
102
}
330
E0
100
AcDbXrecord
  1
{9798E1BA-DD67-4B0C-A229-B7A6C7282DD9}
  0
XRECORD
  5
E3
102
{ACAD_REACTORS
330
E0
102
}
330
E0
100
AcDbXrecord
  1

  0
XRECORD
  5
E8
102
{ACAD_REACTORS
330
E0
102
}
330
E0
100
AcDbXrecord
 90
        4
  0
XRECORD
  5
E5
102
{ACAD_REACTORS
330
E0
102
}
330
E0
100
AcDbXrecord
340
1A
  0
XRECORD
  5
E7
102
{ACAD_REACTORS
330
E0
102
}
330
E0
100
AcDbXrecord
 90
    10781
  0
XRECORD
  5
E6
102
{ACAD_REACTORS
330
E0
102
}
330
E0
100
AcDbXrecord
340
19
  0
XRECORD
  5
EC
102
{ACAD_REACTORS
330
E0
102
}
330
E0
100
AcDbXrecord
 40
0.0
  0
XRECORD
  5
EF
102
{ACAD_REACTORS
330
E0
102
}
330
E0
100
AcDbXrecord
340
0
  0
XRECORD
  5
F5
102
{ACAD_REACTORS
330
E0
102
}
330
E0
100
AcDbXrecord
 10
0.0
 20
0.0
 30
0.0
  0
XRECORD
  5
F1
102
{ACAD_REACTORS
330
E0
102
}
330
E0
100
AcDbXrecord
 10
0.0
 20
0.0
 30
0.0
  0
XRECORD
  5
F4
102
{ACAD_REACTORS
330
E0
102
}
330
E0
100
AcDbXrecord
 10
0.0
 20
0.0
 30
0.0
  0
XRECORD
  5
F2
102
{ACAD_REACTORS
330
E0
102
}
330
E0
100
AcDbXrecord
 10
0.0
 20
0.0
 30
0.0
  0
XRECORD
  5
F3
102
{ACAD_REACTORS
330
E0
102
}
330
E0
100
AcDbXrecord
 10
0.0
 20
0.0
 30
0.0
  0
XRECORD
  5
F0
102
{ACAD_REACTORS
330
E0
102
}
330
E0
100
AcDbXrecord
 10
0.0
 20
0.0
 30
0.0
  0
XRECORD
  5
ED
102
{ACAD_REACTORS
330
E0
102
}
330
E0
100
AcDbXrecord
340
0
  0
XRECORD
  5
EE
102
{ACAD_REACTORS
330
E0
102
}
330
E0
100
AcDbXrecord
 70
     0
  0
XRECORD
  5
E4
102
{ACAD_REACTORS
330
E0
102
}
330
E0
100
AcDbXrecord
  1

  0
XRECORD
  5
E1
102
{ACAD_REACTORS
330
E0
102
}
330
E0
100
AcDbXrecord
 90
        1
  0
XRECORD
  5
E2
102
{ACAD_REACTORS
330
E0
102
}
330
E0
100
AcDbXrecord
 90
       70
  0
XRECORD
  5
F8
102
{ACAD_REACTORS
330
E0
102
}
330
E0
100
AcDbXrecord
340
0
  0
XRECORD
  5
FE
102
{ACAD_REACTORS
330
E0
102
}
330
E0
100
AcDbXrecord
 10
0.0
 20
0.0
 30
0.0
  0
XRECORD
  5
FA
102
{ACAD_REACTORS
330
E0
102
}
330
E0
100
AcDbXrecord
 10
0.0
 20
0.0
 30
0.0
  0
XRECORD
  5
FD
102
{ACAD_REACTORS
330
E0
102
}
330
E0
100
AcDbXrecord
 10
0.0
 20
0.0
 30
0.0
  0
XRECORD
  5
FB
102
{ACAD_REACTORS
330
E0
102
}
330
E0
100
AcDbXrecord
 10
0.0
 20
0.0
 30
0.0
  0
XRECORD
  5
FC
102
{ACAD_REACTORS
330
E0
102
}
330
E0
100
AcDbXrecord
 10
0.0
 20
0.0
 30
0.0
  0
XRECORD
  5
F9
102
{ACAD_REACTORS
330
E0
102
}
330
E0
100
AcDbXrecord
 10
0.0
 20
0.0
 30
0.0
  0
XRECORD
  5
F6
102
{ACAD_REACTORS
330
E0
102
}
330
E0
100
AcDbXrecord
340
0
  0
XRECORD
  5
F7
102
{ACAD_REACTORS
330
E0
102
}
330
E0
100
AcDbXrecord
 70
     0
  0
XRECORD
  5
EB
102
{ACAD_REACTORS
330
E0
102
}
330
E0
100
AcDbXrecord
  1
{FAEB1C32-E019-11D5-929B-00C0DF256EC4}
  0
DICTIONARYVAR
  5
103
102
{ACAD_REACTORS
330
100
102
}
330
100
100
DictionaryVariables
280
     0
  1
2
  0
DICTIONARYVAR
  5
104
102
{ACAD_REACTORS
330
100
102
}
330
100
100
DictionaryVariables
280
     0
  1
1
  0
DICTIONARY
  5
107
330
3D
100
AcDbDictionary
280
     1
  3
ACAD_XREC_ROUNDTRIP
360
108
  0
DICTIONARY
  5
105
330
3C
100
AcDbDictionary
280
     1
  3
ACAD_XREC_ROUNDTRIP
360
106
  0
DICTIONARY
  5
109
330
3E
100
AcDbDictionary
280
     1
  3
ACAD_XREC_ROUNDTRIP
360
10A
  0
XRECORD
  5
108
102
{ACAD_REACTORS
330
107
102
}
330
107
100
AcDbXrecord
102
MATERIAL
148
0.0
149
0.0
149
0.0
 93
        0
 94
      127
282
     0
 72
     1
 77
     1
171
     1
175
     1
179
     1
273
     0
  0
XRECORD
  5
106
102
{ACAD_REACTORS
330
105
102
}
330
105
100
AcDbXrecord
102
MATERIAL
148
0.0
149
0.0
149
0.0
 93
        0
 94
      127
282
     0
 72
     1
 77
     1
171
     1
175
     1
179
     1
273
     0
  0
XRECORD
  5
10A
102
{ACAD_REACTORS
330
109
102
}
330
109
100
AcDbXrecord
102
MATERIAL
148
0.0
149
0.0
149
0.0
 93
        0
 94
      127
282
     0
 72
     1
 77
     1
171
     1
175
     1
179
     1
273
     0
  0
ENDSEC
  0
EOF
