  0
SECTION
  2
HEADER
  9
$ACADVER
  1
AC1014
  9
$ACADMAINTVER
 70
     9
  9
$DWGCODEPAGE
  3
ANSI_1250
  9
$INSBASE
 10
0.0
 20
0.0
 30
0.0
  9
$EXTMIN
 10
-51.8722
 20
-15.3558
 30
0.0
  9
$EXTMAX
 10
52.0136
 20
15.3555
 30
0.0
  9
$LIMMIN
 10
0.0
 20
0.0
  9
$LIMMAX
 10
12.0
 20
9.0
  9
$ORTHOMODE
 70
     0
  9
$REGENMODE
 70
     1
  9
$FILLMODE
 70
     1
  9
$QTEXTMODE
 70
     0
  9
$MIRRTEXT
 70
     1
  9
$DRAGMODE
 70
     2
  9
$LTSCALE
 40
1.0
  9
$OSMODE
 70
    37
  9
$ATTMODE
 70
     1
  9
$TEXTSIZE
 40
0.2
  9
$TRACEWID
 40
0.05
  9
$TEXTSTYLE
  7
STANDARD
  9
$CLAYER
  8
0
  9
$CELTYPE
  6
BYLAYER
  9
$CECOLOR
 62
   256
  9
$CELTSCALE
 40
1.0
  9
$DELOBJ
 70
     1
  9
$DISPSILH
 70
     0
  9
$DIMSCALE
 40
1.0
  9
$DIMASZ
 40
0.18
  9
$DIMEXO
 40
0.0625
  9
$DIMDLI
 40
0.38
  9
$DIMRND
 40
0.0
  9
$DIMDLE
 40
0.0
  9
$DIMEXE
 40
0.18
  9
$DIMTP
 40
0.0
  9
$DIMTM
 40
0.0
  9
$DIMTXT
 40
0.18
  9
$DIMCEN
 40
0.09
  9
$DIMTSZ
 40
0.0
  9
$DIMTOL
 70
     0
  9
$DIMLIM
 70
     0
  9
$DIMTIH
 70
     1
  9
$DIMTOH
 70
     1
  9
$DIMSE1
 70
     0
  9
$DIMSE2
 70
     0
  9
$DIMTAD
 70
     0
  9
$DIMZIN
 70
     0
  9
$DIMBLK
  1

  9
$DIMASO
 70
     1
  9
$DIMSHO
 70
     1
  9
$DIMPOST
  1

  9
$DIMAPOST
  1

  9
$DIMALT
 70
     0
  9
$DIMALTD
 70
     2
  9
$DIMALTF
 40
25.4
  9
$DIMLFAC
 40
1.0
  9
$DIMTOFL
 70
     0
  9
$DIMTVP
 40
0.0
  9
$DIMTIX
 70
     0
  9
$DIMSOXD
 70
     0
  9
$DIMSAH
 70
     0
  9
$DIMBLK1
  1

  9
$DIMBLK2
  1

  9
$DIMSTYLE
  2
STANDARD
  9
$DIMCLRD
 70
     0
  9
$DIMCLRE
 70
     0
  9
$DIMCLRT
 70
     0
  9
$DIMTFAC
 40
1.0
  9
$DIMGAP
 40
0.09
  9
$DIMJUST
 70
     0
  9
$DIMSD1
 70
     0
  9
$DIMSD2
 70
     0
  9
$DIMTOLJ
 70
     1
  9
$DIMTZIN
 70
     0
  9
$DIMALTZ
 70
     0
  9
$DIMALTTZ
 70
     0
  9
$DIMFIT
 70
     3
  9
$DIMUPT
 70
     0
  9
$DIMUNIT
 70
     2
  9
$DIMDEC
 70
     4
  9
$DIMTDEC
 70
     4
  9
$DIMALTU
 70
     2
  9
$DIMALTTD
 70
     2
  9
$DIMTXSTY
  7
STANDARD
  9
$DIMAUNIT
 70
     0
  9
$LUNITS
 70
     2
  9
$LUPREC
 70
     4
  9
$SKETCHINC
 40
0.1
  9
$FILLETRAD
 40
0.5
  9
$AUNITS
 70
     0
  9
$AUPREC
 70
     0
  9
$MENU
  1
.
  9
$ELEVATION
 40
0.0
  9
$PELEVATION
 40
0.0
  9
$THICKNESS
 40
0.0
  9
$LIMCHECK
 70
     0
  9
$CHAMFERA
 40
0.5
  9
$CHAMFERB
 40
0.5
  9
$CHAMFERC
 40
1.0
  9
$CHAMFERD
 40
0.0
  9
$SKPOLY
 70
     0
  9
$TDCREATE
 40
2456272.362187732
  9
$TDUPDATE
 40
2456272.362187743
  9
$TDINDWG
 40
0.0000000116
  9
$TDUSRTIMER
 40
0.0000000116
  9
$USRTIMER
 70
     1
  9
$ANGBASE
 50
0.0
  9
$ANGDIR
 70
     0
  9
$PDMODE
 70
     0
  9
$PDSIZE
 40
0.0
  9
$PLINEWID
 40
0.0
  9
$COORDS
 70
     1
  9
$SPLFRAME
 70
     0
  9
$SPLINETYPE
 70
     6
  9
$SPLINESEGS
 70
     8
  9
$ATTDIA
 70
     0
  9
$ATTREQ
 70
     1
  9
$HANDLING
 70
     1
  9
$HANDSEED
  5
BC
  9
$SURFTAB1
 70
     6
  9
$SURFTAB2
 70
     6
  9
$SURFTYPE
 70
     6
  9
$SURFU
 70
     6
  9
$SURFV
 70
     6
  9
$UCSNAME
  2

  9
$UCSORG
 10
0.0
 20
0.0
 30
0.0
  9
$UCSXDIR
 10
1.0
 20
0.0
 30
0.0
  9
$UCSYDIR
 10
0.0
 20
1.0
 30
0.0
  9
$PUCSNAME
  2

  9
$PUCSORG
 10
0.0
 20
0.0
 30
0.0
  9
$PUCSXDIR
 10
1.0
 20
0.0
 30
0.0
  9
$PUCSYDIR
 10
0.0
 20
1.0
 30
0.0
  9
$USERI1
 70
     0
  9
$USERI2
 70
     0
  9
$USERI3
 70
     0
  9
$USERI4
 70
     0
  9
$USERI5
 70
     0
  9
$USERR1
 40
0.0
  9
$USERR2
 40
0.0
  9
$USERR3
 40
0.0
  9
$USERR4
 40
0.0
  9
$USERR5
 40
0.0
  9
$WORLDVIEW
 70
     1
  9
$SHADEDGE
 70
     3
  9
$SHADEDIF
 70
    70
  9
$TILEMODE
 70
     1
  9
$MAXACTVP
 70
    64
  9
$PINSBASE
 10
0.0
 20
0.0
 30
0.0
  9
$PLIMCHECK
 70
     0
  9
$PEXTMIN
 10
1.000000000000000E+20
 20
1.000000000000000E+20
 30
1.000000000000000E+20
  9
$PEXTMAX
 10
-1.000000000000000E+20
 20
-1.000000000000000E+20
 30
-1.000000000000000E+20
  9
$PLIMMIN
 10
0.0
 20
0.0
  9
$PLIMMAX
 10
12.0
 20
9.0
  9
$UNITMODE
 70
     0
  9
$VISRETAIN
 70
     1
  9
$PLINEGEN
 70
     0
  9
$PSLTSCALE
 70
     1
  9
$TREEDEPTH
 70
  3020
  9
$PICKSTYLE
 70
     1
  9
$CMLSTYLE
  2
STANDARD
  9
$CMLJUST
 70
     0
  9
$CMLSCALE
 40
1.0
  9
$PROXYGRAPHICS
 70
     1
  9
$MEASUREMENT
 70
     0
  0
ENDSEC
  0
SECTION
  2
CLASSES
  0
CLASS
  1
ACDBDICTIONARYWDFLT
  2
AcDbDictionaryWithDefault
  3
ObjectDBX Classes
 90
        0
280
     0
281
     0
  0
CLASS
  1
VISUALSTYLE
  2
AcDbVisualStyle
  3
ObjectDBX Classes
 90
     4095
280
     0
281
     0
  0
CLASS
  1
MATERIAL
  2
AcDbMaterial
  3
ObjectDBX Classes
 90
     1153
280
     0
281
     0
  0
CLASS
  1
DICTIONARYVAR
  2
AcDbDictionaryVar
  3
ObjectDBX Classes
 90
        0
280
     0
281
     0
  0
CLASS
  1
XRECORD
  2
AcDbXrecord
  3
AutoCAD 2000
 90
        0
280
     0
281
     0
  0
CLASS
  1
LWPOLYLINE
  2
AcDbPolyline
  3
AutoCAD 2000
 90
        0
280
     0
281
     1
  0
CLASS
  1
HATCH
  2
AcDbHatch
  3
AutoCAD 2000
 90
        0
280
     0
281
     1
  0
CLASS
  1
ACDBPLACEHOLDER
  2
AcDbPlaceHolder
  3
ObjectDBX Classes
 90
        0
280
     0
281
     0
  0
CLASS
  1
LAYOUT
  2
AcDbLayout
  3
ObjectDBX Classes
 90
        0
280
     0
281
     0
  0
ENDSEC
  0
SECTION
  2
TABLES
  0
TABLE
  2
VPORT
  5
8
330
0
100
AcDbSymbolTable
 70
     1
  0
VPORT
  5
29
330
8
100
AcDbSymbolTableRecord
100
AcDbViewportTableRecord
  2
*ACTIVE
 70
     0
 10
0.0
 20
0.0
 11
1.0
 21
1.0
 12
10.42990654205607
 22
4.5
 13
0.0
 23
0.0
 14
0.5
 24
0.5
 15
0.5
 25
0.5
 16
0.0
 26
0.0
 36
1.0
 17
0.0
 27
0.0
 37
0.0
 40
9.0
 41
1.972972972850329
 42
50.0
 43
0.0
 44
0.0
 50
0.0
 51
0.0
 71
     0
 72
   100
 73
     1
 74
     3
 75
     0
 76
     0
 77
     0
 78
     0
  0
ENDTAB
  0
TABLE
  2
LTYPE
  5
5
330
0
100
AcDbSymbolTable
 70
     2
  0
LTYPE
  5
14
330
5
100
AcDbSymbolTableRecord
100
AcDbLinetypeTableRecord
  2
BYBLOCK
 70
     0
  3

 72
    65
 73
     0
 40
0.0
  0
LTYPE
  5
15
330
5
100
AcDbSymbolTableRecord
100
AcDbLinetypeTableRecord
  2
BYLAYER
 70
     0
  3

 72
    65
 73
     0
 40
0.0
  0
LTYPE
  5
16
330
5
100
AcDbSymbolTableRecord
100
AcDbLinetypeTableRecord
  2
CONTINUOUS
 70
     0
  3
Solid line
 72
    65
 73
     0
 40
0.0
  0
LTYPE
  5
6E
330
5
100
AcDbSymbolTableRecord
100
AcDbLinetypeTableRecord
  2
NEW_LINE1
 70
     0
  3

 72
    65
 73
     4
 40
1.2
 49
0.5
 74
     4
 75
     0
340
0
 46
1.0
 50
0.0
 44
0.0
 45
0.0
 49
-0.3
 74
     4
 75
     0
340
0
 46
1.0
 50
0.0
 44
0.0
 45
0.0
 49
0.1
 74
     4
 75
     0
340
0
 46
1.0
 50
0.0
 44
0.0
 45
0.0
 49
-0.3
 74
     4
 75
     0
340
0
 46
1.0
 50
0.0
 44
0.0
 45
0.0
  0
ENDTAB
  0
TABLE
  2
LAYER
  5
2
330
0
100
AcDbSymbolTable
 70
     2
  0
LAYER
  5
10
330
2
100
AcDbSymbolTableRecord
100
AcDbLayerTableRecord
  2
0
 70
     0
 62
     7
  6
CONTINUOUS
  0
LAYER
  5
40
330
2
100
AcDbSymbolTableRecord
100
AcDbLayerTableRecord
  2
VRSTVA_1
 70
     0
 62
     7
  6
CONTINUOUS
  0
ENDTAB
  0
TABLE
  2
STYLE
  5
3
330
0
100
AcDbSymbolTable
 70
     1
  0
STYLE
  5
11
330
3
100
AcDbSymbolTableRecord
100
AcDbTextStyleTableRecord
  2
STANDARD
 70
     0
 40
0.0
 41
1.0
 50
0.0
 71
     0
 42
0.2
  3
txt
  4

  0
ENDTAB
  0
TABLE
  2
VIEW
  5
6
330
0
100
AcDbSymbolTable
 70
     0
  0
ENDTAB
  0
TABLE
  2
UCS
  5
7
330
0
100
AcDbSymbolTable
 70
     0
  0
ENDTAB
  0
TABLE
  2
APPID
  5
9
330
0
100
AcDbSymbolTable
 70
     2
  0
APPID
  5
12
330
9
100
AcDbSymbolTableRecord
100
AcDbRegAppTableRecord
  2
ACAD
 70
     0
  0
APPID
  5
3F
330
9
100
AcDbSymbolTableRecord
100
AcDbRegAppTableRecord
  2
ODA
 70
     0
  0
ENDTAB
  0
TABLE
  2
DIMSTYLE
  5
A
330
0
100
AcDbSymbolTable
 70
     1
  0
DIMSTYLE
105
27
330
A
100
AcDbSymbolTableRecord
100
AcDbDimStyleTableRecord
  2
STANDARD
 70
     0
  3

  4

  5

  6

  7

 40
1.0
 41
0.18
 42
0.0625
 43
0.38
 44
0.18
 45
0.0
 46
0.0
 47
0.0
 48
0.0
140
0.18
141
0.09
142
0.0
143
25.4
144
1.0
145
0.0
146
1.0
147
0.09
 71
     0
 72
     0
 73
     1
 74
     1
 75
     0
 76
     0
 77
     0
 78
     0
170
     0
171
     2
172
     0
173
     0
174
     0
175
     0
176
     0
177
     0
178
     0
270
     2
271
     4
272
     4
273
     2
274
     2
340
11
275
     0
280
     0
281
     0
282
     0
283
     1
284
     0
285
     0
286
     0
287
     3
288
     0
  0
ENDTAB
  0
TABLE
  2
BLOCK_RECORD
  5
1
330
0
100
AcDbSymbolTable
 70
     1
  0
BLOCK_RECORD
  5
1F
330
1
100
AcDbSymbolTableRecord
100
AcDbBlockTableRecord
  2
*MODEL_SPACE
  0
BLOCK_RECORD
  5
1B
330
1
100
AcDbSymbolTableRecord
100
AcDbBlockTableRecord
  2
*PAPER_SPACE
  0
ENDTAB
  0
ENDSEC
  0
SECTION
  2
BLOCKS
  0
BLOCK
  5
20
330
1F
100
AcDbEntity
  8
0
100
AcDbBlockBegin
  2
*MODEL_SPACE
 70
     0
 10
0.0
 20
0.0
 30
0.0
  3
*MODEL_SPACE
  1

  0
ENDBLK
  5
21
330
1F
100
AcDbEntity
  8
0
100
AcDbBlockEnd
  0
BLOCK
  5
1C
330
1B
100
AcDbEntity
 67
     1
  8
0
100
AcDbBlockBegin
  2
*PAPER_SPACE
 70
     0
 10
0.0
 20
0.0
 30
0.0
  3
*PAPER_SPACE
  1

  0
ENDBLK
  5
1D
330
1B
100
AcDbEntity
 67
     1
  8
0
100
AcDbBlockEnd
  0
ENDSEC
  0
SECTION
  2
ENTITIES
  0
SPLINE
  5
41
330
1F
100
AcDbEntity
  8
VRSTVA_1
 62
   250
100
AcDbSpline
210
0.0
220
0.0
230
1.0
 70
    24
 71
     3
 72
     8
 73
     4
 74
     0
 42
0.0000000001
 43
0.0000000001
 40
0.0
 40
0.0
 40
0.0
 40
0.0
 40
1.0
 40
1.0
 40
1.0
 40
1.0
 10
-49.3715
 20
-8.7682
 30
0.0
 10
-49.3715
 20
-8.7682
 30
0.0
 10
-49.3715
 20
15.3555
 30
0.0
 10
-49.3715
 20
15.3555
 30
0.0
  0
SPLINE
  5
42
330
1F
100
AcDbEntity
  8
VRSTVA_1
 62
   250
100
AcDbSpline
210
0.0
220
0.0
230
1.0
 70
    27
 71
     3
 72
    12
 73
     8
 74
     0
 42
0.0000000001
 43
0.0000000001
 40
0.0
 40
0.0
 40
0.0
 40
0.0
 40
0.3333333333333333
 40
0.3333333333333333
 40
0.3333333333333333
 40
0.3333333333333333
 40
1.0
 40
1.0
 40
1.0
 40
1.0
 10
50.4339
 20
-14.6974
 30
0.0
 10
50.4339
 20
-14.6974
 30
0.0
 10
-44.6767
 20
-14.6974
 30
0.0
 10
-44.6767
 20
-14.6974
 30
0.0
 10
-44.6767
 20
-14.6974
 30
0.0
 10
-44.6767
 20
-14.6974
 30
0.0
 10
50.4339
 20
-14.6974
 30
0.0
 10
50.4339
 20
-14.6974
 30
0.0
  0
SPLINE
  5
43
330
1F
100
AcDbEntity
  8
VRSTVA_1
 62
   250
100
AcDbSpline
210
0.0
220
0.0
230
1.0
 70
    11
 71
     3
 72
    20
 73
    16
 74
     0
 42
0.0000000001
 43
0.0000000001
 40
0.0
 40
0.0
 40
0.0
 40
0.0
 40
0.2
 40
0.2
 40
0.2
 40
0.2
 40
0.4
 40
0.4
 40
0.4
 40
0.4
 40
0.6
 40
0.6
 40
0.6
 40
0.6
 40
1.0
 40
1.0
 40
1.0
 40
1.0
 10
-49.8516
 20
-7.6923
 30
0.0
 10
-49.8516
 20
-7.6923
 30
0.0
 10
-49.4284
 20
-4.6923
 30
0.0
 10
-49.4284
 20
-4.6923
 30
0.0
 10
-49.4284
 20
-4.6923
 30
0.0
 10
-49.4284
 20
-4.6923
 30
0.0
 10
-49.3343
 20
-4.6923
 30
0.0
 10
-49.3343
 20
-4.6923
 30
0.0
 10
-49.3343
 20
-4.6923
 30
0.0
 10
-49.3343
 20
-4.6923
 30
0.0
 10
-48.8829
 20
-7.6923
 30
0.0
 10
-48.8829
 20
-7.6923
 30
0.0
 10
-48.8829
 20
-7.6923
 30
0.0
 10
-48.8829
 20
-7.6923
 30
0.0
 10
-49.8516
 20
-7.6923
 30
0.0
 10
-49.8516
 20
-7.6923
 30
0.0
  0
SPLINE
  5
44
330
1F
100
AcDbEntity
  8
VRSTVA_1
 62
   250
100
AcDbSpline
210
0.0
220
0.0
230
1.0
 70
    11
 71
     3
 72
   124
 73
   120
 74
     0
 42
0.0000000001
 43
0.0000000001
 40
0.0
 40
0.0
 40
0.0
 40
0.0
 40
0.032258064516129
 40
0.032258064516129
 40
0.032258064516129
 40
0.032258064516129
 40
0.0645161290322581
 40
0.0645161290322581
 40
0.0645161290322581
 40
0.0645161290322581
 40
0.0967741935483871
 40
0.0967741935483871
 40
0.0967741935483871
 40
0.0967741935483871
 40
0.1290322580645161
 40
0.1290322580645161
 40
0.1290322580645161
 40
0.1290322580645161
 40
0.1612903225806452
 40
0.1612903225806452
 40
0.1612903225806452
 40
0.1612903225806452
 40
0.1935483870967742
 40
0.1935483870967742
 40
0.1935483870967742
 40
0.1935483870967742
 40
0.2258064516129032
 40
0.2258064516129032
 40
0.2258064516129032
 40
0.2258064516129032
 40
0.2580645161290323
 40
0.2580645161290323
 40
0.2580645161290323
 40
0.2580645161290323
 40
0.2903225806451613
 40
0.2903225806451613
 40
0.2903225806451613
 40
0.2903225806451613
 40
0.3225806451612903
 40
0.3225806451612903
 40
0.3225806451612903
 40
0.3225806451612903
 40
0.3548387096774194
 40
0.3548387096774194
 40
0.3548387096774194
 40
0.3548387096774194
 40
0.3870967741935484
 40
0.3870967741935484
 40
0.3870967741935484
 40
0.3870967741935484
 40
0.4193548387096774
 40
0.4193548387096774
 40
0.4193548387096774
 40
0.4193548387096774
 40
0.4516129032258064
 40
0.4516129032258064
 40
0.4516129032258064
 40
0.4516129032258064
 40
0.4838709677419355
 40
0.4838709677419355
 40
0.4838709677419355
 40
0.4838709677419355
 40
0.5161290322580645
 40
0.5161290322580645
 40
0.5161290322580645
 40
0.5161290322580645
 40
0.5483870967741935
 40
0.5483870967741935
 40
0.5483870967741935
 40
0.5483870967741935
 40
0.5806451612903226
 40
0.5806451612903226
 40
0.5806451612903226
 40
0.5806451612903226
 40
0.6129032258064516
 40
0.6129032258064516
 40
0.6129032258064516
 40
0.6129032258064516
 40
0.6451612903225806
 40
0.6451612903225806
 40
0.6451612903225806
 40
0.6451612903225806
 40
0.6774193548387096
 40
0.6774193548387096
 40
0.6774193548387096
 40
0.6774193548387096
 40
0.7096774193548387
 40
0.7096774193548387
 40
0.7096774193548387
 40
0.7096774193548387
 40
0.7419354838709677
 40
0.7419354838709677
 40
0.7419354838709677
 40
0.7419354838709677
 40
0.7741935483870968
 40
0.7741935483870968
 40
0.7741935483870968
 40
0.7741935483870968
 40
0.8064516129032258
 40
0.8064516129032258
 40
0.8064516129032258
 40
0.8064516129032258
 40
0.8387096774193549
 40
0.8387096774193549
 40
0.8387096774193549
 40
0.8387096774193549
 40
0.8709677419354839
 40
0.8709677419354839
 40
0.8709677419354839
 40
0.8709677419354839
 40
0.9032258064516129
 40
0.9032258064516129
 40
0.9032258064516129
 40
0.9032258064516129
 40
0.9354838709677419
 40
0.9354838709677419
 40
0.9354838709677419
 40
0.9354838709677419
 40
1.0
 40
1.0
 40
1.0
 40
1.0
 10
-4.8793
 20
-13.4566
 30
0.0
 10
-4.8793
 20
-13.4566
 30
0.0
 10
-4.6314
 20
-13.4237
 30
0.0
 10
-4.6314
 20
-13.4237
 30
0.0
 10
-4.6314
 20
-13.4237
 30
0.0
 10
-4.6027
 20
-13.5643
 30
0.0
 10
-4.5542
 20
-13.6654
 30
0.0
 10
-4.486
 20
-13.7275
 30
0.0
 10
-4.486
 20
-13.7275
 30
0.0
 10
-4.4174
 20
-13.7896
 30
0.0
 10
-4.3341
 20
-13.8207
 30
0.0
 10
-4.2358
 20
-13.8207
 30
0.0
 10
-4.2358
 20
-13.8207
 30
0.0
 10
-4.1192
 20
-13.8207
 30
0.0
 10
-4.0204
 20
-13.7802
 30
0.0
 10
-3.9399
 20
-13.6993
 30
0.0
 10
-3.9399
 20
-13.6993
 30
0.0
 10
-3.86
 20
-13.6184
 30
0.0
 10
-3.8195
 20
-13.5182
 30
0.0
 10
-3.8195
 20
-13.3987
 30
0.0
 10
-3.8195
 20
-13.3987
 30
0.0
 10
-3.8195
 20
-13.2849
 30
0.0
 10
-3.8567
 20
-13.1908
 30
0.0
 10
-3.931
 20
-13.117
 30
0.0
 10
-3.931
 20
-13.117
 30
0.0
 10
-4.0058
 20
-13.0432
 30
0.0
 10
-4.1003
 20
-13.006
 30
0.0
 10
-4.2151
 20
-13.006
 30
0.0
 10
-4.2151
 20
-13.006
 30
0.0
 10
-4.2621
 20
-13.006
 30
0.0
 10
-4.3205
 20
-13.0154
 30
0.0
 10
-4.3901
 20
-13.0337
 30
0.0
 10
-4.3901
 20
-13.0337
 30
0.0
 10
-4.3901
 20
-13.0337
 30
0.0
 10
-4.3623
 20
-12.816
 30
0.0
 10
-4.3623
 20
-12.816
 30
0.0
 10
-4.3623
 20
-12.816
 30
0.0
 10
-4.3459
 20
-12.8178
 30
0.0
 10
-4.3327
 20
-12.8188
 30
0.0
 10
-4.3224
 20
-12.8188
 30
0.0
 10
-4.3224
 20
-12.8188
 30
0.0
 10
-4.217
 20
-12.8188
 30
0.0
 10
-4.122
 20
-12.791
 30
0.0
 10
-4.0373
 20
-12.736
 30
0.0
 10
-4.0373
 20
-12.736
 30
0.0
 10
-3.9526
 20
-12.681
 30
0.0
 10
-3.9103
 20
-12.5958
 30
0.0
 10
-3.9103
 20
-12.4811
 30
0.0
 10
-3.9103
 20
-12.4811
 30
0.0
 10
-3.9103
 20
-12.3903
 30
0.0
 10
-3.9414
 20
-12.3146
 30
0.0
 10
-4.003
 20
-12.2553
 30
0.0
 10
-4.003
 20
-12.2553
 30
0.0
 10
-4.0646
 20
-12.1956
 30
0.0
 10
-4.1441
 20
-12.1654
 30
0.0
 10
-4.2415
 20
-12.1654
 30
0.0
 10
-4.2415
 20
-12.1654
 30
0.0
 10
-4.3379
 20
-12.1654
 30
0.0
 10
-4.4183
 20
-12.196
 30
0.0
 10
-4.4823
 20
-12.2562
 30
0.0
 10
-4.4823
 20
-12.2562
 30
0.0
 10
-4.5467
 20
-12.3169
 30
0.0
 10
-4.5881
 20
-12.4082
 30
0.0
 10
-4.6065
 20
-12.5295
 30
0.0
 10
-4.6065
 20
-12.5295
 30
0.0
 10
-4.6065
 20
-12.5295
 30
0.0
 10
-4.8543
 20
-12.4853
 30
0.0
 10
-4.8543
 20
-12.4853
 30
0.0
 10
-4.8543
 20
-12.4853
 30
0.0
 10
-4.8242
 20
-12.3188
 30
0.0
 10
-4.7551
 20
-12.1899
 30
0.0
 10
-4.6478
 20
-12.0987
 30
0.0
 10
-4.6478
 20
-12.0987
 30
0.0
 10
-4.5401
 20
-12.0074
 30
0.0
 10
-4.4065
 20
-11.9613
 30
0.0
 10
-4.2466
 20
-11.9613
 30
0.0
 10
-4.2466
 20
-11.9613
 30
0.0
 10
-4.1366
 20
-11.9613
 30
0.0
 10
-4.035
 20
-11.9853
 30
0.0
 10
-3.9423
 20
-12.0323
 30
0.0
 10
-3.9423
 20
-12.0323
 30
0.0
 10
-3.8496
 20
-12.0798
 30
0.0
 10
-3.7786
 20
-12.1443
 30
0.0
 10
-3.7292
 20
-12.2261
 30
0.0
 10
-3.7292
 20
-12.2261
 30
0.0
 10
-3.6803
 20
-12.308
 30
0.0
 10
-3.6554
 20
-12.3945
 30
0.0
 10
-3.6554
 20
-12.4867
 30
0.0
 10
-3.6554
 20
-12.4867
 30
0.0
 10
-3.6554
 20
-12.5737
 30
0.0
 10
-3.6789
 20
-12.6532
 30
0.0
 10
-3.7259
 20
-12.7252
 30
0.0
 10
-3.7259
 20
-12.7252
 30
0.0
 10
-3.773
 20
-12.7967
 30
0.0
 10
-3.8421
 20
-12.8536
 30
0.0
 10
-3.9338
 20
-12.8959
 30
0.0
 10
-3.9338
 20
-12.8959
 30
0.0
 10
-3.8144
 20
-12.9232
 30
0.0
 10
-3.7217
 20
-12.9806
 30
0.0
 10
-3.6554
 20
-13.0676
 30
0.0
 10
-3.6554
 20
-13.0676
 30
0.0
 10
-3.5895
 20
-13.1542
 30
0.0
 10
-3.5566
 20
-13.2628
 30
0.0
 10
-3.5566
 20
-13.3931
 30
0.0
 10
-3.5566
 20
-13.3931
 30
0.0
 10
-3.5566
 20
-13.5695
 30
0.0
 10
-3.6206
 20
-13.7191
 30
0.0
 10
-3.7494
 20
-13.8418
 30
0.0
 10
-3.7494
 20
-13.8418
 30
0.0
 10
-3.8779
 20
-13.9646
 30
0.0
 10
-4.0406
 20
-14.0257
 30
0.0
 10
-4.2372
 20
-14.0257
 30
0.0
 10
-4.2372
 20
-14.0257
 30
0.0
 10
-4.4145
 20
-14.0257
 30
0.0
 10
-4.5618
 20
-13.9731
 30
0.0
 10
-4.6789
 20
-13.8672
 30
0.0
 10
-4.6789
 20
-13.8672
 30
0.0
 10
-4.796
 20
-13.7619
 30
0.0
 10
-4.8628
 20
-13.625
 30
0.0
 10
-4.8793
 20
-13.4566
 30
0.0
  0
SPLINE
  5
45
330
1F
100
AcDbEntity
  8
VRSTVA_1
 62
   250
100
AcDbSpline
210
0.0
220
0.0
230
1.0
 70
    11
 71
     3
 72
    92
 73
    88
 74
     0
 42
0.0000000001
 43
0.0000000001
 40
0.0
 40
0.0
 40
0.0
 40
0.0
 40
0.0434782608695652
 40
0.0434782608695652
 40
0.0434782608695652
 40
0.0434782608695652
 40
0.0869565217391304
 40
0.0869565217391304
 40
0.0869565217391304
 40
0.0869565217391304
 40
0.1304347826086956
 40
0.1304347826086956
 40
0.1304347826086956
 40
0.1304347826086956
 40
0.1739130434782609
 40
0.1739130434782609
 40
0.1739130434782609
 40
0.1739130434782609
 40
0.2173913043478261
 40
0.2173913043478261
 40
0.2173913043478261
 40
0.2173913043478261
 40
0.2608695652173913
 40
0.2608695652173913
 40
0.2608695652173913
 40
0.2608695652173913
 40
0.3043478260869565
 40
0.3043478260869565
 40
0.3043478260869565
 40
0.3043478260869565
 40
0.3478260869565217
 40
0.3478260869565217
 40
0.3478260869565217
 40
0.3478260869565217
 40
0.391304347826087
 40
0.391304347826087
 40
0.391304347826087
 40
0.391304347826087
 40
0.4347826086956522
 40
0.4347826086956522
 40
0.4347826086956522
 40
0.4347826086956522
 40
0.4782608695652174
 40
0.4782608695652174
 40
0.4782608695652174
 40
0.4782608695652174
 40
0.5217391304347826
 40
0.5217391304347826
 40
0.5217391304347826
 40
0.5217391304347826
 40
0.5652173913043478
 40
0.5652173913043478
 40
0.5652173913043478
 40
0.5652173913043478
 40
0.6086956521739131
 40
0.6086956521739131
 40
0.6086956521739131
 40
0.6086956521739131
 40
0.6521739130434783
 40
0.6521739130434783
 40
0.6521739130434783
 40
0.6521739130434783
 40
0.6956521739130435
 40
0.6956521739130435
 40
0.6956521739130435
 40
0.6956521739130435
 40
0.7391304347826086
 40
0.7391304347826086
 40
0.7391304347826086
 40
0.7391304347826086
 40
0.782608695652174
 40
0.782608695652174
 40
0.782608695652174
 40
0.782608695652174
 40
0.8260869565217391
 40
0.8260869565217391
 40
0.8260869565217391
 40
0.8260869565217391
 40
0.8695652173913043
 40
0.8695652173913043
 40
0.8695652173913043
 40
0.8695652173913043
 40
0.9130434782608695
 40
0.9130434782608695
 40
0.9130434782608695
 40
0.9130434782608695
 40
1.0
 40
1.0
 40
1.0
 40
1.0
 10
-3.3111
 20
-13.4608
 30
0.0
 10
-3.3111
 20
-13.4608
 30
0.0
 10
-3.0505
 20
-13.4387
 30
0.0
 10
-3.0505
 20
-13.4387
 30
0.0
 10
-3.0505
 20
-13.4387
 30
0.0
 10
-3.0312
 20
-13.5657
 30
0.0
 10
-2.9865
 20
-13.6607
 30
0.0
 10
-2.9164
 20
-13.7247
 30
0.0
 10
-2.9164
 20
-13.7247
 30
0.0
 10
-2.8459
 20
-13.7887
 30
0.0
 10
-2.7612
 20
-13.8207
 30
0.0
 10
-2.662
 20
-13.8207
 30
0.0
 10
-2.662
 20
-13.8207
 30
0.0
 10
-2.5425
 20
-13.8207
 30
0.0
 10
-2.4414
 20
-13.7755
 30
0.0
 10
-2.3591
 20
-13.6857
 30
0.0
 10
-2.3591
 20
-13.6857
 30
0.0
 10
-2.2763
 20
-13.5954
 30
0.0
 10
-2.2349
 20
-13.4759
 30
0.0
 10
-2.2349
 20
-13.3273
 30
0.0
 10
-2.2349
 20
-13.3273
 30
0.0
 10
-2.2349
 20
-13.1857
 30
0.0
 10
-2.2744
 20
-13.0742
 30
0.0
 10
-2.3539
 20
-12.9924
 30
0.0
 10
-2.3539
 20
-12.9924
 30
0.0
 10
-2.4334
 20
-12.9105
 30
0.0
 10
-2.5373
 20
-12.8696
 30
0.0
 10
-2.6662
 20
-12.8696
 30
0.0
 10
-2.6662
 20
-12.8696
 30
0.0
 10
-2.7462
 20
-12.8696
 30
0.0
 10
-2.8181
 20
-12.8879
 30
0.0
 10
-2.8826
 20
-12.9241
 30
0.0
 10
-2.8826
 20
-12.9241
 30
0.0
 10
-2.947
 20
-12.9604
 30
0.0
 10
-2.9973
 20
-13.0074
 30
0.0
 10
-3.034
 20
-13.0653
 30
0.0
 10
-3.034
 20
-13.0653
 30
0.0
 10
-3.034
 20
-13.0653
 30
0.0
 10
-3.2669
 20
-13.0352
 30
0.0
 10
-3.2669
 20
-13.0352
 30
0.0
 10
-3.2669
 20
-13.0352
 30
0.0
 10
-3.2669
 20
-13.0352
 30
0.0
 10
-3.0712
 20
-11.9975
 30
0.0
 10
-3.0712
 20
-11.9975
 30
0.0
 10
-3.0712
 20
-11.9975
 30
0.0
 10
-3.0712
 20
-11.9975
 30
0.0
 10
-2.0665
 20
-11.9975
 30
0.0
 10
-2.0665
 20
-11.9975
 30
0.0
 10
-2.0665
 20
-11.9975
 30
0.0
 10
-2.0665
 20
-11.9975
 30
0.0
 10
-2.0665
 20
-12.2346
 30
0.0
 10
-2.0665
 20
-12.2346
 30
0.0
 10
-2.0665
 20
-12.2346
 30
0.0
 10
-2.0665
 20
-12.2346
 30
0.0
 10
-2.8727
 20
-12.2346
 30
0.0
 10
-2.8727
 20
-12.2346
 30
0.0
 10
-2.8727
 20
-12.2346
 30
0.0
 10
-2.8727
 20
-12.2346
 30
0.0
 10
-2.9818
 20
-12.7774
 30
0.0
 10
-2.9818
 20
-12.7774
 30
0.0
 10
-2.9818
 20
-12.7774
 30
0.0
 10
-2.8605
 20
-12.6927
 30
0.0
 10
-2.733
 20
-12.6504
 30
0.0
 10
-2.5999
 20
-12.6504
 30
0.0
 10
-2.5999
 20
-12.6504
 30
0.0
 10
-2.4235
 20
-12.6504
 30
0.0
 10
-2.2749
 20
-12.7115
 30
0.0
 10
-2.1535
 20
-12.8338
 30
0.0
 10
-2.1535
 20
-12.8338
 30
0.0
 10
-2.0322
 20
-12.9561
 30
0.0
 10
-1.9715
 20
-13.1132
 30
0.0
 10
-1.9715
 20
-13.3051
 30
0.0
 10
-1.9715
 20
-13.3051
 30
0.0
 10
-1.9715
 20
-13.4881
 30
0.0
 10
-2.0251
 20
-13.6462
 30
0.0
 10
-2.1314
 20
-13.7793
 30
0.0
 10
-2.1314
 20
-13.7793
 30
0.0
 10
-2.2612
 20
-13.9425
 30
0.0
 10
-2.4381
 20
-14.0243
 30
0.0
 10
-2.662
 20
-14.0243
 30
0.0
 10
-2.662
 20
-14.0243
 30
0.0
 10
-2.8459
 20
-14.0243
 30
0.0
 10
-2.9959
 20
-13.9731
 30
0.0
 10
-3.1121
 20
-13.8701
 30
0.0
 10
-3.1121
 20
-13.8701
 30
0.0
 10
-3.2283
 20
-13.767
 30
0.0
 10
-3.2946
 20
-13.6306
 30
0.0
 10
-3.3111
 20
-13.4608
 30
0.0
  0
SPLINE
  5
46
330
1F
100
AcDbEntity
  8
VRSTVA_1
 62
   250
100
AcDbSpline
210
0.0
220
0.0
230
1.0
 70
    11
 71
     3
 72
    52
 73
    48
 74
     0
 42
0.0000000001
 43
0.0000000001
 40
0.0
 40
0.0
 40
0.0
 40
0.0
 40
0.0769230769230769
 40
0.0769230769230769
 40
0.0769230769230769
 40
0.0769230769230769
 40
0.1538461538461539
 40
0.1538461538461539
 40
0.1538461538461539
 40
0.1538461538461539
 40
0.2307692307692308
 40
0.2307692307692308
 40
0.2307692307692308
 40
0.2307692307692308
 40
0.3076923076923077
 40
0.3076923076923077
 40
0.3076923076923077
 40
0.3076923076923077
 40
0.3846153846153846
 40
0.3846153846153846
 40
0.3846153846153846
 40
0.3846153846153846
 40
0.4615384615384616
 40
0.4615384615384616
 40
0.4615384615384616
 40
0.4615384615384616
 40
0.5384615384615384
 40
0.5384615384615384
 40
0.5384615384615384
 40
0.5384615384615384
 40
0.6153846153846154
 40
0.6153846153846154
 40
0.6153846153846154
 40
0.6153846153846154
 40
0.6923076923076923
 40
0.6923076923076923
 40
0.6923076923076923
 40
0.6923076923076923
 40
0.7692307692307693
 40
0.7692307692307693
 40
0.7692307692307693
 40
0.7692307692307693
 40
0.8461538461538461
 40
0.8461538461538461
 40
0.8461538461538461
 40
0.8461538461538461
 40
1.0
 40
1.0
 40
1.0
 40
1.0
 10
-1.7415
 20
-12.9938
 30
0.0
 10
-1.7415
 20
-12.7548
 30
0.0
 10
-1.717
 20
-12.5624
 30
0.0
 10
-1.6676
 20
-12.4171
 30
0.0
 10
-1.6676
 20
-12.4171
 30
0.0
 10
-1.6187
 20
-12.2713
 30
0.0
 10
-1.5453
 20
-12.1589
 30
0.0
 10
-1.4484
 20
-12.0798
 30
0.0
 10
-1.4484
 20
-12.0798
 30
0.0
 10
-1.3515
 20
-12.0008
 30
0.0
 10
-1.2297
 20
-11.9613
 30
0.0
 10
-1.083
 20
-11.9613
 30
0.0
 10
-1.083
 20
-11.9613
 30
0.0
 10
-0.9743
 20
-11.9613
 30
0.0
 10
-0.8793
 20
-11.9834
 30
0.0
 10
-0.7975
 20
-12.0272
 30
0.0
 10
-0.7975
 20
-12.0272
 30
0.0
 10
-0.7156
 20
-12.0704
 30
0.0
 10
-0.6483
 20
-12.1335
 30
0.0
 10
-0.5947
 20
-12.2158
 30
0.0
 10
-0.5947
 20
-12.2158
 30
0.0
 10
-0.5416
 20
-12.2981
 30
0.0
 10
-0.4997
 20
-12.3983
 30
0.0
 10
-0.4696
 20
-12.5163
 30
0.0
 10
-0.4696
 20
-12.5163
 30
0.0
 10
-0.439
 20
-12.6344
 30
0.0
 10
-0.424
 20
-12.7934
 30
0.0
 10
-0.424
 20
-12.9938
 30
0.0
 10
-0.424
 20
-12.9938
 30
0.0
 10
-0.424
 20
-13.2308
 30
0.0
 10
-0.4484
 20
-13.4218
 30
0.0
 10
-0.4969
 20
-13.5676
 30
0.0
 10
-0.4969
 20
-13.5676
 30
0.0
 10
-0.5458
 20
-13.7134
 30
0.0
 10
-0.6187
 20
-13.8258
 30
0.0
 10
-0.7156
 20
-13.9053
 30
0.0
 10
-0.7156
 20
-13.9053
 30
0.0
 10
-0.8125
 20
-13.9848
 30
0.0
 10
-0.9348
 20
-14.0243
 30
0.0
 10
-1.083
 20
-14.0243
 30
0.0
 10
-1.083
 20
-14.0243
 30
0.0
 10
-1.2777
 20
-14.0243
 30
0.0
 10
-1.4306
 20
-13.9547
 30
0.0
 10
-1.5416
 20
-13.815
 30
0.0
 10
-1.5416
 20
-13.815
 30
0.0
 10
-1.6747
 20
-13.6471
 30
0.0
 10
-1.7415
 20
-13.3729
 30
0.0
 10
-1.7415
 20
-12.9938
 30
0.0
  0
SPLINE
  5
47
330
1F
100
AcDbEntity
  8
VRSTVA_1
 62
   250
100
AcDbSpline
210
0.0
220
0.0
230
1.0
 70
    11
 71
     3
 72
    36
 73
    32
 74
     0
 42
0.0000000001
 43
0.0000000001
 40
0.0
 40
0.0
 40
0.0
 40
0.0
 40
0.1111111111111111
 40
0.1111111111111111
 40
0.1111111111111111
 40
0.1111111111111111
 40
0.2222222222222222
 40
0.2222222222222222
 40
0.2222222222222222
 40
0.2222222222222222
 40
0.3333333333333333
 40
0.3333333333333333
 40
0.3333333333333333
 40
0.3333333333333333
 40
0.4444444444444444
 40
0.4444444444444444
 40
0.4444444444444444
 40
0.4444444444444444
 40
0.5555555555555556
 40
0.5555555555555556
 40
0.5555555555555556
 40
0.5555555555555556
 40
0.6666666666666666
 40
0.6666666666666666
 40
0.6666666666666666
 40
0.6666666666666666
 40
0.7777777777777778
 40
0.7777777777777778
 40
0.7777777777777778
 40
0.7777777777777778
 40
1.0
 40
1.0
 40
1.0
 40
1.0
 10
-1.4865
 20
-12.9938
 30
0.0
 10
-1.4865
 20
-13.3254
 30
0.0
 10
-1.4475
 20
-13.546
 30
0.0
 10
-1.3699
 20
-13.656
 30
0.0
 10
-1.3699
 20
-13.656
 30
0.0
 10
-1.2923
 20
-13.7656
 30
0.0
 10
-1.1968
 20
-13.8207
 30
0.0
 10
-1.083
 20
-13.8207
 30
0.0
 10
-1.083
 20
-13.8207
 30
0.0
 10
-0.9687
 20
-13.8207
 30
0.0
 10
-0.8732
 20
-13.7652
 30
0.0
 10
-0.7956
 20
-13.6551
 30
0.0
 10
-0.7956
 20
-13.6551
 30
0.0
 10
-0.718
 20
-13.545
 30
0.0
 10
-0.6789
 20
-13.3244
 30
0.0
 10
-0.6789
 20
-12.9938
 30
0.0
 10
-0.6789
 20
-12.9938
 30
0.0
 10
-0.6789
 20
-12.6612
 30
0.0
 10
-0.718
 20
-12.4401
 30
0.0
 10
-0.7956
 20
-12.331
 30
0.0
 10
-0.7956
 20
-12.331
 30
0.0
 10
-0.8732
 20
-12.2214
 30
0.0
 10
-0.9696
 20
-12.1669
 30
0.0
 10
-1.0853
 20
-12.1669
 30
0.0
 10
-1.0853
 20
-12.1669
 30
0.0
 10
-1.1996
 20
-12.1669
 30
0.0
 10
-1.2904
 20
-12.2153
 30
0.0
 10
-1.3586
 20
-12.3117
 30
0.0
 10
-1.3586
 20
-12.3117
 30
0.0
 10
-1.4437
 20
-12.4345
 30
0.0
 10
-1.4865
 20
-12.6622
 30
0.0
 10
-1.4865
 20
-12.9938
 30
0.0
  0
SPLINE
  5
48
330
1F
100
AcDbEntity
  8
VRSTVA_1
 62
   250
100
AcDbSpline
210
0.0
220
0.0
230
1.0
 70
    11
 71
     3
 72
    20
 73
    16
 74
     0
 42
0.0000000001
 43
0.0000000001
 40
0.0
 40
0.0
 40
0.0
 40
0.0
 40
0.2
 40
0.2
 40
0.2
 40
0.2
 40
0.4
 40
0.4
 40
0.4
 40
0.4
 40
0.6
 40
0.6
 40
0.6
 40
0.6
 40
1.0
 40
1.0
 40
1.0
 40
1.0
 10
0.5845
 20
-13.3837
 30
0.0
 10
0.5845
 20
-13.3837
 30
0.0
 10
0.5845
 20
-13.1344
 30
0.0
 10
0.5845
 20
-13.1344
 30
0.0
 10
0.5845
 20
-13.1344
 30
0.0
 10
0.5845
 20
-13.1344
 30
0.0
 10
1.3469
 20
-13.1344
 30
0.0
 10
1.3469
 20
-13.1344
 30
0.0
 10
1.3469
 20
-13.1344
 30
0.0
 10
1.3469
 20
-13.1344
 30
0.0
 10
1.3469
 20
-13.3837
 30
0.0
 10
1.3469
 20
-13.3837
 30
0.0
 10
1.3469
 20
-13.3837
 30
0.0
 10
1.3469
 20
-13.3837
 30
0.0
 10
0.5845
 20
-13.3837
 30
0.0
 10
0.5845
 20
-13.3837
 30
0.0
  0
SPLINE
  5
49
330
1F
100
AcDbEntity
  8
VRSTVA_1
 62
   250
100
AcDbSpline
210
0.0
220
0.0
230
1.0
 70
    11
 71
     3
 72
    68
 73
    64
 74
     0
 42
0.0000000001
 43
0.0000000001
 40
0.0
 40
0.0
 40
0.0
 40
0.0
 40
0.0588235294117647
 40
0.0588235294117647
 40
0.0588235294117647
 40
0.0588235294117647
 40
0.1176470588235294
 40
0.1176470588235294
 40
0.1176470588235294
 40
0.1176470588235294
 40
0.1764705882352941
 40
0.1764705882352941
 40
0.1764705882352941
 40
0.1764705882352941
 40
0.2352941176470588
 40
0.2352941176470588
 40
0.2352941176470588
 40
0.2352941176470588
 40
0.2941176470588235
 40
0.2941176470588235
 40
0.2941176470588235
 40
0.2941176470588235
 40
0.3529411764705883
 40
0.3529411764705883
 40
0.3529411764705883
 40
0.3529411764705883
 40
0.4117647058823529
 40
0.4117647058823529
 40
0.4117647058823529
 40
0.4117647058823529
 40
0.4705882352941176
 40
0.4705882352941176
 40
0.4705882352941176
 40
0.4705882352941176
 40
0.5294117647058824
 40
0.5294117647058824
 40
0.5294117647058824
 40
0.5294117647058824
 40
0.5882352941176471
 40
0.5882352941176471
 40
0.5882352941176471
 40
0.5882352941176471
 40
0.6470588235294118
 40
0.6470588235294118
 40
0.6470588235294118
 40
0.6470588235294118
 40
0.7058823529411765
 40
0.7058823529411765
 40
0.7058823529411765
 40
0.7058823529411765
 40
0.7647058823529411
 40
0.7647058823529411
 40
0.7647058823529411
 40
0.7647058823529411
 40
0.8235294117647058
 40
0.8235294117647058
 40
0.8235294117647058
 40
0.8235294117647058
 40
0.8823529411764706
 40
0.8823529411764706
 40
0.8823529411764706
 40
0.8823529411764706
 40
1.0
 40
1.0
 40
1.0
 40
1.0
 10
2.7181
 20
-12.8945
 30
0.0
 10
2.615
 20
-12.8569
 30
0.0
 10
2.5388
 20
-12.8033
 30
0.0
 10
2.489
 20
-12.7332
 30
0.0
 10
2.489
 20
-12.7332
 30
0.0
 10
2.4396
 20
-12.6636
 30
0.0
 10
2.4147
 20
-12.5798
 30
0.0
 10
2.4147
 20
-12.4825
 30
0.0
 10
2.4147
 20
-12.4825
 30
0.0
 10
2.4147
 20
-12.3353
 30
0.0
 10
2.4674
 20
-12.212
 30
0.0
 10
2.5732
 20
-12.1118
 30
0.0
 10
2.5732
 20
-12.1118
 30
0.0
 10
2.679
 20
-12.0116
 30
0.0
 10
2.8192
 20
-11.9613
 30
0.0
 10
2.9946
 20
-11.9613
 30
0.0
 10
2.9946
 20
-11.9613
 30
0.0
 10
3.171
 20
-11.9613
 30
0.0
 10
3.3131
 20
-12.0126
 30
0.0
 10
3.4208
 20
-12.1151
 30
0.0
 10
3.4208
 20
-12.1151
 30
0.0
 10
3.528
 20
-12.2177
 30
0.0
 10
3.5817
 20
-12.3423
 30
0.0
 10
3.5817
 20
-12.4895
 30
0.0
 10
3.5817
 20
-12.4895
 30
0.0
 10
3.5817
 20
-12.5831
 30
0.0
 10
3.5572
 20
-12.6645
 30
0.0
 10
3.5083
 20
-12.7341
 30
0.0
 10
3.5083
 20
-12.7341
 30
0.0
 10
3.4589
 20
-12.8033
 30
0.0
 10
3.3846
 20
-12.8569
 30
0.0
 10
3.2844
 20
-12.8945
 30
0.0
 10
3.2844
 20
-12.8945
 30
0.0
 10
3.4081
 20
-12.935
 30
0.0
 10
3.5026
 20
-12.9999
 30
0.0
 10
3.5675
 20
-13.0902
 30
0.0
 10
3.5675
 20
-13.0902
 30
0.0
 10
3.632
 20
-13.18
 30
0.0
 10
3.6644
 20
-13.2877
 30
0.0
 10
3.6644
 20
-13.4124
 30
0.0
 10
3.6644
 20
-13.4124
 30
0.0
 10
3.6644
 20
-13.5855
 30
0.0
 10
3.6033
 20
-13.7304
 30
0.0
 10
3.4815
 20
-13.8479
 30
0.0
 10
3.4815
 20
-13.8479
 30
0.0
 10
3.3592
 20
-13.9655
 30
0.0
 10
3.1983
 20
-14.0243
 30
0.0
 10
2.9989
 20
-14.0243
 30
0.0
 10
2.9989
 20
-14.0243
 30
0.0
 10
2.7994
 20
-14.0243
 30
0.0
 10
2.639
 20
-13.9655
 30
0.0
 10
2.5167
 20
-13.8475
 30
0.0
 10
2.5167
 20
-13.8475
 30
0.0
 10
2.3944
 20
-13.7294
 30
0.0
 10
2.3333
 20
-13.5822
 30
0.0
 10
2.3333
 20
-13.4058
 30
0.0
 10
2.3333
 20
-13.4058
 30
0.0
 10
2.3333
 20
-13.2746
 30
0.0
 10
2.3667
 20
-13.1645
 30
0.0
 10
2.4335
 20
-13.0756
 30
0.0
 10
2.4335
 20
-13.0756
 30
0.0
 10
2.4998
 20
-12.9872
 30
0.0
 10
2.5948
 20
-12.9265
 30
0.0
 10
2.7181
 20
-12.8945
 30
0.0
  0
SPLINE
  5
4A
330
1F
100
AcDbEntity
  8
VRSTVA_1
 62
   250
100
AcDbSpline
210
0.0
220
0.0
230
1.0
 70
    11
 71
     3
 72
    36
 73
    32
 74
     0
 42
0.0000000001
 43
0.0000000001
 40
0.0
 40
0.0
 40
0.0
 40
0.0
 40
0.1111111111111111
 40
0.1111111111111111
 40
0.1111111111111111
 40
0.1111111111111111
 40
0.2222222222222222
 40
0.2222222222222222
 40
0.2222222222222222
 40
0.2222222222222222
 40
0.3333333333333333
 40
0.3333333333333333
 40
0.3333333333333333
 40
0.3333333333333333
 40
0.4444444444444444
 40
0.4444444444444444
 40
0.4444444444444444
 40
0.4444444444444444
 40
0.5555555555555556
 40
0.5555555555555556
 40
0.5555555555555556
 40
0.5555555555555556
 40
0.6666666666666666
 40
0.6666666666666666
 40
0.6666666666666666
 40
0.6666666666666666
 40
0.7777777777777778
 40
0.7777777777777778
 40
0.7777777777777778
 40
0.7777777777777778
 40
1.0
 40
1.0
 40
1.0
 40
1.0
 10
2.6682
 20
-12.474
 30
0.0
 10
2.6682
 20
-12.5695
 30
0.0
 10
2.6992
 20
-12.6476
 30
0.0
 10
2.7604
 20
-12.7083
 30
0.0
 10
2.7604
 20
-12.7083
 30
0.0
 10
2.822
 20
-12.7689
 30
0.0
 10
2.902
 20
-12.7995
 30
0.0
 10
3.0003
 20
-12.7995
 30
0.0
 10
3.0003
 20
-12.7995
 30
0.0
 10
3.0958
 20
-12.7995
 30
0.0
 10
3.1743
 20
-12.7694
 30
0.0
 10
3.2355
 20
-12.7092
 30
0.0
 10
3.2355
 20
-12.7092
 30
0.0
 10
3.2966
 20
-12.649
 30
0.0
 10
3.3267
 20
-12.5751
 30
0.0
 10
3.3267
 20
-12.4881
 30
0.0
 10
3.3267
 20
-12.4881
 30
0.0
 10
3.3267
 20
-12.3969
 30
0.0
 10
3.2957
 20
-12.3207
 30
0.0
 10
3.2326
 20
-12.2586
 30
0.0
 10
3.2326
 20
-12.2586
 30
0.0
 10
3.1696
 20
-12.1965
 30
0.0
 10
3.0915
 20
-12.1654
 30
0.0
 10
2.9975
 20
-12.1654
 30
0.0
 10
2.9975
 20
-12.1654
 30
0.0
 10
2.9029
 20
-12.1654
 30
0.0
 10
2.8244
 20
-12.196
 30
0.0
 10
2.7618
 20
-12.2562
 30
0.0
 10
2.7618
 20
-12.2562
 30
0.0
 10
2.6992
 20
-12.3169
 30
0.0
 10
2.6682
 20
-12.3898
 30
0.0
 10
2.6682
 20
-12.474
 30
0.0
  0
SPLINE
  5
4B
330
1F
100
AcDbEntity
  8
VRSTVA_1
 62
   250
100
AcDbSpline
210
0.0
220
0.0
230
1.0
 70
    11
 71
     3
 72
    40
 73
    36
 74
     0
 42
0.0000000001
 43
0.0000000001
 40
0.0
 40
0.0
 40
0.0
 40
0.0
 40
0.1
 40
0.1
 40
0.1
 40
0.1
 40
0.2
 40
0.2
 40
0.2
 40
0.2
 40
0.3
 40
0.3
 40
0.3
 40
0.3
 40
0.4
 40
0.4
 40
0.4
 40
0.4
 40
0.5
 40
0.5
 40
0.5
 40
0.5
 40
0.6
 40
0.6
 40
0.6
 40
0.6
 40
0.7
 40
0.7
 40
0.7
 40
0.7
 40
0.8
 40
0.8
 40
0.8
 40
0.8
 40
1.0
 40
1.0
 40
1.0
 40
1.0
 10
2.5882
 20
-13.4072
 30
0.0
 10
2.5882
 20
-13.4778
 30
0.0
 10
2.6052
 20
-13.5464
 30
0.0
 10
2.6386
 20
-13.6123
 30
0.0
 10
2.6386
 20
-13.6123
 30
0.0
 10
2.672
 20
-13.6786
 30
0.0
 10
2.7218
 20
-13.7299
 30
0.0
 10
2.7881
 20
-13.7661
 30
0.0
 10
2.7881
 20
-13.7661
 30
0.0
 10
2.8545
 20
-13.8023
 30
0.0
 10
2.9255
 20
-13.8207
 30
0.0
 10
3.0017
 20
-13.8207
 30
0.0
 10
3.0017
 20
-13.8207
 30
0.0
 10
3.1202
 20
-13.8207
 30
0.0
 10
3.2181
 20
-13.7826
 30
0.0
 10
3.2952
 20
-13.7059
 30
0.0
 10
3.2952
 20
-13.7059
 30
0.0
 10
3.3723
 20
-13.6297
 30
0.0
 10
3.4109
 20
-13.5328
 30
0.0
 10
3.4109
 20
-13.4152
 30
0.0
 10
3.4109
 20
-13.4152
 30
0.0
 10
3.4109
 20
-13.2957
 30
0.0
 10
3.3714
 20
-13.197
 30
0.0
 10
3.2919
 20
-13.1189
 30
0.0
 10
3.2919
 20
-13.1189
 30
0.0
 10
3.2124
 20
-13.0408
 30
0.0
 10
3.1127
 20
-13.0018
 30
0.0
 10
2.9932
 20
-13.0018
 30
0.0
 10
2.9932
 20
-13.0018
 30
0.0
 10
2.8766
 20
-13.0018
 30
0.0
 10
2.7801
 20
-13.0403
 30
0.0
 10
2.7035
 20
-13.1175
 30
0.0
 10
2.7035
 20
-13.1175
 30
0.0
 10
2.6268
 20
-13.1951
 30
0.0
 10
2.5882
 20
-13.2915
 30
0.0
 10
2.5882
 20
-13.4072
 30
0.0
  0
SPLINE
  5
4C
330
1F
100
AcDbEntity
  8
VRSTVA_1
 62
   250
100
AcDbSpline
210
0.0
220
0.0
230
1.0
 70
    11
 71
     3
 72
    52
 73
    48
 74
     0
 42
0.0000000001
 43
0.0000000001
 40
0.0
 40
0.0
 40
0.0
 40
0.0
 40
0.0769230769230769
 40
0.0769230769230769
 40
0.0769230769230769
 40
0.0769230769230769
 40
0.1538461538461539
 40
0.1538461538461539
 40
0.1538461538461539
 40
0.1538461538461539
 40
0.2307692307692308
 40
0.2307692307692308
 40
0.2307692307692308
 40
0.2307692307692308
 40
0.3076923076923077
 40
0.3076923076923077
 40
0.3076923076923077
 40
0.3076923076923077
 40
0.3846153846153846
 40
0.3846153846153846
 40
0.3846153846153846
 40
0.3846153846153846
 40
0.4615384615384616
 40
0.4615384615384616
 40
0.4615384615384616
 40
0.4615384615384616
 40
0.5384615384615384
 40
0.5384615384615384
 40
0.5384615384615384
 40
0.5384615384615384
 40
0.6153846153846154
 40
0.6153846153846154
 40
0.6153846153846154
 40
0.6153846153846154
 40
0.6923076923076923
 40
0.6923076923076923
 40
0.6923076923076923
 40
0.6923076923076923
 40
0.7692307692307693
 40
0.7692307692307693
 40
0.7692307692307693
 40
0.7692307692307693
 40
0.8461538461538461
 40
0.8461538461538461
 40
0.8461538461538461
 40
0.8461538461538461
 40
1.0
 40
1.0
 40
1.0
 40
1.0
 10
3.9057
 20
-12.9938
 30
0.0
 10
3.9057
 20
-12.7548
 30
0.0
 10
3.9302
 20
-12.5624
 30
0.0
 10
3.9796
 20
-12.4171
 30
0.0
 10
3.9796
 20
-12.4171
 30
0.0
 10
4.0285
 20
-12.2713
 30
0.0
 10
4.1019
 20
-12.1589
 30
0.0
 10
4.1988
 20
-12.0798
 30
0.0
 10
4.1988
 20
-12.0798
 30
0.0
 10
4.2957
 20
-12.0008
 30
0.0
 10
4.4175
 20
-11.9613
 30
0.0
 10
4.5642
 20
-11.9613
 30
0.0
 10
4.5642
 20
-11.9613
 30
0.0
 10
4.6729
 20
-11.9613
 30
0.0
 10
4.7679
 20
-11.9834
 30
0.0
 10
4.8497
 20
-12.0272
 30
0.0
 10
4.8497
 20
-12.0272
 30
0.0
 10
4.9316
 20
-12.0704
 30
0.0
 10
4.9989
 20
-12.1335
 30
0.0
 10
5.0525
 20
-12.2158
 30
0.0
 10
5.0525
 20
-12.2158
 30
0.0
 10
5.1056
 20
-12.2981
 30
0.0
 10
5.1475
 20
-12.3983
 30
0.0
 10
5.1776
 20
-12.5163
 30
0.0
 10
5.1776
 20
-12.5163
 30
0.0
 10
5.2082
 20
-12.6344
 30
0.0
 10
5.2232
 20
-12.7934
 30
0.0
 10
5.2232
 20
-12.9938
 30
0.0
 10
5.2232
 20
-12.9938
 30
0.0
 10
5.2232
 20
-13.2308
 30
0.0
 10
5.1988
 20
-13.4218
 30
0.0
 10
5.1503
 20
-13.5676
 30
0.0
 10
5.1503
 20
-13.5676
 30
0.0
 10
5.1014
 20
-13.7134
 30
0.0
 10
5.0285
 20
-13.8258
 30
0.0
 10
4.9316
 20
-13.9053
 30
0.0
 10
4.9316
 20
-13.9053
 30
0.0
 10
4.8347
 20
-13.9848
 30
0.0
 10
4.7124
 20
-14.0243
 30
0.0
 10
4.5642
 20
-14.0243
 30
0.0
 10
4.5642
 20
-14.0243
 30
0.0
 10
4.3695
 20
-14.0243
 30
0.0
 10
4.2166
 20
-13.9547
 30
0.0
 10
4.1056
 20
-13.815
 30
0.0
 10
4.1056
 20
-13.815
 30
0.0
 10
3.9725
 20
-13.6471
 30
0.0
 10
3.9057
 20
-13.3729
 30
0.0
 10
3.9057
 20
-12.9938
 30
0.0
  0
SPLINE
  5
4D
330
1F
100
AcDbEntity
  8
VRSTVA_1
 62
   250
100
AcDbSpline
210
0.0
220
0.0
230
1.0
 70
    11
 71
     3
 72
    36
 73
    32
 74
     0
 42
0.0000000001
 43
0.0000000001
 40
0.0
 40
0.0
 40
0.0
 40
0.0
 40
0.1111111111111111
 40
0.1111111111111111
 40
0.1111111111111111
 40
0.1111111111111111
 40
0.2222222222222222
 40
0.2222222222222222
 40
0.2222222222222222
 40
0.2222222222222222
 40
0.3333333333333333
 40
0.3333333333333333
 40
0.3333333333333333
 40
0.3333333333333333
 40
0.4444444444444444
 40
0.4444444444444444
 40
0.4444444444444444
 40
0.4444444444444444
 40
0.5555555555555556
 40
0.5555555555555556
 40
0.5555555555555556
 40
0.5555555555555556
 40
0.6666666666666666
 40
0.6666666666666666
 40
0.6666666666666666
 40
0.6666666666666666
 40
0.7777777777777778
 40
0.7777777777777778
 40
0.7777777777777778
 40
0.7777777777777778
 40
1.0
 40
1.0
 40
1.0
 40
1.0
 10
4.1607
 20
-12.9938
 30
0.0
 10
4.1607
 20
-13.3254
 30
0.0
 10
4.1997
 20
-13.546
 30
0.0
 10
4.2773
 20
-13.656
 30
0.0
 10
4.2773
 20
-13.656
 30
0.0
 10
4.3549
 20
-13.7656
 30
0.0
 10
4.4504
 20
-13.8207
 30
0.0
 10
4.5642
 20
-13.8207
 30
0.0
 10
4.5642
 20
-13.8207
 30
0.0
 10
4.6785
 20
-13.8207
 30
0.0
 10
4.774
 20
-13.7652
 30
0.0
 10
4.8516
 20
-13.6551
 30
0.0
 10
4.8516
 20
-13.6551
 30
0.0
 10
4.9292
 20
-13.545
 30
0.0
 10
4.9683
 20
-13.3244
 30
0.0
 10
4.9683
 20
-12.9938
 30
0.0
 10
4.9683
 20
-12.9938
 30
0.0
 10
4.9683
 20
-12.6612
 30
0.0
 10
4.9292
 20
-12.4401
 30
0.0
 10
4.8516
 20
-12.331
 30
0.0
 10
4.8516
 20
-12.331
 30
0.0
 10
4.774
 20
-12.2214
 30
0.0
 10
4.6776
 20
-12.1669
 30
0.0
 10
4.5619
 20
-12.1669
 30
0.0
 10
4.5619
 20
-12.1669
 30
0.0
 10
4.4476
 20
-12.1669
 30
0.0
 10
4.3568
 20
-12.2153
 30
0.0
 10
4.2886
 20
-12.3117
 30
0.0
 10
4.2886
 20
-12.3117
 30
0.0
 10
4.2035
 20
-12.4345
 30
0.0
 10
4.1607
 20
-12.6622
 30
0.0
 10
4.1607
 20
-12.9938
 30
0.0
  0
SPLINE
  5
4E
330
1F
100
AcDbEntity
  8
VRSTVA_1
 62
   250
100
AcDbSpline
210
0.0
220
0.0
230
1.0
 70
    11
 71
     3
 72
    52
 73
    48
 74
     0
 42
0.0000000001
 43
0.0000000001
 40
0.0
 40
0.0
 40
0.0
 40
0.0
 40
0.0769230769230769
 40
0.0769230769230769
 40
0.0769230769230769
 40
0.0769230769230769
 40
0.1538461538461539
 40
0.1538461538461539
 40
0.1538461538461539
 40
0.1538461538461539
 40
0.2307692307692308
 40
0.2307692307692308
 40
0.2307692307692308
 40
0.2307692307692308
 40
0.3076923076923077
 40
0.3076923076923077
 40
0.3076923076923077
 40
0.3076923076923077
 40
0.3846153846153846
 40
0.3846153846153846
 40
0.3846153846153846
 40
0.3846153846153846
 40
0.4615384615384616
 40
0.4615384615384616
 40
0.4615384615384616
 40
0.4615384615384616
 40
0.5384615384615384
 40
0.5384615384615384
 40
0.5384615384615384
 40
0.5384615384615384
 40
0.6153846153846154
 40
0.6153846153846154
 40
0.6153846153846154
 40
0.6153846153846154
 40
0.6923076923076923
 40
0.6923076923076923
 40
0.6923076923076923
 40
0.6923076923076923
 40
0.7692307692307693
 40
0.7692307692307693
 40
0.7692307692307693
 40
0.7692307692307693
 40
0.8461538461538461
 40
0.8461538461538461
 40
0.8461538461538461
 40
0.8461538461538461
 40
1.0
 40
1.0
 40
1.0
 40
1.0
 10
5.4753
 20
-12.9938
 30
0.0
 10
5.4753
 20
-12.7548
 30
0.0
 10
5.4998
 20
-12.5624
 30
0.0
 10
5.5492
 20
-12.4171
 30
0.0
 10
5.5492
 20
-12.4171
 30
0.0
 10
5.5981
 20
-12.2713
 30
0.0
 10
5.6715
 20
-12.1589
 30
0.0
 10
5.7684
 20
-12.0798
 30
0.0
 10
5.7684
 20
-12.0798
 30
0.0
 10
5.8653
 20
-12.0008
 30
0.0
 10
5.9871
 20
-11.9613
 30
0.0
 10
6.1338
 20
-11.9613
 30
0.0
 10
6.1338
 20
-11.9613
 30
0.0
 10
6.2425
 20
-11.9613
 30
0.0
 10
6.3375
 20
-11.9834
 30
0.0
 10
6.4193
 20
-12.0272
 30
0.0
 10
6.4193
 20
-12.0272
 30
0.0
 10
6.5012
 20
-12.0704
 30
0.0
 10
6.5685
 20
-12.1335
 30
0.0
 10
6.6221
 20
-12.2158
 30
0.0
 10
6.6221
 20
-12.2158
 30
0.0
 10
6.6752
 20
-12.2981
 30
0.0
 10
6.7171
 20
-12.3983
 30
0.0
 10
6.7472
 20
-12.5163
 30
0.0
 10
6.7472
 20
-12.5163
 30
0.0
 10
6.7778
 20
-12.6344
 30
0.0
 10
6.7928
 20
-12.7934
 30
0.0
 10
6.7928
 20
-12.9938
 30
0.0
 10
6.7928
 20
-12.9938
 30
0.0
 10
6.7928
 20
-13.2308
 30
0.0
 10
6.7684
 20
-13.4218
 30
0.0
 10
6.7199
 20
-13.5676
 30
0.0
 10
6.7199
 20
-13.5676
 30
0.0
 10
6.671
 20
-13.7134
 30
0.0
 10
6.5981
 20
-13.8258
 30
0.0
 10
6.5012
 20
-13.9053
 30
0.0
 10
6.5012
 20
-13.9053
 30
0.0
 10
6.4043
 20
-13.9848
 30
0.0
 10
6.282
 20
-14.0243
 30
0.0
 10
6.1338
 20
-14.0243
 30
0.0
 10
6.1338
 20
-14.0243
 30
0.0
 10
5.9391
 20
-14.0243
 30
0.0
 10
5.7862
 20
-13.9547
 30
0.0
 10
5.6752
 20
-13.815
 30
0.0
 10
5.6752
 20
-13.815
 30
0.0
 10
5.5421
 20
-13.6471
 30
0.0
 10
5.4753
 20
-13.3729
 30
0.0
 10
5.4753
 20
-12.9938
 30
0.0
  0
SPLINE
  5
4F
330
1F
100
AcDbEntity
  8
VRSTVA_1
 62
   250
100
AcDbSpline
210
0.0
220
0.0
230
1.0
 70
    11
 71
     3
 72
    36
 73
    32
 74
     0
 42
0.0000000001
 43
0.0000000001
 40
0.0
 40
0.0
 40
0.0
 40
0.0
 40
0.1111111111111111
 40
0.1111111111111111
 40
0.1111111111111111
 40
0.1111111111111111
 40
0.2222222222222222
 40
0.2222222222222222
 40
0.2222222222222222
 40
0.2222222222222222
 40
0.3333333333333333
 40
0.3333333333333333
 40
0.3333333333333333
 40
0.3333333333333333
 40
0.4444444444444444
 40
0.4444444444444444
 40
0.4444444444444444
 40
0.4444444444444444
 40
0.5555555555555556
 40
0.5555555555555556
 40
0.5555555555555556
 40
0.5555555555555556
 40
0.6666666666666666
 40
0.6666666666666666
 40
0.6666666666666666
 40
0.6666666666666666
 40
0.7777777777777778
 40
0.7777777777777778
 40
0.7777777777777778
 40
0.7777777777777778
 40
1.0
 40
1.0
 40
1.0
 40
1.0
 10
5.7303
 20
-12.9938
 30
0.0
 10
5.7303
 20
-13.3254
 30
0.0
 10
5.7693
 20
-13.546
 30
0.0
 10
5.8469
 20
-13.656
 30
0.0
 10
5.8469
 20
-13.656
 30
0.0
 10
5.9245
 20
-13.7656
 30
0.0
 10
6.02
 20
-13.8207
 30
0.0
 10
6.1338
 20
-13.8207
 30
0.0
 10
6.1338
 20
-13.8207
 30
0.0
 10
6.2481
 20
-13.8207
 30
0.0
 10
6.3436
 20
-13.7652
 30
0.0
 10
6.4212
 20
-13.6551
 30
0.0
 10
6.4212
 20
-13.6551
 30
0.0
 10
6.4988
 20
-13.545
 30
0.0
 10
6.5379
 20
-13.3244
 30
0.0
 10
6.5379
 20
-12.9938
 30
0.0
 10
6.5379
 20
-12.9938
 30
0.0
 10
6.5379
 20
-12.6612
 30
0.0
 10
6.4988
 20
-12.4401
 30
0.0
 10
6.4212
 20
-12.331
 30
0.0
 10
6.4212
 20
-12.331
 30
0.0
 10
6.3436
 20
-12.2214
 30
0.0
 10
6.2472
 20
-12.1669
 30
0.0
 10
6.1315
 20
-12.1669
 30
0.0
 10
6.1315
 20
-12.1669
 30
0.0
 10
6.0172
 20
-12.1669
 30
0.0
 10
5.9264
 20
-12.2153
 30
0.0
 10
5.8582
 20
-12.3117
 30
0.0
 10
5.8582
 20
-12.3117
 30
0.0
 10
5.7731
 20
-12.4345
 30
0.0
 10
5.7303
 20
-12.6622
 30
0.0
 10
5.7303
 20
-12.9938
 30
0.0
  0
SPLINE
  5
50
330
1F
100
AcDbEntity
  8
VRSTVA_1
 62
   250
100
AcDbSpline
210
0.0
220
0.0
230
1.0
 70
    11
 71
     3
 72
   120
 73
   116
 74
     0
 42
0.0000000001
 43
0.0000000001
 40
0.0
 40
0.0
 40
0.0
 40
0.0
 40
0.0333333333333333
 40
0.0333333333333333
 40
0.0333333333333333
 40
0.0333333333333333
 40
0.0666666666666667
 40
0.0666666666666667
 40
0.0666666666666667
 40
0.0666666666666667
 40
0.1
 40
0.1
 40
0.1
 40
0.1
 40
0.1333333333333333
 40
0.1333333333333333
 40
0.1333333333333333
 40
0.1333333333333333
 40
0.1666666666666667
 40
0.1666666666666667
 40
0.1666666666666667
 40
0.1666666666666667
 40
0.2
 40
0.2
 40
0.2
 40
0.2
 40
0.2333333333333333
 40
0.2333333333333333
 40
0.2333333333333333
 40
0.2333333333333333
 40
0.2666666666666667
 40
0.2666666666666667
 40
0.2666666666666667
 40
0.2666666666666667
 40
0.3
 40
0.3
 40
0.3
 40
0.3
 40
0.3333333333333333
 40
0.3333333333333333
 40
0.3333333333333333
 40
0.3333333333333333
 40
0.3666666666666666
 40
0.3666666666666666
 40
0.3666666666666666
 40
0.3666666666666666
 40
0.4
 40
0.4
 40
0.4
 40
0.4
 40
0.4333333333333333
 40
0.4333333333333333
 40
0.4333333333333333
 40
0.4333333333333333
 40
0.4666666666666667
 40
0.4666666666666667
 40
0.4666666666666667
 40
0.4666666666666667
 40
0.5
 40
0.5
 40
0.5
 40
0.5
 40
0.5333333333333333
 40
0.5333333333333333
 40
0.5333333333333333
 40
0.5333333333333333
 40
0.5666666666666667
 40
0.5666666666666667
 40
0.5666666666666667
 40
0.5666666666666667
 40
0.6
 40
0.6
 40
0.6
 40
0.6
 40
0.6333333333333333
 40
0.6333333333333333
 40
0.6333333333333333
 40
0.6333333333333333
 40
0.6666666666666666
 40
0.6666666666666666
 40
0.6666666666666666
 40
0.6666666666666666
 40
0.7
 40
0.7
 40
0.7
 40
0.7
 40
0.7333333333333333
 40
0.7333333333333333
 40
0.7333333333333333
 40
0.7333333333333333
 40
0.7666666666666667
 40
0.7666666666666667
 40
0.7666666666666667
 40
0.7666666666666667
 40
0.8
 40
0.8
 40
0.8
 40
0.8
 40
0.8333333333333334
 40
0.8333333333333334
 40
0.8333333333333334
 40
0.8333333333333334
 40
0.8666666666666667
 40
0.8666666666666667
 40
0.8666666666666667
 40
0.8666666666666667
 40
0.9
 40
0.9
 40
0.9
 40
0.9
 40
0.9333333333333333
 40
0.9333333333333333
 40
0.9333333333333333
 40
0.9333333333333333
 40
1.0
 40
1.0
 40
1.0
 40
1.0
 10
-50.6101
 20
0.7116
 30
0.0
 10
-50.6101
 20
0.7116
 30
0.0
 10
-50.8467
 20
0.7123
 30
0.0
 10
-50.8467
 20
0.7123
 30
0.0
 10
-50.8467
 20
0.7123
 30
0.0
 10
-50.8467
 20
0.7123
 30
0.0
 10
-50.8455
 20
1.5679
 30
0.0
 10
-50.8455
 20
1.5679
 30
0.0
 10
-50.8455
 20
1.5679
 30
0.0
 10
-50.8455
 20
1.5679
 30
0.0
 10
-50.0962
 20
1.5656
 30
0.0
 10
-50.0962
 20
1.5656
 30
0.0
 10
-50.0962
 20
1.5656
 30
0.0
 10
-49.9917
 20
1.4341
 30
0.0
 10
-49.9135
 20
1.2984
 30
0.0
 10
-49.8609
 20
1.1585
 30
0.0
 10
-49.8609
 20
1.1585
 30
0.0
 10
-49.8086
 20
1.0187
 30
0.0
 10
-49.7827
 20
0.8752
 30
0.0
 10
-49.7831
 20
0.7284
 30
0.0
 10
-49.7831
 20
0.7284
 30
0.0
 10
-49.7837
 20
0.5299
 30
0.0
 10
-49.8266
 20
0.3494
 30
0.0
 10
-49.9122
 20
0.1879
 30
0.0
 10
-49.9122
 20
0.1879
 30
0.0
 10
-49.9974
 20
0.0258
 30
0.0
 10
-50.1209
 20
-0.0961
 30
0.0
 10
-50.2816
 20
-0.1784
 30
0.0
 10
-50.2816
 20
-0.1784
 30
0.0
 10
-50.4427
 20
-0.2607
 30
0.0
 10
-50.6225
 20
-0.3016
 30
0.0
 10
-50.821
 20
-0.301
 30
0.0
 10
-50.821
 20
-0.301
 30
0.0
 10
-51.0176
 20
-0.3004
 30
0.0
 10
-51.2009
 20
-0.2585
 30
0.0
 10
-51.371
 20
-0.1755
 30
0.0
 10
-51.371
 20
-0.1755
 30
0.0
 10
-51.5414
 20
-0.0932
 30
0.0
 10
-51.6677
 20
0.0257
 30
0.0
 10
-51.75
 20
0.1802
 30
0.0
 10
-51.75
 20
0.1802
 30
0.0
 10
-51.8318
 20
0.3347
 30
0.0
 10
-51.8727
 20
0.5127
 30
0.0
 10
-51.8721
 20
0.714
 30
0.0
 10
-51.8721
 20
0.714
 30
0.0
 10
-51.8717
 20
0.8598
 30
0.0
 10
-51.8477
 20
0.9919
 30
0.0
 10
-51.7998
 20
1.1099
 30
0.0
 10
-51.7998
 20
1.1099
 30
0.0
 10
-51.7525
 20
1.2277
 30
0.0
 10
-51.6863
 20
1.3202
 30
0.0
 10
-51.6015
 20
1.3868
 30
0.0
 10
-51.6015
 20
1.3868
 30
0.0
 10
-51.5166
 20
1.4537
 30
0.0
 10
-51.4064
 20
1.5042
 30
0.0
 10
-51.2703
 20
1.5391
 30
0.0
 10
-51.2703
 20
1.5391
 30
0.0
 10
-51.2703
 20
1.5391
 30
0.0
 10
-51.2047
 20
1.2976
 30
0.0
 10
-51.2047
 20
1.2976
 30
0.0
 10
-51.2047
 20
1.2976
 30
0.0
 10
-51.3078
 20
1.2673
 30
0.0
 10
-51.3888
 20
1.2299
 30
0.0
 10
-51.4478
 20
1.1854
 30
0.0
 10
-51.4478
 20
1.1854
 30
0.0
 10
-51.5067
 20
1.1405
 30
0.0
 10
-51.5539
 20
1.0761
 30
0.0
 10
-51.5895
 20
0.9925
 30
0.0
 10
-51.5895
 20
0.9925
 30
0.0
 10
-51.625
 20
0.9093
 30
0.0
 10
-51.6432
 20
0.8163
 30
0.0
 10
-51.6435
 20
0.7147
 30
0.0
 10
-51.6435
 20
0.7147
 30
0.0
 10
-51.6439
 20
0.5924
 30
0.0
 10
-51.6253
 20
0.4865
 30
0.0
 10
-51.5884
 20
0.3975
 30
0.0
 10
-51.5884
 20
0.3975
 30
0.0
 10
-51.5515
 20
0.308
 30
0.0
 10
-51.5028
 20
0.2364
 30
0.0
 10
-51.4423
 20
0.1812
 30
0.0
 10
-51.4423
 20
0.1812
 30
0.0
 10
-51.3819
 20
0.1264
 30
0.0
 10
-51.3156
 20
0.0839
 30
0.0
 10
-51.2428
 20
0.0531
 30
0.0
 10
-51.2428
 20
0.0531
 30
0.0
 10
-51.1183
 20
0.0015
 30
0.0
 10
-50.9829
 20
-0.0248
 30
0.0
 10
-50.8366
 20
-0.0252
 30
0.0
 10
-50.8366
 20
-0.0252
 30
0.0
 10
-50.6565
 20
-0.0258
 30
0.0
 10
-50.5059
 20
0.0048
 30
0.0
 10
-50.3843
 20
0.0665
 30
0.0
 10
-50.3843
 20
0.0665
 30
0.0
 10
-50.2629
 20
0.1282
 30
0.0
 10
-50.1727
 20
0.2183
 30
0.0
 10
-50.1135
 20
0.3366
 30
0.0
 10
-50.1135
 20
0.3366
 30
0.0
 10
-50.0544
 20
0.455
 30
0.0
 10
-50.0244
 20
0.5805
 30
0.0
 10
-50.024
 20
0.7136
 30
0.0
 10
-50.024
 20
0.7136
 30
0.0
 10
-50.0236
 20
0.8298
 30
0.0
 10
-50.0459
 20
0.9427
 30
0.0
 10
-50.0903
 20
1.0529
 30
0.0
 10
-50.0903
 20
1.0529
 30
0.0
 10
-50.1341
 20
1.1636
 30
0.0
 10
-50.1814
 20
1.247
 30
0.0
 10
-50.232
 20
1.304
 30
0.0
 10
-50.232
 20
1.304
 30
0.0
 10
-50.232
 20
1.304
 30
0.0
 10
-50.6083
 20
1.3052
 30
0.0
 10
-50.6083
 20
1.3052
 30
0.0
 10
-50.6083
 20
1.3052
 30
0.0
 10
-50.6083
 20
1.3052
 30
0.0
 10
-50.6101
 20
0.7116
 30
0.0
 10
-50.6101
 20
0.7116
 30
0.0
  0
SPLINE
  5
51
330
1F
100
AcDbEntity
  8
VRSTVA_1
 62
   250
100
AcDbSpline
210
0.0
220
0.0
230
1.0
 70
    11
 71
     3
 72
    80
 73
    76
 74
     0
 42
0.0000000001
 43
0.0000000001
 40
0.0
 40
0.0
 40
0.0
 40
0.0
 40
0.05
 40
0.05
 40
0.05
 40
0.05
 40
0.1
 40
0.1
 40
0.1
 40
0.1
 40
0.15
 40
0.15
 40
0.15
 40
0.15
 40
0.2
 40
0.2
 40
0.2
 40
0.2
 40
0.25
 40
0.25
 40
0.25
 40
0.25
 40
0.3
 40
0.3
 40
0.3
 40
0.3
 40
0.35
 40
0.35
 40
0.35
 40
0.35
 40
0.4
 40
0.4
 40
0.4
 40
0.4
 40
0.45
 40
0.45
 40
0.45
 40
0.45
 40
0.5
 40
0.5
 40
0.5
 40
0.5
 40
0.55
 40
0.55
 40
0.55
 40
0.55
 40
0.6
 40
0.6
 40
0.6
 40
0.6
 40
0.65
 40
0.65
 40
0.65
 40
0.65
 40
0.7
 40
0.7
 40
0.7
 40
0.7
 40
0.75
 40
0.75
 40
0.75
 40
0.75
 40
0.8
 40
0.8
 40
0.8
 40
0.8
 40
0.85
 40
0.85
 40
0.85
 40
0.85
 40
0.9
 40
0.9
 40
0.9
 40
0.9
 40
1.0
 40
1.0
 40
1.0
 40
1.0
 10
-51.3332
 20
3.9339
 30
0.0
 10
-51.3332
 20
3.9339
 30
0.0
 10
-51.3147
 20
3.6874
 30
0.0
 10
-51.3147
 20
3.6874
 30
0.0
 10
-51.3147
 20
3.6874
 30
0.0
 10
-51.4121
 20
3.6656
 30
0.0
 10
-51.4832
 20
3.6347
 30
0.0
 10
-51.527
 20
3.5944
 30
0.0
 10
-51.527
 20
3.5944
 30
0.0
 10
-51.5983
 20
3.5274
 30
0.0
 10
-51.6339
 20
3.4447
 30
0.0
 10
-51.6342
 20
3.3464
 30
0.0
 10
-51.6342
 20
3.3464
 30
0.0
 10
-51.6344
 20
3.2674
 30
0.0
 10
-51.6124
 20
3.1982
 30
0.0
 10
-51.5684
 20
3.1383
 30
0.0
 10
-51.5684
 20
3.1383
 30
0.0
 10
-51.5117
 20
3.06
 30
0.0
 10
-51.4287
 20
2.9981
 30
0.0
 10
-51.3197
 20
2.9527
 30
0.0
 10
-51.3197
 20
2.9527
 30
0.0
 10
-51.2107
 20
2.9077
 30
0.0
 10
-51.0551
 20
2.8837
 30
0.0
 10
-50.8529
 20
2.8812
 30
0.0
 10
-50.8529
 20
2.8812
 30
0.0
 10
-50.9434
 20
2.9412
 30
0.0
 10
-51.011
 20
3.0143
 30
0.0
 10
-51.0549
 20
3.101
 30
0.0
 10
-51.0549
 20
3.101
 30
0.0
 10
-51.0984
 20
3.1872
 30
0.0
 10
-51.1202
 20
3.278
 30
0.0
 10
-51.1199
 20
3.3726
 30
0.0
 10
-51.1199
 20
3.3726
 30
0.0
 10
-51.1194
 20
3.5381
 30
0.0
 10
-51.0584
 20
3.6786
 30
0.0
 10
-50.9361
 20
3.7945
 30
0.0
 10
-50.9361
 20
3.7945
 30
0.0
 10
-50.814
 20
3.9102
 30
0.0
 10
-50.6567
 20
3.9681
 30
0.0
 10
-50.4639
 20
3.9676
 30
0.0
 10
-50.4639
 20
3.9676
 30
0.0
 10
-50.3369
 20
3.9672
 30
0.0
 10
-50.2194
 20
3.939
 30
0.0
 10
-50.1104
 20
3.8841
 30
0.0
 10
-50.1104
 20
3.8841
 30
0.0
 10
-50.0019
 20
3.8293
 30
0.0
 10
-49.9184
 20
3.7537
 30
0.0
 10
-49.8608
 20
3.658
 30
0.0
 10
-49.8608
 20
3.658
 30
0.0
 10
-49.8033
 20
3.5625
 30
0.0
 10
-49.7749
 20
3.4542
 30
0.0
 10
-49.7753
 20
3.3328
 30
0.0
 10
-49.7753
 20
3.3328
 30
0.0
 10
-49.7759
 20
3.1259
 30
0.0
 10
-49.8521
 20
2.9577
 30
0.0
 10
-50.0049
 20
2.8279
 30
0.0
 10
-50.0049
 20
2.8279
 30
0.0
 10
-50.1572
 20
2.6975
 30
0.0
 10
-50.4081
 20
2.6334
 30
0.0
 10
-50.7571
 20
2.6344
 30
0.0
 10
-50.7571
 20
2.6344
 30
0.0
 10
-51.1475
 20
2.6356
 30
0.0
 10
-51.431
 20
2.7085
 30
0.0
 10
-51.6079
 20
2.8534
 30
0.0
 10
-51.6079
 20
2.8534
 30
0.0
 10
-51.7618
 20
2.9795
 30
0.0
 10
-51.8389
 20
3.149
 30
0.0
 10
-51.8382
 20
3.3625
 30
0.0
 10
-51.8382
 20
3.3625
 30
0.0
 10
-51.8378
 20
3.5211
 30
0.0
 10
-51.7927
 20
3.6511
 30
0.0
 10
-51.703
 20
3.7525
 30
0.0
 10
-51.703
 20
3.7525
 30
0.0
 10
-51.6138
 20
3.8538
 30
0.0
 10
-51.4904
 20
3.9141
 30
0.0
 10
-51.3332
 20
3.9339
 30
0.0
  0
SPLINE
  5
52
330
1F
100
AcDbEntity
  8
VRSTVA_1
 62
   250
100
AcDbSpline
210
0.0
220
0.0
230
1.0
 70
    11
 71
     3
 72
    40
 73
    36
 74
     0
 42
0.0000000001
 43
0.0000000001
 40
0.0
 40
0.0
 40
0.0
 40
0.0
 40
0.1
 40
0.1
 40
0.1
 40
0.1
 40
0.2
 40
0.2
 40
0.2
 40
0.2
 40
0.3
 40
0.3
 40
0.3
 40
0.3
 40
0.4
 40
0.4
 40
0.4
 40
0.4
 40
0.5
 40
0.5
 40
0.5
 40
0.5
 40
0.6
 40
0.6
 40
0.6
 40
0.6
 40
0.7
 40
0.7
 40
0.7
 40
0.7
 40
0.8
 40
0.8
 40
0.8
 40
0.8
 40
1.0
 40
1.0
 40
1.0
 40
1.0
 10
-50.4657
 20
2.9186
 30
0.0
 10
-50.38
 20
2.9183
 30
0.0
 10
-50.2981
 20
2.9364
 30
0.0
 10
-50.2199
 20
2.9724
 30
0.0
 10
-50.2199
 20
2.9724
 30
0.0
 10
-50.1417
 20
3.0084
 30
0.0
 10
-50.0823
 20
3.059
 30
0.0
 10
-50.0412
 20
3.1238
 30
0.0
 10
-50.0412
 20
3.1238
 30
0.0
 10
-50.0
 20
3.1891
 30
0.0
 10
-49.9791
 20
3.2577
 30
0.0
 10
-49.9789
 20
3.3292
 30
0.0
 10
-49.9789
 20
3.3292
 30
0.0
 10
-49.9786
 20
3.4341
 30
0.0
 10
-50.0207
 20
3.524
 30
0.0
 10
-50.1051
 20
3.5996
 30
0.0
 10
-50.1051
 20
3.5996
 30
0.0
 10
-50.1896
 20
3.675
 30
0.0
 10
-50.3043
 20
3.7131
 30
0.0
 10
-50.4491
 20
3.7135
 30
0.0
 10
-50.4491
 20
3.7135
 30
0.0
 10
-50.5888
 20
3.7139
 30
0.0
 10
-50.699
 20
3.6771
 30
0.0
 10
-50.7796
 20
3.603
 30
0.0
 10
-50.7796
 20
3.603
 30
0.0
 10
-50.8603
 20
3.5289
 30
0.0
 10
-50.9006
 20
3.4355
 30
0.0
 10
-50.901
 20
3.3226
 30
0.0
 10
-50.901
 20
3.3226
 30
0.0
 10
-50.9013
 20
3.2102
 30
0.0
 10
-50.8616
 20
3.1149
 30
0.0
 10
-50.7813
 20
3.0367
 30
0.0
 10
-50.7813
 20
3.0367
 30
0.0
 10
-50.7011
 20
2.9584
 30
0.0
 10
-50.5959
 20
2.9189
 30
0.0
 10
-50.4657
 20
2.9186
 30
0.0
  0
SPLINE
  5
53
330
1F
100
AcDbEntity
  8
VRSTVA_1
 62
   250
100
AcDbSpline
210
0.0
220
0.0
230
1.0
 70
    11
 71
     3
 72
    20
 73
    16
 74
     0
 42
0.0000000001
 43
0.0000000001
 40
0.0
 40
0.0
 40
0.0
 40
0.0
 40
0.2
 40
0.2
 40
0.2
 40
0.2
 40
0.4
 40
0.4
 40
0.4
 40
0.4
 40
0.6
 40
0.6
 40
0.6
 40
0.6
 40
1.0
 40
1.0
 40
1.0
 40
1.0
 10
-49.773
 20
4.0948
 30
0.0
 10
-49.773
 20
4.0948
 30
0.0
 10
-51.8602
 20
4.6867
 30
0.0
 10
-51.8602
 20
4.6867
 30
0.0
 10
-51.8602
 20
4.6867
 30
0.0
 10
-51.8602
 20
4.6867
 30
0.0
 10
-51.8596
 20
4.8852
 30
0.0
 10
-51.8596
 20
4.8852
 30
0.0
 10
-51.8596
 20
4.8852
 30
0.0
 10
-51.8596
 20
4.8852
 30
0.0
 10
-49.7724
 20
4.2947
 30
0.0
 10
-49.7724
 20
4.2947
 30
0.0
 10
-49.7724
 20
4.2947
 30
0.0
 10
-49.7724
 20
4.2947
 30
0.0
 10
-49.773
 20
4.0948
 30
0.0
 10
-49.773
 20
4.0948
 30
0.0
  0
SPLINE
  5
54
330
1F
100
AcDbEntity
  8
VRSTVA_1
 62
   250
100
AcDbSpline
210
0.0
220
0.0
230
1.0
 70
    11
 71
     3
 72
    48
 73
    44
 74
     0
 42
0.0000000001
 43
0.0000000001
 40
0.0
 40
0.0
 40
0.0
 40
0.0
 40
0.0833333333333333
 40
0.0833333333333333
 40
0.0833333333333333
 40
0.0833333333333333
 40
0.1666666666666667
 40
0.1666666666666667
 40
0.1666666666666667
 40
0.1666666666666667
 40
0.25
 40
0.25
 40
0.25
 40
0.25
 40
0.3333333333333333
 40
0.3333333333333333
 40
0.3333333333333333
 40
0.3333333333333333
 40
0.4166666666666667
 40
0.4166666666666667
 40
0.4166666666666667
 40
0.4166666666666667
 40
0.5
 40
0.5
 40
0.5
 40
0.5
 40
0.5833333333333334
 40
0.5833333333333334
 40
0.5833333333333334
 40
0.5833333333333334
 40
0.6666666666666666
 40
0.6666666666666666
 40
0.6666666666666666
 40
0.6666666666666666
 40
0.75
 40
0.75
 40
0.75
 40
0.75
 40
0.8333333333333334
 40
0.8333333333333334
 40
0.8333333333333334
 40
0.8333333333333334
 40
1.0
 40
1.0
 40
1.0
 40
1.0
 10
-49.8022
 20
5.791
 30
0.0
 10
-49.8022
 20
5.791
 30
0.0
 10
-50.2857
 20
5.7924
 30
0.0
 10
-50.2857
 20
5.7924
 30
0.0
 10
-50.2857
 20
5.7924
 30
0.0
 10
-50.2857
 20
5.7924
 30
0.0
 10
-50.2884
 20
4.9161
 30
0.0
 10
-50.2884
 20
4.9161
 30
0.0
 10
-50.2884
 20
4.9161
 30
0.0
 10
-50.2884
 20
4.9161
 30
0.0
 10
-50.5161
 20
4.9168
 30
0.0
 10
-50.5161
 20
4.9168
 30
0.0
 10
-50.5161
 20
4.9168
 30
0.0
 10
-50.5161
 20
4.9168
 30
0.0
 10
-51.8223
 20
5.8427
 30
0.0
 10
-51.8223
 20
5.8427
 30
0.0
 10
-51.8223
 20
5.8427
 30
0.0
 10
-51.8223
 20
5.8427
 30
0.0
 10
-51.8217
 20
6.0454
 30
0.0
 10
-51.8217
 20
6.0454
 30
0.0
 10
-51.8217
 20
6.0454
 30
0.0
 10
-51.8217
 20
6.0454
 30
0.0
 10
-50.5127
 20
6.0415
 30
0.0
 10
-50.5127
 20
6.0415
 30
0.0
 10
-50.5127
 20
6.0415
 30
0.0
 10
-50.5127
 20
6.0415
 30
0.0
 10
-50.5119
 20
6.3143
 30
0.0
 10
-50.5119
 20
6.3143
 30
0.0
 10
-50.5119
 20
6.3143
 30
0.0
 10
-50.5119
 20
6.3143
 30
0.0
 10
-50.2842
 20
6.3136
 30
0.0
 10
-50.2842
 20
6.3136
 30
0.0
 10
-50.2842
 20
6.3136
 30
0.0
 10
-50.2842
 20
6.3136
 30
0.0
 10
-50.285
 20
6.0408
 30
0.0
 10
-50.285
 20
6.0408
 30
0.0
 10
-50.285
 20
6.0408
 30
0.0
 10
-50.285
 20
6.0408
 30
0.0
 10
-49.8015
 20
6.0394
 30
0.0
 10
-49.8015
 20
6.0394
 30
0.0
 10
-49.8015
 20
6.0394
 30
0.0
 10
-49.8015
 20
6.0394
 30
0.0
 10
-49.8022
 20
5.791
 30
0.0
 10
-49.8022
 20
5.791
 30
0.0
  0
SPLINE
  5
55
330
1F
100
AcDbEntity
  8
VRSTVA_1
 62
   250
100
AcDbSpline
210
0.0
220
0.0
230
1.0
 70
    11
 71
     3
 72
    16
 73
    12
 74
     0
 42
0.0000000001
 43
0.0000000001
 40
0.0
 40
0.0
 40
0.0
 40
0.0
 40
0.25
 40
0.25
 40
0.25
 40
0.25
 40
0.5
 40
0.5
 40
0.5
 40
0.5
 40
1.0
 40
1.0
 40
1.0
 40
1.0
 10
-50.5134
 20
5.7931
 30
0.0
 10
-50.5134
 20
5.7931
 30
0.0
 10
-51.424
 20
5.7958
 30
0.0
 10
-51.424
 20
5.7958
 30
0.0
 10
-51.424
 20
5.7958
 30
0.0
 10
-51.424
 20
5.7958
 30
0.0
 10
-50.5153
 20
5.161
 30
0.0
 10
-50.5153
 20
5.161
 30
0.0
 10
-50.5153
 20
5.161
 30
0.0
 10
-50.5153
 20
5.161
 30
0.0
 10
-50.5134
 20
5.7931
 30
0.0
 10
-50.5134
 20
5.7931
 30
0.0
  0
SPLINE
  5
56
330
1F
100
AcDbEntity
  8
VRSTVA_1
 62
   250
100
AcDbSpline
210
0.0
220
0.0
230
1.0
 70
    11
 71
     3
 72
    28
 73
    24
 74
     0
 42
0.0000000001
 43
0.0000000001
 40
0.0
 40
0.0
 40
0.0
 40
0.0
 40
0.1428571428571428
 40
0.1428571428571428
 40
0.1428571428571428
 40
0.1428571428571428
 40
0.2857142857142857
 40
0.2857142857142857
 40
0.2857142857142857
 40
0.2857142857142857
 40
0.4285714285714285
 40
0.4285714285714285
 40
0.4285714285714285
 40
0.4285714285714285
 40
0.5714285714285714
 40
0.5714285714285714
 40
0.5714285714285714
 40
0.5714285714285714
 40
0.7142857142857143
 40
0.7142857142857143
 40
0.7142857142857143
 40
0.7142857142857143
 40
1.0
 40
1.0
 40
1.0
 40
1.0
 10
-51.1044
 20
6.651
 30
0.0
 10
-51.1044
 20
6.651
 30
0.0
 10
-51.4894
 20
6.583
 30
0.0
 10
-51.4894
 20
6.583
 30
0.0
 10
-51.4894
 20
6.583
 30
0.0
 10
-51.4894
 20
6.583
 30
0.0
 10
-51.82
 20
6.584
 30
0.0
 10
-51.82
 20
6.584
 30
0.0
 10
-51.82
 20
6.584
 30
0.0
 10
-51.82
 20
6.584
 30
0.0
 10
-51.8192
 20
6.8666
 30
0.0
 10
-51.8192
 20
6.8666
 30
0.0
 10
-51.8192
 20
6.8666
 30
0.0
 10
-51.8192
 20
6.8666
 30
0.0
 10
-51.4886
 20
6.8656
 30
0.0
 10
-51.4886
 20
6.8656
 30
0.0
 10
-51.4886
 20
6.8656
 30
0.0
 10
-51.4886
 20
6.8656
 30
0.0
 10
-51.104
 20
6.8025
 30
0.0
 10
-51.104
 20
6.8025
 30
0.0
 10
-51.104
 20
6.8025
 30
0.0
 10
-51.104
 20
6.8025
 30
0.0
 10
-51.1044
 20
6.651
 30
0.0
 10
-51.1044
 20
6.651
 30
0.0
  0
SPLINE
  5
57
330
1F
100
AcDbEntity
  8
VRSTVA_1
 62
   250
100
AcDbSpline
210
0.0
220
0.0
230
1.0
 70
    11
 71
     3
 72
    28
 73
    24
 74
     0
 42
0.0000000001
 43
0.0000000001
 40
0.0
 40
0.0
 40
0.0
 40
0.0
 40
0.1428571428571428
 40
0.1428571428571428
 40
0.1428571428571428
 40
0.1428571428571428
 40
0.2857142857142857
 40
0.2857142857142857
 40
0.2857142857142857
 40
0.2857142857142857
 40
0.4285714285714285
 40
0.4285714285714285
 40
0.4285714285714285
 40
0.4285714285714285
 40
0.5714285714285714
 40
0.5714285714285714
 40
0.5714285714285714
 40
0.5714285714285714
 40
0.7142857142857143
 40
0.7142857142857143
 40
0.7142857142857143
 40
0.7142857142857143
 40
1.0
 40
1.0
 40
1.0
 40
1.0
 10
-51.1031
 20
7.1073
 30
0.0
 10
-51.1031
 20
7.1073
 30
0.0
 10
-51.4881
 20
7.0406
 30
0.0
 10
-51.4881
 20
7.0406
 30
0.0
 10
-51.4881
 20
7.0406
 30
0.0
 10
-51.4881
 20
7.0406
 30
0.0
 10
-51.8187
 20
7.0416
 30
0.0
 10
-51.8187
 20
7.0416
 30
0.0
 10
-51.8187
 20
7.0416
 30
0.0
 10
-51.8187
 20
7.0416
 30
0.0
 10
-51.8178
 20
7.3243
 30
0.0
 10
-51.8178
 20
7.3243
 30
0.0
 10
-51.8178
 20
7.3243
 30
0.0
 10
-51.8178
 20
7.3243
 30
0.0
 10
-51.4872
 20
7.3233
 30
0.0
 10
-51.4872
 20
7.3233
 30
0.0
 10
-51.4872
 20
7.3233
 30
0.0
 10
-51.4872
 20
7.3233
 30
0.0
 10
-51.1026
 20
7.2559
 30
0.0
 10
-51.1026
 20
7.2559
 30
0.0
 10
-51.1026
 20
7.2559
 30
0.0
 10
-51.1026
 20
7.2559
 30
0.0
 10
-51.1031
 20
7.1073
 30
0.0
 10
-51.1031
 20
7.1073
 30
0.0
  0
SPLINE
  5
58
330
1F
100
AcDbEntity
  8
VRSTVA_1
 62
   250
100
AcDbSpline
210
0.0
220
0.0
230
1.0
 70
    11
 71
     3
 72
    20
 73
    16
 74
     0
 42
0.0000000001
 43
0.0000000001
 40
0.0
 40
0.0
 40
0.0
 40
0.0
 40
0.2
 40
0.2
 40
0.2
 40
0.2
 40
0.4
 40
0.4
 40
0.4
 40
0.4
 40
0.6
 40
0.6
 40
0.6
 40
0.6
 40
1.0
 40
1.0
 40
1.0
 40
1.0
 10
-41.794
 20
-15.1564
 30
0.0
 10
-41.794
 20
-15.1564
 30
0.0
 10
-44.794
 20
-14.7331
 30
0.0
 10
-44.794
 20
-14.7331
 30
0.0
 10
-44.794
 20
-14.7331
 30
0.0
 10
-44.794
 20
-14.7331
 30
0.0
 10
-44.794
 20
-14.6391
 30
0.0
 10
-44.794
 20
-14.6391
 30
0.0
 10
-44.794
 20
-14.6391
 30
0.0
 10
-44.794
 20
-14.6391
 30
0.0
 10
-41.794
 20
-14.1877
 30
0.0
 10
-41.794
 20
-14.1877
 30
0.0
 10
-41.794
 20
-14.1877
 30
0.0
 10
-41.794
 20
-14.1877
 30
0.0
 10
-41.794
 20
-15.1564
 30
0.0
 10
-41.794
 20
-15.1564
 30
0.0
  0
SPLINE
  5
59
330
1F
100
AcDbEntity
  8
VRSTVA_1
 62
   250
100
AcDbSpline
210
0.0
220
0.0
230
1.0
 70
    11
 71
     3
 72
    20
 73
    16
 74
     0
 42
0.0000000001
 43
0.0000000001
 40
0.0
 40
0.0
 40
0.0
 40
0.0
 40
0.2
 40
0.2
 40
0.2
 40
0.2
 40
0.4
 40
0.4
 40
0.4
 40
0.4
 40
0.6
 40
0.6
 40
0.6
 40
0.6
 40
1.0
 40
1.0
 40
1.0
 40
1.0
 10
-48.9218
 20
14.0884
 30
0.0
 10
-48.9218
 20
14.0884
 30
0.0
 10
-49.3451
 20
11.0884
 30
0.0
 10
-49.3451
 20
11.0884
 30
0.0
 10
-49.3451
 20
11.0884
 30
0.0
 10
-49.3451
 20
11.0884
 30
0.0
 10
-49.4391
 20
11.0884
 30
0.0
 10
-49.4391
 20
11.0884
 30
0.0
 10
-49.4391
 20
11.0884
 30
0.0
 10
-49.4391
 20
11.0884
 30
0.0
 10
-49.8905
 20
14.0884
 30
0.0
 10
-49.8905
 20
14.0884
 30
0.0
 10
-49.8905
 20
14.0884
 30
0.0
 10
-49.8905
 20
14.0884
 30
0.0
 10
-48.9218
 20
14.0884
 30
0.0
 10
-48.9218
 20
14.0884
 30
0.0
  0
SPLINE
  5
5A
330
1F
100
AcDbEntity
  8
VRSTVA_1
 62
   250
100
AcDbSpline
210
0.0
220
0.0
230
1.0
 70
    11
 71
     3
 72
    20
 73
    16
 74
     0
 42
0.0000000001
 43
0.0000000001
 40
0.0
 40
0.0
 40
0.0
 40
0.0
 40
0.2
 40
0.2
 40
0.2
 40
0.2
 40
0.4
 40
0.4
 40
0.4
 40
0.4
 40
0.6
 40
0.6
 40
0.6
 40
0.6
 40
1.0
 40
1.0
 40
1.0
 40
1.0
 10
48.787
 20
-14.206
 30
0.0
 10
48.787
 20
-14.206
 30
0.0
 10
51.7872
 20
-14.6294
 30
0.0
 10
51.7872
 20
-14.6294
 30
0.0
 10
51.7872
 20
-14.6294
 30
0.0
 10
51.7872
 20
-14.6294
 30
0.0
 10
51.7872
 20
-14.7234
 30
0.0
 10
51.7872
 20
-14.7234
 30
0.0
 10
51.7872
 20
-14.7234
 30
0.0
 10
51.7872
 20
-14.7234
 30
0.0
 10
48.787
 20
-15.1749
 30
0.0
 10
48.787
 20
-15.1749
 30
0.0
 10
48.787
 20
-15.1749
 30
0.0
 10
48.787
 20
-15.1749
 30
0.0
 10
48.787
 20
-14.206
 30
0.0
 10
48.787
 20
-14.206
 30
0.0
  0
SPLINE
  5
5B
330
1F
100
AcDbEntity
  8
VRSTVA_1
 62
   250
100
AcDbSpline
210
0.0
220
0.0
230
1.0
 70
    24
 71
     3
 72
     8
 73
     4
 74
     0
 42
0.0000000001
 43
0.0000000001
 40
0.0
 40
0.0
 40
0.0
 40
0.0
 40
1.0
 40
1.0
 40
1.0
 40
1.0
 10
-44.8703
 20
-6.7339
 30
0.0
 10
-44.8703
 20
-6.7339
 30
0.0
 10
-44.8703
 20
-15.303
 30
0.0
 10
-44.8703
 20
-15.303
 30
0.0
  0
SPLINE
  5
5C
330
1F
100
AcDbEntity
  8
VRSTVA_1
 62
   250
100
AcDbSpline
210
0.0
220
0.0
230
1.0
 70
    24
 71
     3
 72
     8
 73
     4
 74
     0
 42
0.0000000001
 43
0.0000000001
 40
0.0
 40
0.0
 40
0.0
 40
0.0
 40
1.0
 40
1.0
 40
1.0
 40
1.0
 10
51.871
 20
-4.2386
 30
0.0
 10
51.871
 20
-4.2386
 30
0.0
 10
51.871
 20
-15.3558
 30
0.0
 10
51.871
 20
-15.3558
 30
0.0
  0
SPLINE
  5
5D
330
1F
100
AcDbEntity
  8
VRSTVA_1
 62
   250
100
AcDbSpline
210
0.0
220
0.0
230
1.0
 70
    24
 71
     3
 72
     8
 73
     4
 74
     0
 42
0.0000000001
 43
0.0000000001
 40
0.0
 40
0.0
 40
0.0
 40
0.0
 40
1.0
 40
1.0
 40
1.0
 40
1.0
 10
-0.404
 20
-2.6508
 30
0.0
 10
-0.404
 20
-2.6508
 30
0.0
 10
-0.404
 20
8.4959
 30
0.0
 10
-0.404
 20
8.4959
 30
0.0
  0
SPLINE
  5
5E
330
1F
100
AcDbEntity
  8
VRSTVA_1
 62
   250
100
AcDbSpline
210
0.0
220
0.0
230
1.0
 70
    24
 71
     3
 72
     8
 73
     4
 74
     0
 42
0.0000000001
 43
0.0000000001
 40
0.0
 40
0.0
 40
0.0
 40
0.0
 40
1.0
 40
1.0
 40
1.0
 40
1.0
 10
1.4803
 20
-1.3061
 30
0.0
 10
1.4803
 20
-1.3061
 30
0.0
 10
1.4803
 20
7.6925
 30
0.0
 10
1.4803
 20
7.6925
 30
0.0
  0
SPLINE
  5
5F
330
1F
100
AcDbEntity
  8
VRSTVA_1
 62
   250
100
AcDbSpline
210
0.0
220
0.0
230
1.0
 70
    24
 71
     3
 72
     8
 73
     4
 74
     0
 42
0.0000000001
 43
0.0000000001
 40
0.0
 40
0.0
 40
0.0
 40
0.0
 40
1.0
 40
1.0
 40
1.0
 40
1.0
 10
4.3062
 20
-1.3061
 30
0.0
 10
4.3062
 20
-1.3061
 30
0.0
 10
4.3062
 20
7.6925
 30
0.0
 10
4.3062
 20
7.6925
 30
0.0
  0
SPLINE
  5
60
330
1F
100
AcDbEntity
  8
VRSTVA_1
 62
   250
100
AcDbSpline
210
0.0
220
0.0
230
1.0
 70
    24
 71
     3
 72
     8
 73
     4
 74
     0
 42
0.0000000001
 43
0.0000000001
 40
0.0
 40
0.0
 40
0.0
 40
0.0
 40
1.0
 40
1.0
 40
1.0
 40
1.0
 10
7.132
 20
-1.3061
 30
0.0
 10
7.132
 20
-1.3061
 30
0.0
 10
7.132
 20
7.6925
 30
0.0
 10
7.132
 20
7.6925
 30
0.0
  0
SPLINE
  5
61
330
1F
100
AcDbEntity
  8
VRSTVA_1
 62
   250
100
AcDbSpline
210
0.0
220
0.0
230
1.0
 70
    24
 71
     3
 72
     8
 73
     4
 74
     0
 42
0.0000000001
 43
0.0000000001
 40
0.0
 40
0.0
 40
0.0
 40
0.0
 40
1.0
 40
1.0
 40
1.0
 40
1.0
 10
9.9579
 20
-1.3061
 30
0.0
 10
9.9579
 20
-1.3061
 30
0.0
 10
9.9579
 20
7.6925
 30
0.0
 10
9.9579
 20
7.6925
 30
0.0
  0
SPLINE
  5
62
330
1F
100
AcDbEntity
  8
VRSTVA_1
 62
   250
100
AcDbSpline
210
0.0
220
0.0
230
1.0
 70
    24
 71
     3
 72
     8
 73
     4
 74
     0
 42
0.0000000001
 43
0.0000000001
 40
0.0
 40
0.0
 40
0.0
 40
0.0
 40
1.0
 40
1.0
 40
1.0
 40
1.0
 10
12.7838
 20
-1.3061
 30
0.0
 10
12.7838
 20
-1.3061
 30
0.0
 10
12.7838
 20
7.6925
 30
0.0
 10
12.7838
 20
7.6925
 30
0.0
  0
SPLINE
  5
63
330
1F
100
AcDbEntity
  8
VRSTVA_1
 62
   250
100
AcDbSpline
210
0.0
220
0.0
230
1.0
 70
    24
 71
     3
 72
     8
 73
     4
 74
     0
 42
0.0000000001
 43
0.0000000001
 40
0.0
 40
0.0
 40
0.0
 40
0.0
 40
1.0
 40
1.0
 40
1.0
 40
1.0
 10
15.6104
 20
-1.3056
 30
0.0
 10
15.6104
 20
-1.3056
 30
0.0
 10
15.6104
 20
7.6919
 30
0.0
 10
15.6104
 20
7.6919
 30
0.0
  0
SPLINE
  5
64
330
1F
100
AcDbEntity
  8
VRSTVA_1
 62
   250
100
AcDbSpline
210
0.0
220
0.0
230
1.0
 70
    24
 71
     3
 72
     8
 73
     4
 74
     0
 42
0.0000000001
 43
0.0000000001
 40
0.0
 40
0.0
 40
0.0
 40
0.0
 40
1.0
 40
1.0
 40
1.0
 40
1.0
 10
18.5483
 20
-0.9724
 30
0.0
 10
18.5483
 20
-0.9724
 30
0.0
 10
18.5483
 20
7.3587
 30
0.0
 10
18.5483
 20
7.3587
 30
0.0
  0
SPLINE
  5
65
330
1F
100
AcDbEntity
  8
VRSTVA_1
 62
   250
100
AcDbSpline
210
0.0
220
0.0
230
1.0
 70
     8
 71
     3
 72
   228
 73
   224
 74
     0
 42
0.0000000001
 43
0.0000000001
 40
0.0
 40
0.0
 40
0.0
 40
0.0
 40
0.0175438596491228
 40
0.0175438596491228
 40
0.0175438596491228
 40
0.0175438596491228
 40
0.0350877192982456
 40
0.0350877192982456
 40
0.0350877192982456
 40
0.0350877192982456
 40
0.0526315789473684
 40
0.0526315789473684
 40
0.0526315789473684
 40
0.0526315789473684
 40
0.0701754385964912
 40
0.0701754385964912
 40
0.0701754385964912
 40
0.0701754385964912
 40
0.087719298245614
 40
0.087719298245614
 40
0.087719298245614
 40
0.087719298245614
 40
0.1052631578947368
 40
0.1052631578947368
 40
0.1052631578947368
 40
0.1052631578947368
 40
0.1228070175438596
 40
0.1228070175438596
 40
0.1228070175438596
 40
0.1228070175438596
 40
0.1403508771929824
 40
0.1403508771929824
 40
0.1403508771929824
 40
0.1403508771929824
 40
0.1578947368421053
 40
0.1578947368421053
 40
0.1578947368421053
 40
0.1578947368421053
 40
0.1754385964912281
 40
0.1754385964912281
 40
0.1754385964912281
 40
0.1754385964912281
 40
0.1929824561403509
 40
0.1929824561403509
 40
0.1929824561403509
 40
0.1929824561403509
 40
0.2105263157894737
 40
0.2105263157894737
 40
0.2105263157894737
 40
0.2105263157894737
 40
0.2280701754385965
 40
0.2280701754385965
 40
0.2280701754385965
 40
0.2280701754385965
 40
0.2456140350877193
 40
0.2456140350877193
 40
0.2456140350877193
 40
0.2456140350877193
 40
0.2631578947368421
 40
0.2631578947368421
 40
0.2631578947368421
 40
0.2631578947368421
 40
0.2807017543859649
 40
0.2807017543859649
 40
0.2807017543859649
 40
0.2807017543859649
 40
0.2982456140350877
 40
0.2982456140350877
 40
0.2982456140350877
 40
0.2982456140350877
 40
0.3157894736842105
 40
0.3157894736842105
 40
0.3157894736842105
 40
0.3157894736842105
 40
0.3333333333333333
 40
0.3333333333333333
 40
0.3333333333333333
 40
0.3333333333333333
 40
0.3508771929824561
 40
0.3508771929824561
 40
0.3508771929824561
 40
0.3508771929824561
 40
0.3684210526315789
 40
0.3684210526315789
 40
0.3684210526315789
 40
0.3684210526315789
 40
0.3859649122807017
 40
0.3859649122807017
 40
0.3859649122807017
 40
0.3859649122807017
 40
0.4035087719298245
 40
0.4035087719298245
 40
0.4035087719298245
 40
0.4035087719298245
 40
0.4210526315789473
 40
0.4210526315789473
 40
0.4210526315789473
 40
0.4210526315789473
 40
0.4385964912280702
 40
0.4385964912280702
 40
0.4385964912280702
 40
0.4385964912280702
 40
0.456140350877193
 40
0.456140350877193
 40
0.456140350877193
 40
0.456140350877193
 40
0.4736842105263158
 40
0.4736842105263158
 40
0.4736842105263158
 40
0.4736842105263158
 40
0.4912280701754386
 40
0.4912280701754386
 40
0.4912280701754386
 40
0.4912280701754386
 40
0.5087719298245614
 40
0.5087719298245614
 40
0.5087719298245614
 40
0.5087719298245614
 40
0.5263157894736842
 40
0.5263157894736842
 40
0.5263157894736842
 40
0.5263157894736842
 40
0.543859649122807
 40
0.543859649122807
 40
0.543859649122807
 40
0.543859649122807
 40
0.5614035087719298
 40
0.5614035087719298
 40
0.5614035087719298
 40
0.5614035087719298
 40
0.5789473684210527
 40
0.5789473684210527
 40
0.5789473684210527
 40
0.5789473684210527
 40
0.5964912280701754
 40
0.5964912280701754
 40
0.5964912280701754
 40
0.5964912280701754
 40
0.6140350877192983
 40
0.6140350877192983
 40
0.6140350877192983
 40
0.6140350877192983
 40
0.631578947368421
 40
0.631578947368421
 40
0.631578947368421
 40
0.631578947368421
 40
0.6491228070175439
 40
0.6491228070175439
 40
0.6491228070175439
 40
0.6491228070175439
 40
0.6666666666666666
 40
0.6666666666666666
 40
0.6666666666666666
 40
0.6666666666666666
 40
0.6842105263157895
 40
0.6842105263157895
 40
0.6842105263157895
 40
0.6842105263157895
 40
0.7017543859649122
 40
0.7017543859649122
 40
0.7017543859649122
 40
0.7017543859649122
 40
0.7192982456140351
 40
0.7192982456140351
 40
0.7192982456140351
 40
0.7192982456140351
 40
0.7368421052631579
 40
0.7368421052631579
 40
0.7368421052631579
 40
0.7368421052631579
 40
0.7543859649122807
 40
0.7543859649122807
 40
0.7543859649122807
 40
0.7543859649122807
 40
0.7719298245614035
 40
0.7719298245614035
 40
0.7719298245614035
 40
0.7719298245614035
 40
0.7894736842105263
 40
0.7894736842105263
 40
0.7894736842105263
 40
0.7894736842105263
 40
0.8070175438596491
 40
0.8070175438596491
 40
0.8070175438596491
 40
0.8070175438596491
 40
0.8245614035087719
 40
0.8245614035087719
 40
0.8245614035087719
 40
0.8245614035087719
 40
0.8421052631578947
 40
0.8421052631578947
 40
0.8421052631578947
 40
0.8421052631578947
 40
0.8596491228070176
 40
0.8596491228070176
 40
0.8596491228070176
 40
0.8596491228070176
 40
0.8771929824561403
 40
0.8771929824561403
 40
0.8771929824561403
 40
0.8771929824561403
 40
0.8947368421052632
 40
0.8947368421052632
 40
0.8947368421052632
 40
0.8947368421052632
 40
0.9122807017543859
 40
0.9122807017543859
 40
0.9122807017543859
 40
0.9122807017543859
 40
0.9298245614035088
 40
0.9298245614035088
 40
0.9298245614035088
 40
0.9298245614035088
 40
0.9473684210526315
 40
0.9473684210526315
 40
0.9473684210526315
 40
0.9473684210526315
 40
0.9649122807017544
 40
0.9649122807017544
 40
0.9649122807017544
 40
0.9649122807017544
 40
1.0
 40
1.0
 40
1.0
 40
1.0
 10
23.5469
 20
7.3587
 30
0.0
 10
23.5469
 20
7.3587
 30
0.0
 10
18.5483
 20
7.3587
 30
0.0
 10
18.5483
 20
7.3587
 30
0.0
 10
18.5483
 20
7.3587
 30
0.0
 10
18.5483
 20
7.3587
 30
0.0
 10
16.8639
 20
9.0788
 30
0.0
 10
16.8639
 20
9.0788
 30
0.0
 10
16.8639
 20
9.0788
 30
0.0
 10
16.8639
 20
9.0788
 30
0.0
 10
16.7402
 20
9.0788
 30
0.0
 10
16.7402
 20
9.0788
 30
0.0
 10
16.7402
 20
9.0788
 30
0.0
 10
16.7402
 20
9.0788
 30
0.0
 10
15.7002
 20
7.6894
 30
0.0
 10
15.7002
 20
7.6894
 30
0.0
 10
15.7002
 20
7.6894
 30
0.0
 10
15.7002
 20
7.6894
 30
0.0
 10
13.9918
 20
9.1035
 30
0.0
 10
13.9918
 20
9.1035
 30
0.0
 10
13.9918
 20
9.1035
 30
0.0
 10
13.9918
 20
9.1035
 30
0.0
 10
13.8433
 20
9.1035
 30
0.0
 10
13.8433
 20
9.1035
 30
0.0
 10
13.8433
 20
9.1035
 30
0.0
 10
13.8433
 20
9.1035
 30
0.0
 10
12.828
 20
7.7885
 30
0.0
 10
12.828
 20
7.7885
 30
0.0
 10
12.828
 20
7.7885
 30
0.0
 10
12.828
 20
7.7885
 30
0.0
 10
11.1692
 20
9.1035
 30
0.0
 10
11.1692
 20
9.1035
 30
0.0
 10
11.1692
 20
9.1035
 30
0.0
 10
11.1692
 20
9.1035
 30
0.0
 10
10.9464
 20
9.1035
 30
0.0
 10
10.9464
 20
9.1035
 30
0.0
 10
10.9464
 20
9.1035
 30
0.0
 10
10.9464
 20
9.1035
 30
0.0
 10
9.9807
 20
7.7638
 30
0.0
 10
9.9807
 20
7.7638
 30
0.0
 10
9.9807
 20
7.7638
 30
0.0
 10
9.9807
 20
7.7638
 30
0.0
 10
8.3217
 20
9.1035
 30
0.0
 10
8.3217
 20
9.1035
 30
0.0
 10
8.3217
 20
9.1035
 30
0.0
 10
8.3217
 20
9.1035
 30
0.0
 10
8.198
 20
9.1035
 30
0.0
 10
8.198
 20
9.1035
 30
0.0
 10
8.198
 20
9.1035
 30
0.0
 10
8.198
 20
9.1035
 30
0.0
 10
7.1828
 20
7.7141
 30
0.0
 10
7.1828
 20
7.7141
 30
0.0
 10
7.1828
 20
7.7141
 30
0.0
 10
7.1828
 20
7.7141
 30
0.0
 10
5.5734
 20
9.0788
 30
0.0
 10
5.5734
 20
9.0788
 30
0.0
 10
5.5734
 20
9.0788
 30
0.0
 10
5.5734
 20
9.0788
 30
0.0
 10
5.3753
 20
9.0788
 30
0.0
 10
5.3753
 20
9.0788
 30
0.0
 10
5.3753
 20
9.0788
 30
0.0
 10
5.3753
 20
9.0788
 30
0.0
 10
4.3107
 20
7.7141
 30
0.0
 10
4.3107
 20
7.7141
 30
0.0
 10
4.3107
 20
7.7141
 30
0.0
 10
4.3107
 20
7.7141
 30
0.0
 10
2.6765
 20
9.0788
 30
0.0
 10
2.6765
 20
9.0788
 30
0.0
 10
2.6765
 20
9.0788
 30
0.0
 10
2.6765
 20
9.0788
 30
0.0
 10
2.5528
 20
9.0788
 30
0.0
 10
2.5528
 20
9.0788
 30
0.0
 10
2.5528
 20
9.0788
 30
0.0
 10
2.5528
 20
9.0788
 30
0.0
 10
1.5624
 20
7.7389
 30
0.0
 10
1.5624
 20
7.7389
 30
0.0
 10
1.5624
 20
7.7389
 30
0.0
 10
1.5624
 20
7.7389
 30
0.0
 10
-0.1708
 20
9.1035
 30
0.0
 10
-0.1708
 20
9.1035
 30
0.0
 10
-0.1708
 20
9.1035
 30
0.0
 10
-0.1708
 20
9.1035
 30
0.0
 10
-0.3689
 20
8.4584
 30
0.0
 10
-0.3689
 20
8.4584
 30
0.0
 10
-0.3689
 20
8.4584
 30
0.0
 10
-0.3689
 20
8.4584
 30
0.0
 10
-0.7156
 20
7.4412
 30
0.0
 10
-0.7156
 20
7.4412
 30
0.0
 10
-0.7156
 20
7.4412
 30
0.0
 10
-0.7156
 20
7.4412
 30
0.0
 10
-1.087
 20
6.3744
 30
0.0
 10
-1.087
 20
6.3744
 30
0.0
 10
-1.087
 20
6.3744
 30
0.0
 10
-1.087
 20
6.3744
 30
0.0
 10
-1.2603
 20
5.6052
 30
0.0
 10
-1.2603
 20
5.6052
 30
0.0
 10
-1.2603
 20
5.6052
 30
0.0
 10
-1.2603
 20
5.6052
 30
0.0
 10
-1.3098
 20
4.985
 30
0.0
 10
-1.3098
 20
4.985
 30
0.0
 10
-1.3098
 20
4.985
 30
0.0
 10
-1.3098
 20
4.985
 30
0.0
 10
-1.2851
 20
4.4391
 30
0.0
 10
-1.2851
 20
4.4391
 30
0.0
 10
-1.2851
 20
4.4391
 30
0.0
 10
-1.2851
 20
4.4391
 30
0.0
 10
-1.1117
 20
3.7692
 30
0.0
 10
-1.1117
 20
3.7692
 30
0.0
 10
-1.1117
 20
3.7692
 30
0.0
 10
-1.1117
 20
3.7692
 30
0.0
 10
-0.8889
 20
3.025
 30
0.0
 10
-0.8889
 20
3.025
 30
0.0
 10
-0.8889
 20
3.025
 30
0.0
 10
-0.8889
 20
3.025
 30
0.0
 10
-0.6414
 20
2.1565
 30
0.0
 10
-0.6414
 20
2.1565
 30
0.0
 10
-0.6414
 20
2.1565
 30
0.0
 10
-0.6414
 20
2.1565
 30
0.0
 10
-0.567
 20
1.189
 30
0.0
 10
-0.567
 20
1.189
 30
0.0
 10
-0.567
 20
1.189
 30
0.0
 10
-0.567
 20
1.189
 30
0.0
 10
-0.6414
 20
-0.002
 30
0.0
 10
-0.6414
 20
-0.002
 30
0.0
 10
-0.6414
 20
-0.002
 30
0.0
 10
-0.6414
 20
-0.002
 30
0.0
 10
-0.6414
 20
-1.2177
 30
0.0
 10
-0.6414
 20
-1.2177
 30
0.0
 10
-0.6414
 20
-1.2177
 30
0.0
 10
-0.6414
 20
-1.2177
 30
0.0
 10
-0.6661
 20
-2.1604
 30
0.0
 10
-0.6661
 20
-2.1604
 30
0.0
 10
-0.6661
 20
-2.1604
 30
0.0
 10
-0.6661
 20
-2.1604
 30
0.0
 10
-0.5422
 20
-2.4582
 30
0.0
 10
-0.5422
 20
-2.4582
 30
0.0
 10
-0.5422
 20
-2.4582
 30
0.0
 10
-0.5422
 20
-2.4582
 30
0.0
 10
-0.3936
 20
-2.7559
 30
0.0
 10
-0.3936
 20
-2.7559
 30
0.0
 10
-0.3936
 20
-2.7559
 30
0.0
 10
-0.3936
 20
-2.7559
 30
0.0
 10
-0.1956
 20
-2.7559
 30
0.0
 10
-0.1956
 20
-2.7559
 30
0.0
 10
-0.1956
 20
-2.7559
 30
0.0
 10
-0.1956
 20
-2.7559
 30
0.0
 10
1.488
 20
-1.2921
 30
0.0
 10
1.488
 20
-1.2921
 30
0.0
 10
1.488
 20
-1.2921
 30
0.0
 10
1.488
 20
-1.2921
 30
0.0
 10
2.5031
 20
-2.6815
 30
0.0
 10
2.5031
 20
-2.6815
 30
0.0
 10
2.5031
 20
-2.6815
 30
0.0
 10
2.5031
 20
-2.6815
 30
0.0
 10
2.6517
 20
-2.6319
 30
0.0
 10
2.6517
 20
-2.6319
 30
0.0
 10
2.6517
 20
-2.6319
 30
0.0
 10
2.6517
 20
-2.6319
 30
0.0
 10
4.3602
 20
-1.2672
 30
0.0
 10
4.3602
 20
-1.2672
 30
0.0
 10
4.3602
 20
-1.2672
 30
0.0
 10
4.3602
 20
-1.2672
 30
0.0
 10
5.3258
 20
-2.7062
 30
0.0
 10
5.3258
 20
-2.7062
 30
0.0
 10
5.3258
 20
-2.7062
 30
0.0
 10
5.3258
 20
-2.7062
 30
0.0
 10
5.5239
 20
-2.7062
 30
0.0
 10
5.5239
 20
-2.7062
 30
0.0
 10
5.5239
 20
-2.7062
 30
0.0
 10
5.5239
 20
-2.7062
 30
0.0
 10
7.158
 20
-1.2921
 30
0.0
 10
7.158
 20
-1.2921
 30
0.0
 10
7.158
 20
-1.2921
 30
0.0
 10
7.158
 20
-1.2921
 30
0.0
 10
8.1484
 20
-2.7311
 30
0.0
 10
8.1484
 20
-2.7311
 30
0.0
 10
8.1484
 20
-2.7311
 30
0.0
 10
8.1484
 20
-2.7311
 30
0.0
 10
8.3217
 20
-2.7062
 30
0.0
 10
8.3217
 20
-2.7062
 30
0.0
 10
8.3217
 20
-2.7062
 30
0.0
 10
8.3217
 20
-2.7062
 30
0.0
 10
10.0302
 20
-1.2177
 30
0.0
 10
10.0302
 20
-1.2177
 30
0.0
 10
10.0302
 20
-1.2177
 30
0.0
 10
10.0302
 20
-1.2177
 30
0.0
 10
10.9959
 20
-2.7311
 30
0.0
 10
10.9959
 20
-2.7311
 30
0.0
 10
10.9959
 20
-2.7311
 30
0.0
 10
10.9959
 20
-2.7311
 30
0.0
 10
11.2434
 20
-2.6566
 30
0.0
 10
11.2434
 20
-2.6566
 30
0.0
 10
11.2434
 20
-2.6566
 30
0.0
 10
11.2434
 20
-2.6566
 30
0.0
 10
12.8033
 20
-1.2921
 30
0.0
 10
12.8033
 20
-1.2921
 30
0.0
 10
12.8033
 20
-1.2921
 30
0.0
 10
12.8033
 20
-1.2921
 30
0.0
 10
13.7937
 20
-2.6815
 30
0.0
 10
13.7937
 20
-2.6815
 30
0.0
 10
13.7937
 20
-2.6815
 30
0.0
 10
13.7937
 20
-2.6815
 30
0.0
 10
13.9918
 20
-2.6815
 30
0.0
 10
13.9918
 20
-2.6815
 30
0.0
 10
13.9918
 20
-2.6815
 30
0.0
 10
13.9918
 20
-2.6815
 30
0.0
 10
15.6507
 20
-1.3169
 30
0.0
 10
15.6507
 20
-1.3169
 30
0.0
 10
15.6507
 20
-1.3169
 30
0.0
 10
15.6507
 20
-1.3169
 30
0.0
 10
16.6906
 20
-2.6319
 30
0.0
 10
16.6906
 20
-2.6319
 30
0.0
 10
16.6906
 20
-2.6319
 30
0.0
 10
16.6906
 20
-2.6319
 30
0.0
 10
16.8639
 20
-2.5822
 30
0.0
 10
16.8639
 20
-2.5822
 30
0.0
 10
16.8639
 20
-2.5822
 30
0.0
 10
16.8639
 20
-2.5822
 30
0.0
 10
18.6466
 20
-0.9199
 30
0.0
 10
18.6466
 20
-0.9199
 30
0.0
 10
18.6466
 20
-0.9199
 30
0.0
 10
18.6466
 20
-0.9199
 30
0.0
 10
23.4749
 20
-0.9448
 30
0.0
 10
23.4749
 20
-0.9448
 30
0.0
  0
SPLINE
  5
66
330
1F
100
AcDbEntity
  8
VRSTVA_1
 62
   250
100
AcDbSpline
210
0.0
220
0.0
230
1.0
 70
     8
 71
     3
 72
   152
 73
   148
 74
     0
 42
0.0000000001
 43
0.0000000001
 40
0.0
 40
0.0
 40
0.0
 40
0.0
 40
0.0263157894736842
 40
0.0263157894736842
 40
0.0263157894736842
 40
0.0263157894736842
 40
0.0526315789473684
 40
0.0526315789473684
 40
0.0526315789473684
 40
0.0526315789473684
 40
0.0789473684210526
 40
0.0789473684210526
 40
0.0789473684210526
 40
0.0789473684210526
 40
0.1052631578947368
 40
0.1052631578947368
 40
0.1052631578947368
 40
0.1052631578947368
 40
0.131578947368421
 40
0.131578947368421
 40
0.131578947368421
 40
0.131578947368421
 40
0.1578947368421053
 40
0.1578947368421053
 40
0.1578947368421053
 40
0.1578947368421053
 40
0.1842105263157895
 40
0.1842105263157895
 40
0.1842105263157895
 40
0.1842105263157895
 40
0.2105263157894737
 40
0.2105263157894737
 40
0.2105263157894737
 40
0.2105263157894737
 40
0.2368421052631579
 40
0.2368421052631579
 40
0.2368421052631579
 40
0.2368421052631579
 40
0.2631578947368421
 40
0.2631578947368421
 40
0.2631578947368421
 40
0.2631578947368421
 40
0.2894736842105263
 40
0.2894736842105263
 40
0.2894736842105263
 40
0.2894736842105263
 40
0.3157894736842105
 40
0.3157894736842105
 40
0.3157894736842105
 40
0.3157894736842105
 40
0.3421052631578947
 40
0.3421052631578947
 40
0.3421052631578947
 40
0.3421052631578947
 40
0.3684210526315789
 40
0.3684210526315789
 40
0.3684210526315789
 40
0.3684210526315789
 40
0.3947368421052632
 40
0.3947368421052632
 40
0.3947368421052632
 40
0.3947368421052632
 40
0.4210526315789473
 40
0.4210526315789473
 40
0.4210526315789473
 40
0.4210526315789473
 40
0.4473684210526316
 40
0.4473684210526316
 40
0.4473684210526316
 40
0.4473684210526316
 40
0.4736842105263158
 40
0.4736842105263158
 40
0.4736842105263158
 40
0.4736842105263158
 40
0.5
 40
0.5
 40
0.5
 40
0.5
 40
0.5263157894736842
 40
0.5263157894736842
 40
0.5263157894736842
 40
0.5263157894736842
 40
0.5526315789473685
 40
0.5526315789473685
 40
0.5526315789473685
 40
0.5526315789473685
 40
0.5789473684210527
 40
0.5789473684210527
 40
0.5789473684210527
 40
0.5789473684210527
 40
0.6052631578947368
 40
0.6052631578947368
 40
0.6052631578947368
 40
0.6052631578947368
 40
0.631578947368421
 40
0.631578947368421
 40
0.631578947368421
 40
0.631578947368421
 40
0.6578947368421053
 40
0.6578947368421053
 40
0.6578947368421053
 40
0.6578947368421053
 40
0.6842105263157895
 40
0.6842105263157895
 40
0.6842105263157895
 40
0.6842105263157895
 40
0.7105263157894737
 40
0.7105263157894737
 40
0.7105263157894737
 40
0.7105263157894737
 40
0.7368421052631579
 40
0.7368421052631579
 40
0.7368421052631579
 40
0.7368421052631579
 40
0.7631578947368421
 40
0.7631578947368421
 40
0.7631578947368421
 40
0.7631578947368421
 40
0.7894736842105263
 40
0.7894736842105263
 40
0.7894736842105263
 40
0.7894736842105263
 40
0.8157894736842105
 40
0.8157894736842105
 40
0.8157894736842105
 40
0.8157894736842105
 40
0.8421052631578947
 40
0.8421052631578947
 40
0.8421052631578947
 40
0.8421052631578947
 40
0.868421052631579
 40
0.868421052631579
 40
0.868421052631579
 40
0.868421052631579
 40
0.8947368421052632
 40
0.8947368421052632
 40
0.8947368421052632
 40
0.8947368421052632
 40
0.9210526315789473
 40
0.9210526315789473
 40
0.9210526315789473
 40
0.9210526315789473
 40
0.9473684210526315
 40
0.9473684210526315
 40
0.9473684210526315
 40
0.9473684210526315
 40
1.0
 40
1.0
 40
1.0
 40
1.0
 10
-19.6549
 20
-0.9694
 30
0.0
 10
-19.6549
 20
-0.9694
 30
0.0
 10
-14.9448
 20
-0.9172
 30
0.0
 10
-14.9448
 20
-0.9172
 30
0.0
 10
-14.9448
 20
-0.9172
 30
0.0
 10
-14.9448
 20
-0.9172
 30
0.0
 10
-13.1752
 20
-2.6382
 30
0.0
 10
-13.1752
 20
-2.6382
 30
0.0
 10
-13.1752
 20
-2.6382
 30
0.0
 10
-13.1752
 20
-2.6382
 30
0.0
 10
-13.045
 20
-2.6644
 30
0.0
 10
-13.045
 20
-2.6644
 30
0.0
 10
-13.045
 20
-2.6644
 30
0.0
 10
-13.045
 20
-2.6644
 30
0.0
 10
-11.4057
 20
-1.3083
 30
0.0
 10
-11.4057
 20
-1.3083
 30
0.0
 10
-11.4057
 20
-1.3083
 30
0.0
 10
-11.4057
 20
-1.3083
 30
0.0
 10
-10.4168
 20
-2.7686
 30
0.0
 10
-10.4168
 20
-2.7686
 30
0.0
 10
-10.4168
 20
-2.7686
 30
0.0
 10
-10.4168
 20
-2.7686
 30
0.0
 10
-10.2607
 20
-2.7686
 30
0.0
 10
-10.2607
 20
-2.7686
 30
0.0
 10
-10.2607
 20
-2.7686
 30
0.0
 10
-10.2607
 20
-2.7686
 30
0.0
 10
-8.5952
 20
-1.3866
 30
0.0
 10
-8.5952
 20
-1.3866
 30
0.0
 10
-8.5952
 20
-1.3866
 30
0.0
 10
-8.5952
 20
-1.3866
 30
0.0
 10
-7.6064
 20
-2.7164
 30
0.0
 10
-7.6064
 20
-2.7164
 30
0.0
 10
-7.6064
 20
-2.7164
 30
0.0
 10
-7.6064
 20
-2.7164
 30
0.0
 10
-7.3722
 20
-2.6644
 30
0.0
 10
-7.3722
 20
-2.6644
 30
0.0
 10
-7.3722
 20
-2.6644
 30
0.0
 10
-7.3722
 20
-2.6644
 30
0.0
 10
-5.7847
 20
-1.2823
 30
0.0
 10
-5.7847
 20
-1.2823
 30
0.0
 10
-5.7847
 20
-1.2823
 30
0.0
 10
-5.7847
 20
-1.2823
 30
0.0
 10
-4.8739
 20
-2.6904
 30
0.0
 10
-4.8739
 20
-2.6904
 30
0.0
 10
-4.8739
 20
-2.6904
 30
0.0
 10
-4.8739
 20
-2.6904
 30
0.0
 10
-4.6397
 20
-2.7686
 30
0.0
 10
-4.6397
 20
-2.7686
 30
0.0
 10
-4.6397
 20
-2.7686
 30
0.0
 10
-4.6397
 20
-2.7686
 30
0.0
 10
-2.9482
 20
-1.3345
 30
0.0
 10
-2.9482
 20
-1.3345
 30
0.0
 10
-2.9482
 20
-1.3345
 30
0.0
 10
-2.9482
 20
-1.3345
 30
0.0
 10
-2.4539
 20
-2.4035
 30
0.0
 10
-2.4539
 20
-2.4035
 30
0.0
 10
-2.4539
 20
-2.4035
 30
0.0
 10
-2.4539
 20
-2.4035
 30
0.0
 10
-2.1676
 20
-2.3775
 30
0.0
 10
-2.1676
 20
-2.3775
 30
0.0
 10
-2.1676
 20
-2.3775
 30
0.0
 10
-2.1676
 20
-2.3775
 30
0.0
 10
-2.2196
 20
-0.2653
 30
0.0
 10
-2.2196
 20
-0.2653
 30
0.0
 10
-2.2196
 20
-0.2653
 30
0.0
 10
-2.2196
 20
-0.2653
 30
0.0
 10
-2.2457
 20
1.221
 30
0.0
 10
-2.2457
 20
1.221
 30
0.0
 10
-2.2457
 20
1.221
 30
0.0
 10
-2.2457
 20
1.221
 30
0.0
 10
-2.4958
 20
3.1596
 30
0.0
 10
-2.4958
 20
3.1596
 30
0.0
 10
-2.4958
 20
3.1596
 30
0.0
 10
-2.4958
 20
3.1596
 30
0.0
 10
-2.9154
 20
4.3241
 30
0.0
 10
-2.9154
 20
4.3241
 30
0.0
 10
-2.9154
 20
4.3241
 30
0.0
 10
-2.9154
 20
4.3241
 30
0.0
 10
-2.9639
 20
5.1489
 30
0.0
 10
-2.9639
 20
5.1489
 30
0.0
 10
-2.9639
 20
5.1489
 30
0.0
 10
-2.9639
 20
5.1489
 30
0.0
 10
-2.7539
 20
6.0546
 30
0.0
 10
-2.7539
 20
6.0546
 30
0.0
 10
-2.7539
 20
6.0546
 30
0.0
 10
-2.7539
 20
6.0546
 30
0.0
 10
-1.7371
 20
9.0467
 30
0.0
 10
-1.7371
 20
9.0467
 30
0.0
 10
-1.7371
 20
9.0467
 30
0.0
 10
-1.7371
 20
9.0467
 30
0.0
 10
-1.9147
 20
9.0953
 30
0.0
 10
-1.9147
 20
9.0953
 30
0.0
 10
-1.9147
 20
9.0953
 30
0.0
 10
-1.9147
 20
9.0953
 30
0.0
 10
-2.9404
 20
7.6925
 30
0.0
 10
-2.9404
 20
7.6925
 30
0.0
 10
-2.9404
 20
7.6925
 30
0.0
 10
-2.9404
 20
7.6925
 30
0.0
 10
-4.5812
 20
9.0693
 30
0.0
 10
-4.5812
 20
9.0693
 30
0.0
 10
-4.5812
 20
9.0693
 30
0.0
 10
-4.5812
 20
9.0693
 30
0.0
 10
-4.7366
 20
9.0735
 30
0.0
 10
-4.7366
 20
9.0735
 30
0.0
 10
-4.7366
 20
9.0735
 30
0.0
 10
-4.7366
 20
9.0735
 30
0.0
 10
-5.7747
 20
7.7167
 30
0.0
 10
-5.7747
 20
7.7167
 30
0.0
 10
-5.7747
 20
7.7167
 30
0.0
 10
-5.7747
 20
7.7167
 30
0.0
 10
-7.3771
 20
9.0282
 30
0.0
 10
-7.3771
 20
9.0282
 30
0.0
 10
-7.3771
 20
9.0282
 30
0.0
 10
-7.3771
 20
9.0282
 30
0.0
 10
-7.5576
 20
9.0509
 30
0.0
 10
-7.5576
 20
9.0509
 30
0.0
 10
-7.5576
 20
9.0509
 30
0.0
 10
-7.5576
 20
9.0509
 30
0.0
 10
-8.528
 20
7.7167
 30
0.0
 10
-8.528
 20
7.7167
 30
0.0
 10
-8.528
 20
7.7167
 30
0.0
 10
-8.528
 20
7.7167
 30
0.0
 10
-10.2433
 20
9.1187
 30
0.0
 10
-10.2433
 20
9.1187
 30
0.0
 10
-10.2433
 20
9.1187
 30
0.0
 10
-10.2433
 20
9.1187
 30
0.0
 10
-10.4012
 20
9.1187
 30
0.0
 10
-10.4012
 20
9.1187
 30
0.0
 10
-10.4012
 20
9.1187
 30
0.0
 10
-10.4012
 20
9.1187
 30
0.0
 10
-11.4168
 20
7.7619
 30
0.0
 10
-11.4168
 20
7.7619
 30
0.0
 10
-11.4168
 20
7.7619
 30
0.0
 10
-11.4168
 20
7.7619
 30
0.0
 10
-13.0192
 20
9.0509
 30
0.0
 10
-13.0192
 20
9.0509
 30
0.0
 10
-13.0192
 20
9.0509
 30
0.0
 10
-13.0192
 20
9.0509
 30
0.0
 10
-13.1772
 20
9.0509
 30
0.0
 10
-13.1772
 20
9.0509
 30
0.0
 10
-13.1772
 20
9.0509
 30
0.0
 10
-13.1772
 20
9.0509
 30
0.0
 10
-14.8698
 20
7.3774
 30
0.0
 10
-14.8698
 20
7.3774
 30
0.0
 10
-14.8698
 20
7.3774
 30
0.0
 10
-14.8698
 20
7.3774
 30
0.0
 10
-19.7433
 20
7.3497
 30
0.0
 10
-19.7433
 20
7.3497
 30
0.0
  0
SPLINE
  5
67
330
1F
100
AcDbEntity
  8
VRSTVA_1
 62
   250
100
AcDbSpline
210
0.0
220
0.0
230
1.0
 70
    24
 71
     3
 72
     8
 73
     4
 74
     0
 42
0.0000000001
 43
0.0000000001
 40
0.0
 40
0.0
 40
0.0
 40
0.0
 40
1.0
 40
1.0
 40
1.0
 40
1.0
 10
-14.8558
 20
-0.9724
 30
0.0
 10
-14.8558
 20
-0.9724
 30
0.0
 10
-14.8558
 20
7.3587
 30
0.0
 10
-14.8558
 20
7.3587
 30
0.0
  0
SPLINE
  5
68
330
1F
100
AcDbEntity
  8
VRSTVA_1
 62
   250
100
AcDbSpline
210
0.0
220
0.0
230
1.0
 70
    24
 71
     3
 72
     8
 73
     4
 74
     0
 42
0.0000000001
 43
0.0000000001
 40
0.0
 40
0.0
 40
0.0
 40
0.0
 40
1.0
 40
1.0
 40
1.0
 40
1.0
 10
-13.1063
 20
-2.7219
 30
0.0
 10
-13.1063
 20
-2.7219
 30
0.0
 10
-13.1063
 20
9.1082
 30
0.0
 10
-13.1063
 20
9.1082
 30
0.0
  0
SPLINE
  5
69
330
1F
100
AcDbEntity
  8
VRSTVA_1
 62
   250
100
AcDbSpline
210
0.0
220
0.0
230
1.0
 70
    24
 71
     3
 72
     8
 73
     4
 74
     0
 42
0.0000000001
 43
0.0000000001
 40
0.0
 40
0.0
 40
0.0
 40
0.0
 40
1.0
 40
1.0
 40
1.0
 40
1.0
 10
-11.4185
 20
-1.3056
 30
0.0
 10
-11.4185
 20
-1.3056
 30
0.0
 10
-11.4185
 20
7.6919
 30
0.0
 10
-11.4185
 20
7.6919
 30
0.0
  0
SPLINE
  5
6A
330
1F
100
AcDbEntity
  8
VRSTVA_1
 62
   250
100
AcDbSpline
210
0.0
220
0.0
230
1.0
 70
    24
 71
     3
 72
     8
 73
     4
 74
     0
 42
0.0000000001
 43
0.0000000001
 40
0.0
 40
0.0
 40
0.0
 40
0.0
 40
1.0
 40
1.0
 40
1.0
 40
1.0
 10
-8.5922
 20
-1.3061
 30
0.0
 10
-8.5922
 20
-1.3061
 30
0.0
 10
-8.5922
 20
7.6925
 30
0.0
 10
-8.5922
 20
7.6925
 30
0.0
  0
SPLINE
  5
6B
330
1F
100
AcDbEntity
  8
VRSTVA_1
 62
   250
100
AcDbSpline
210
0.0
220
0.0
230
1.0
 70
    24
 71
     3
 72
     8
 73
     4
 74
     0
 42
0.0000000001
 43
0.0000000001
 40
0.0
 40
0.0
 40
0.0
 40
0.0
 40
1.0
 40
1.0
 40
1.0
 40
1.0
 10
-5.7663
 20
-1.3061
 30
0.0
 10
-5.7663
 20
-1.3061
 30
0.0
 10
-5.7663
 20
7.6925
 30
0.0
 10
-5.7663
 20
7.6925
 30
0.0
  0
SPLINE
  5
6C
330
1F
100
AcDbEntity
  8
VRSTVA_1
 62
   250
100
AcDbSpline
210
0.0
220
0.0
230
1.0
 70
    24
 71
     3
 72
     8
 73
     4
 74
     0
 42
0.0000000001
 43
0.0000000001
 40
0.0
 40
0.0
 40
0.0
 40
0.0
 40
1.0
 40
1.0
 40
1.0
 40
1.0
 10
-2.9405
 20
-1.3061
 30
0.0
 10
-2.9405
 20
-1.3061
 30
0.0
 10
-2.9405
 20
7.6925
 30
0.0
 10
-2.9405
 20
7.6925
 30
0.0
  0
SPLINE
  5
6D
330
1F
100
AcDbEntity
  8
VRSTVA_1
  6
NEW_LINE1
 62
   250
100
AcDbSpline
210
0.0
220
0.0
230
1.0
 70
    24
 71
     3
 72
     8
 73
     4
 74
     0
 42
0.0000000001
 43
0.0000000001
 40
0.0
 40
0.0
 40
0.0
 40
0.0
 40
1.0
 40
1.0
 40
1.0
 40
1.0
 10
-46.3495
 20
3.1932
 30
0.0
 10
-46.3495
 20
3.1932
 30
0.0
 10
51.6211
 20
3.1932
 30
0.0
 10
51.6211
 20
3.1932
 30
0.0
  0
SPLINE
  5
6F
330
1F
100
AcDbEntity
  8
VRSTVA_1
 62
   250
100
AcDbSpline
210
0.0
220
0.0
230
1.0
 70
     8
 71
     3
 72
    92
 73
    88
 74
     0
 42
0.0000000001
 43
0.0000000001
 40
0.0
 40
0.0
 40
0.0
 40
0.0
 40
0.0434782608695652
 40
0.0434782608695652
 40
0.0434782608695652
 40
0.0434782608695652
 40
0.0869565217391304
 40
0.0869565217391304
 40
0.0869565217391304
 40
0.0869565217391304
 40
0.1304347826086956
 40
0.1304347826086956
 40
0.1304347826086956
 40
0.1304347826086956
 40
0.1739130434782609
 40
0.1739130434782609
 40
0.1739130434782609
 40
0.1739130434782609
 40
0.2173913043478261
 40
0.2173913043478261
 40
0.2173913043478261
 40
0.2173913043478261
 40
0.2608695652173913
 40
0.2608695652173913
 40
0.2608695652173913
 40
0.2608695652173913
 40
0.3043478260869565
 40
0.3043478260869565
 40
0.3043478260869565
 40
0.3043478260869565
 40
0.3478260869565217
 40
0.3478260869565217
 40
0.3478260869565217
 40
0.3478260869565217
 40
0.391304347826087
 40
0.391304347826087
 40
0.391304347826087
 40
0.391304347826087
 40
0.4347826086956522
 40
0.4347826086956522
 40
0.4347826086956522
 40
0.4347826086956522
 40
0.4782608695652174
 40
0.4782608695652174
 40
0.4782608695652174
 40
0.4782608695652174
 40
0.5217391304347826
 40
0.5217391304347826
 40
0.5217391304347826
 40
0.5217391304347826
 40
0.5652173913043478
 40
0.5652173913043478
 40
0.5652173913043478
 40
0.5652173913043478
 40
0.6086956521739131
 40
0.6086956521739131
 40
0.6086956521739131
 40
0.6086956521739131
 40
0.6521739130434783
 40
0.6521739130434783
 40
0.6521739130434783
 40
0.6521739130434783
 40
0.6956521739130435
 40
0.6956521739130435
 40
0.6956521739130435
 40
0.6956521739130435
 40
0.7391304347826086
 40
0.7391304347826086
 40
0.7391304347826086
 40
0.7391304347826086
 40
0.782608695652174
 40
0.782608695652174
 40
0.782608695652174
 40
0.782608695652174
 40
0.8260869565217391
 40
0.8260869565217391
 40
0.8260869565217391
 40
0.8260869565217391
 40
0.8695652173913043
 40
0.8695652173913043
 40
0.8695652173913043
 40
0.8695652173913043
 40
0.9130434782608695
 40
0.9130434782608695
 40
0.9130434782608695
 40
0.9130434782608695
 40
1.0
 40
1.0
 40
1.0
 40
1.0
 10
23.5538
 20
8.0251
 30
0.0
 10
23.5538
 20
8.0251
 30
0.0
 10
23.7219
 20
8.3123
 30
0.0
 10
23.7219
 20
8.3123
 30
0.0
 10
23.7219
 20
8.3123
 30
0.0
 10
23.7219
 20
8.3123
 30
0.0
 10
23.9947
 20
8.453
 30
0.0
 10
23.9947
 20
8.453
 30
0.0
 10
23.9947
 20
8.453
 30
0.0
 10
23.9947
 20
8.453
 30
0.0
 10
24.2285
 20
8.4742
 30
0.0
 10
24.2285
 20
8.4742
 30
0.0
 10
24.2285
 20
8.4742
 30
0.0
 10
24.2285
 20
8.4742
 30
0.0
 10
33.4945
 20
8.5169
 30
0.0
 10
33.4945
 20
8.5169
 30
0.0
 10
33.4945
 20
8.5169
 30
0.0
 10
33.4945
 20
8.5169
 30
0.0
 10
33.4732
 20
9.0493
 30
0.0
 10
33.4732
 20
9.0493
 30
0.0
 10
33.4732
 20
9.0493
 30
0.0
 10
33.4732
 20
9.0493
 30
0.0
 10
24.1435
 20
9.0066
 30
0.0
 10
24.1435
 20
9.0066
 30
0.0
 10
24.1435
 20
9.0066
 30
0.0
 10
24.1435
 20
9.0066
 30
0.0
 10
23.8247
 20
8.9214
 30
0.0
 10
23.8247
 20
8.9214
 30
0.0
 10
23.8247
 20
8.9214
 30
0.0
 10
23.8247
 20
8.9214
 30
0.0
 10
23.6334
 20
8.7085
 30
0.0
 10
23.6334
 20
8.7085
 30
0.0
 10
23.6334
 20
8.7085
 30
0.0
 10
23.6334
 20
8.7085
 30
0.0
 10
23.5484
 20
8.4103
 30
0.0
 10
23.5484
 20
8.4103
 30
0.0
 10
23.5484
 20
8.4103
 30
0.0
 10
23.5484
 20
8.4103
 30
0.0
 10
23.5472
 20
-1.9604
 30
0.0
 10
23.5472
 20
-1.9604
 30
0.0
 10
23.5472
 20
-1.9604
 30
0.0
 10
23.5472
 20
-1.9604
 30
0.0
 10
23.5692
 20
-2.1296
 30
0.0
 10
23.5692
 20
-2.1296
 30
0.0
 10
23.5692
 20
-2.1296
 30
0.0
 10
23.5692
 20
-2.1296
 30
0.0
 10
23.6374
 20
-2.29
 30
0.0
 10
23.6374
 20
-2.29
 30
0.0
 10
23.6374
 20
-2.29
 30
0.0
 10
23.6374
 20
-2.29
 30
0.0
 10
23.7441
 20
-2.4255
 30
0.0
 10
23.7441
 20
-2.4255
 30
0.0
 10
23.7441
 20
-2.4255
 30
0.0
 10
23.7441
 20
-2.4255
 30
0.0
 10
23.8813
 20
-2.5289
 30
0.0
 10
23.8813
 20
-2.5289
 30
0.0
 10
23.8813
 20
-2.5289
 30
0.0
 10
23.8813
 20
-2.5289
 30
0.0
 10
24.0442
 20
-2.5943
 30
0.0
 10
24.0442
 20
-2.5943
 30
0.0
 10
24.0442
 20
-2.5943
 30
0.0
 10
24.0442
 20
-2.5943
 30
0.0
 10
24.2134
 20
-2.6147
 30
0.0
 10
24.2134
 20
-2.6147
 30
0.0
 10
24.2134
 20
-2.6147
 30
0.0
 10
24.2134
 20
-2.6147
 30
0.0
 10
33.4245
 20
-2.6384
 30
0.0
 10
33.4245
 20
-2.6384
 30
0.0
 10
33.4245
 20
-2.6384
 30
0.0
 10
33.4245
 20
-2.6384
 30
0.0
 10
33.452
 20
-2.0457
 30
0.0
 10
33.452
 20
-2.0457
 30
0.0
 10
33.452
 20
-2.0457
 30
0.0
 10
33.452
 20
-2.0457
 30
0.0
 10
24.271
 20
-2.1096
 30
0.0
 10
24.271
 20
-2.1096
 30
0.0
 10
24.271
 20
-2.1096
 30
0.0
 10
24.271
 20
-2.1096
 30
0.0
 10
24.0104
 20
-2.1042
 30
0.0
 10
24.0104
 20
-2.1042
 30
0.0
 10
24.0104
 20
-2.1042
 30
0.0
 10
24.0104
 20
-2.1042
 30
0.0
 10
23.7741
 20
-1.9587
 30
0.0
 10
23.7741
 20
-1.9587
 30
0.0
 10
23.7741
 20
-1.9587
 30
0.0
 10
23.7741
 20
-1.9587
 30
0.0
 10
23.5675
 20
-1.6123
 30
0.0
 10
23.5675
 20
-1.6123
 30
0.0
  0
SPLINE
  5
70
330
1F
100
AcDbEntity
  8
VRSTVA_1
 62
   250
100
AcDbSpline
210
0.0
220
0.0
230
1.0
 70
     8
 71
     3
 72
    48
 73
    44
 74
     0
 42
0.0000000001
 43
0.0000000001
 40
0.0
 40
0.0
 40
0.0
 40
0.0
 40
0.0833333333333333
 40
0.0833333333333333
 40
0.0833333333333333
 40
0.0833333333333333
 40
0.1666666666666667
 40
0.1666666666666667
 40
0.1666666666666667
 40
0.1666666666666667
 40
0.25
 40
0.25
 40
0.25
 40
0.25
 40
0.3333333333333333
 40
0.3333333333333333
 40
0.3333333333333333
 40
0.3333333333333333
 40
0.4166666666666667
 40
0.4166666666666667
 40
0.4166666666666667
 40
0.4166666666666667
 40
0.5
 40
0.5
 40
0.5
 40
0.5
 40
0.5833333333333334
 40
0.5833333333333334
 40
0.5833333333333334
 40
0.5833333333333334
 40
0.6666666666666666
 40
0.6666666666666666
 40
0.6666666666666666
 40
0.6666666666666666
 40
0.75
 40
0.75
 40
0.75
 40
0.75
 40
0.8333333333333334
 40
0.8333333333333334
 40
0.8333333333333334
 40
0.8333333333333334
 40
1.0
 40
1.0
 40
1.0
 40
1.0
 10
23.5472
 20
1.1363
 30
0.0
 10
23.5472
 20
1.1363
 30
0.0
 10
23.5692
 20
1.091
 30
0.0
 10
23.5692
 20
1.091
 30
0.0
 10
23.5692
 20
1.091
 30
0.0
 10
23.5692
 20
1.091
 30
0.0
 10
23.6382
 20
1.0472
 30
0.0
 10
23.6382
 20
1.0472
 30
0.0
 10
23.6382
 20
1.0472
 30
0.0
 10
23.6382
 20
1.0472
 30
0.0
 10
23.7441
 20
1.0106
 30
0.0
 10
23.7441
 20
1.0106
 30
0.0
 10
23.7441
 20
1.0106
 30
0.0
 10
23.7441
 20
1.0106
 30
0.0
 10
23.882
 20
0.983
 30
0.0
 10
23.882
 20
0.983
 30
0.0
 10
23.882
 20
0.983
 30
0.0
 10
23.882
 20
0.983
 30
0.0
 10
24.0442
 20
0.9657
 30
0.0
 10
24.0442
 20
0.9657
 30
0.0
 10
24.0442
 20
0.9657
 30
0.0
 10
24.0442
 20
0.9657
 30
0.0
 10
24.2134
 20
0.96
 30
0.0
 10
24.2134
 20
0.96
 30
0.0
 10
24.2134
 20
0.96
 30
0.0
 10
24.2134
 20
0.96
 30
0.0
 10
33.4136
 20
0.9143
 30
0.0
 10
33.4136
 20
0.9143
 30
0.0
 10
33.4136
 20
0.9143
 30
0.0
 10
33.4136
 20
0.9143
 30
0.0
 10
33.4352
 20
2.7319
 30
0.0
 10
33.4352
 20
2.7319
 30
0.0
 10
33.4352
 20
2.7319
 30
0.0
 10
33.4352
 20
2.7319
 30
0.0
 10
24.0634
 20
2.6888
 30
0.0
 10
24.0634
 20
2.6888
 30
0.0
 10
24.0634
 20
2.6888
 30
0.0
 10
24.0634
 20
2.6888
 30
0.0
 10
23.8474
 20
2.6888
 30
0.0
 10
23.8474
 20
2.6888
 30
0.0
 10
23.8474
 20
2.6888
 30
0.0
 10
23.8474
 20
2.6888
 30
0.0
 10
23.5667
 20
2.8185
 30
0.0
 10
23.5667
 20
2.8185
 30
0.0
  0
SPLINE
  5
71
330
1F
100
AcDbEntity
  8
VRSTVA_1
 62
   250
100
AcDbSpline
210
0.0
220
0.0
230
1.0
 70
     8
 71
     3
 72
    56
 73
    52
 74
     0
 42
0.0000000001
 43
0.0000000001
 40
0.0
 40
0.0
 40
0.0
 40
0.0
 40
0.0714285714285714
 40
0.0714285714285714
 40
0.0714285714285714
 40
0.0714285714285714
 40
0.1428571428571428
 40
0.1428571428571428
 40
0.1428571428571428
 40
0.1428571428571428
 40
0.2142857142857143
 40
0.2142857142857143
 40
0.2142857142857143
 40
0.2142857142857143
 40
0.2857142857142857
 40
0.2857142857142857
 40
0.2857142857142857
 40
0.2857142857142857
 40
0.3571428571428572
 40
0.3571428571428572
 40
0.3571428571428572
 40
0.3571428571428572
 40
0.4285714285714285
 40
0.4285714285714285
 40
0.4285714285714285
 40
0.4285714285714285
 40
0.5
 40
0.5
 40
0.5
 40
0.5
 40
0.5714285714285714
 40
0.5714285714285714
 40
0.5714285714285714
 40
0.5714285714285714
 40
0.6428571428571429
 40
0.6428571428571429
 40
0.6428571428571429
 40
0.6428571428571429
 40
0.7142857142857143
 40
0.7142857142857143
 40
0.7142857142857143
 40
0.7142857142857143
 40
0.7857142857142857
 40
0.7857142857142857
 40
0.7857142857142857
 40
0.7857142857142857
 40
0.8571428571428571
 40
0.8571428571428571
 40
0.8571428571428571
 40
0.8571428571428571
 40
1.0
 40
1.0
 40
1.0
 40
1.0
 10
23.5472
 20
6.8807
 30
0.0
 10
23.5472
 20
6.8807
 30
0.0
 10
23.5692
 20
7.0059
 30
0.0
 10
23.5692
 20
7.0059
 30
0.0
 10
23.5692
 20
7.0059
 30
0.0
 10
23.5692
 20
7.0059
 30
0.0
 10
23.6382
 20
7.1242
 30
0.0
 10
23.6382
 20
7.1242
 30
0.0
 10
23.6382
 20
7.1242
 30
0.0
 10
23.6382
 20
7.1242
 30
0.0
 10
23.7441
 20
7.2238
 30
0.0
 10
23.7441
 20
7.2238
 30
0.0
 10
23.7441
 20
7.2238
 30
0.0
 10
23.7441
 20
7.2238
 30
0.0
 10
23.882
 20
7.2994
 30
0.0
 10
23.882
 20
7.2994
 30
0.0
 10
23.882
 20
7.2994
 30
0.0
 10
23.882
 20
7.2994
 30
0.0
 10
24.0442
 20
7.3471
 30
0.0
 10
24.0442
 20
7.3471
 30
0.0
 10
24.0442
 20
7.3471
 30
0.0
 10
24.0442
 20
7.3471
 30
0.0
 10
24.2134
 20
7.363
 30
0.0
 10
24.2134
 20
7.363
 30
0.0
 10
24.2134
 20
7.363
 30
0.0
 10
24.2134
 20
7.363
 30
0.0
 10
33.4602
 20
7.3517
 30
0.0
 10
33.4602
 20
7.3517
 30
0.0
 10
33.4602
 20
7.3517
 30
0.0
 10
33.4602
 20
7.3517
 30
0.0
 10
33.4602
 20
6.5926
 30
0.0
 10
33.4602
 20
6.5926
 30
0.0
 10
33.4602
 20
6.5926
 30
0.0
 10
33.4602
 20
6.5926
 30
0.0
 10
24.1961
 20
6.558
 30
0.0
 10
24.1961
 20
6.558
 30
0.0
 10
24.1961
 20
6.558
 30
0.0
 10
24.1961
 20
6.558
 30
0.0
 10
23.9034
 20
6.5063
 30
0.0
 10
23.9034
 20
6.5063
 30
0.0
 10
23.9034
 20
6.5063
 30
0.0
 10
23.9034
 20
6.5063
 30
0.0
 10
23.7311
 20
6.42
 30
0.0
 10
23.7311
 20
6.42
 30
0.0
 10
23.7311
 20
6.42
 30
0.0
 10
23.7311
 20
6.42
 30
0.0
 10
23.6277
 20
6.2819
 30
0.0
 10
23.6277
 20
6.2819
 30
0.0
 10
23.6277
 20
6.2819
 30
0.0
 10
23.6277
 20
6.2819
 30
0.0
 10
23.5589
 20
6.0577
 30
0.0
 10
23.5589
 20
6.0577
 30
0.0
  0
SPLINE
  5
72
330
1F
100
AcDbEntity
  8
VRSTVA_1
 62
   250
100
AcDbSpline
210
0.0
220
0.0
230
1.0
 70
     8
 71
     3
 72
    52
 73
    48
 74
     0
 42
0.0000000001
 43
0.0000000001
 40
0.0
 40
0.0
 40
0.0
 40
0.0
 40
0.0769230769230769
 40
0.0769230769230769
 40
0.0769230769230769
 40
0.0769230769230769
 40
0.1538461538461539
 40
0.1538461538461539
 40
0.1538461538461539
 40
0.1538461538461539
 40
0.2307692307692308
 40
0.2307692307692308
 40
0.2307692307692308
 40
0.2307692307692308
 40
0.3076923076923077
 40
0.3076923076923077
 40
0.3076923076923077
 40
0.3076923076923077
 40
0.3846153846153846
 40
0.3846153846153846
 40
0.3846153846153846
 40
0.3846153846153846
 40
0.4615384615384616
 40
0.4615384615384616
 40
0.4615384615384616
 40
0.4615384615384616
 40
0.5384615384615384
 40
0.5384615384615384
 40
0.5384615384615384
 40
0.5384615384615384
 40
0.6153846153846154
 40
0.6153846153846154
 40
0.6153846153846154
 40
0.6153846153846154
 40
0.6923076923076923
 40
0.6923076923076923
 40
0.6923076923076923
 40
0.6923076923076923
 40
0.7692307692307693
 40
0.7692307692307693
 40
0.7692307692307693
 40
0.7692307692307693
 40
0.8461538461538461
 40
0.8461538461538461
 40
0.8461538461538461
 40
0.8461538461538461
 40
1.0
 40
1.0
 40
1.0
 40
1.0
 10
23.5472
 20
-0.4946
 30
0.0
 10
23.5472
 20
-0.4946
 30
0.0
 10
23.5692
 20
-0.6194
 30
0.0
 10
23.5692
 20
-0.6194
 30
0.0
 10
23.5692
 20
-0.6194
 30
0.0
 10
23.5692
 20
-0.6194
 30
0.0
 10
23.6382
 20
-0.7382
 30
0.0
 10
23.6382
 20
-0.7382
 30
0.0
 10
23.6382
 20
-0.7382
 30
0.0
 10
23.6382
 20
-0.7382
 30
0.0
 10
23.7441
 20
-0.8371
 30
0.0
 10
23.7441
 20
-0.8371
 30
0.0
 10
23.7441
 20
-0.8371
 30
0.0
 10
23.7441
 20
-0.8371
 30
0.0
 10
23.882
 20
-0.9137
 30
0.0
 10
23.882
 20
-0.9137
 30
0.0
 10
23.882
 20
-0.9137
 30
0.0
 10
23.882
 20
-0.9137
 30
0.0
 10
24.0442
 20
-0.9613
 30
0.0
 10
24.0442
 20
-0.9613
 30
0.0
 10
24.0442
 20
-0.9613
 30
0.0
 10
24.0442
 20
-0.9613
 30
0.0
 10
24.2134
 20
-0.9765
 30
0.0
 10
24.2134
 20
-0.9765
 30
0.0
 10
24.2134
 20
-0.9765
 30
0.0
 10
24.2134
 20
-0.9765
 30
0.0
 10
33.4672
 20
-0.9754
 30
0.0
 10
33.4672
 20
-0.9754
 30
0.0
 10
33.4672
 20
-0.9754
 30
0.0
 10
33.4672
 20
-0.9754
 30
0.0
 10
33.4482
 20
0.4519
 30
0.0
 10
33.4482
 20
0.4519
 30
0.0
 10
33.4482
 20
0.4519
 30
0.0
 10
33.4482
 20
0.4519
 30
0.0
 10
24.0661
 20
0.4138
 30
0.0
 10
24.0661
 20
0.4138
 30
0.0
 10
24.0661
 20
0.4138
 30
0.0
 10
24.0661
 20
0.4138
 30
0.0
 10
23.8567
 20
0.4899
 30
0.0
 10
23.8567
 20
0.4899
 30
0.0
 10
23.8567
 20
0.4899
 30
0.0
 10
23.8567
 20
0.4899
 30
0.0
 10
23.6474
 20
0.6612
 30
0.0
 10
23.6474
 20
0.6612
 30
0.0
 10
23.6474
 20
0.6612
 30
0.0
 10
23.6474
 20
0.6612
 30
0.0
 10
23.5142
 20
0.9276
 30
0.0
 10
23.5142
 20
0.9276
 30
0.0
  0
SPLINE
  5
73
330
1F
100
AcDbEntity
  8
VRSTVA_1
 62
   250
100
AcDbSpline
210
0.0
220
0.0
230
1.0
 70
     8
 71
     3
 72
    48
 73
    44
 74
     0
 42
0.0000000001
 43
0.0000000001
 40
0.0
 40
0.0
 40
0.0
 40
0.0
 40
0.0833333333333333
 40
0.0833333333333333
 40
0.0833333333333333
 40
0.0833333333333333
 40
0.1666666666666667
 40
0.1666666666666667
 40
0.1666666666666667
 40
0.1666666666666667
 40
0.25
 40
0.25
 40
0.25
 40
0.25
 40
0.3333333333333333
 40
0.3333333333333333
 40
0.3333333333333333
 40
0.3333333333333333
 40
0.4166666666666667
 40
0.4166666666666667
 40
0.4166666666666667
 40
0.4166666666666667
 40
0.5
 40
0.5
 40
0.5
 40
0.5
 40
0.5833333333333334
 40
0.5833333333333334
 40
0.5833333333333334
 40
0.5833333333333334
 40
0.6666666666666666
 40
0.6666666666666666
 40
0.6666666666666666
 40
0.6666666666666666
 40
0.75
 40
0.75
 40
0.75
 40
0.75
 40
0.8333333333333334
 40
0.8333333333333334
 40
0.8333333333333334
 40
0.8333333333333334
 40
1.0
 40
1.0
 40
1.0
 40
1.0
 10
23.5472
 20
5.25
 30
0.0
 10
23.5472
 20
5.25
 30
0.0
 10
23.5692
 20
5.2952
 30
0.0
 10
23.5692
 20
5.2952
 30
0.0
 10
23.5692
 20
5.2952
 30
0.0
 10
23.5692
 20
5.2952
 30
0.0
 10
23.6382
 20
5.3386
 30
0.0
 10
23.6382
 20
5.3386
 30
0.0
 10
23.6382
 20
5.3386
 30
0.0
 10
23.6382
 20
5.3386
 30
0.0
 10
23.7441
 20
5.3754
 30
0.0
 10
23.7441
 20
5.3754
 30
0.0
 10
23.7441
 20
5.3754
 30
0.0
 10
23.7441
 20
5.3754
 30
0.0
 10
23.882
 20
5.4033
 30
0.0
 10
23.882
 20
5.4033
 30
0.0
 10
23.882
 20
5.4033
 30
0.0
 10
23.882
 20
5.4033
 30
0.0
 10
24.0442
 20
5.4205
 30
0.0
 10
24.0442
 20
5.4205
 30
0.0
 10
24.0442
 20
5.4205
 30
0.0
 10
24.0442
 20
5.4205
 30
0.0
 10
24.2134
 20
5.4263
 30
0.0
 10
24.2134
 20
5.4263
 30
0.0
 10
24.2134
 20
5.4263
 30
0.0
 10
24.2134
 20
5.4263
 30
0.0
 10
33.4672
 20
5.3998
 30
0.0
 10
33.4672
 20
5.3998
 30
0.0
 10
33.4672
 20
5.3998
 30
0.0
 10
33.4672
 20
5.3998
 30
0.0
 10
33.4482
 20
3.6871
 30
0.0
 10
33.4482
 20
3.6871
 30
0.0
 10
33.4482
 20
3.6871
 30
0.0
 10
33.4482
 20
3.6871
 30
0.0
 10
23.99
 20
3.7061
 30
0.0
 10
23.99
 20
3.7061
 30
0.0
 10
23.99
 20
3.7061
 30
0.0
 10
23.99
 20
3.7061
 30
0.0
 10
23.7235
 20
3.6871
 30
0.0
 10
23.7235
 20
3.6871
 30
0.0
 10
23.7235
 20
3.6871
 30
0.0
 10
23.7235
 20
3.6871
 30
0.0
 10
23.5332
 20
3.5539
 30
0.0
 10
23.5332
 20
3.5539
 30
0.0
  0
SPLINE
  5
74
330
1F
100
AcDbEntity
  8
VRSTVA_1
 62
   250
100
AcDbSpline
210
0.0
220
0.0
230
1.0
 70
     8
 71
     3
 72
    32
 73
    28
 74
     0
 42
0.0000000001
 43
0.0000000001
 40
0.0
 40
0.0
 40
0.0
 40
0.0
 40
0.125
 40
0.125
 40
0.125
 40
0.125
 40
0.25
 40
0.25
 40
0.25
 40
0.25
 40
0.375
 40
0.375
 40
0.375
 40
0.375
 40
0.5
 40
0.5
 40
0.5
 40
0.5
 40
0.625
 40
0.625
 40
0.625
 40
0.625
 40
0.75
 40
0.75
 40
0.75
 40
0.75
 40
1.0
 40
1.0
 40
1.0
 40
1.0
 10
34.0503
 20
9.6811
 30
0.0
 10
34.0503
 20
9.6811
 30
0.0
 10
34.102
 20
-3.5114
 30
0.0
 10
34.102
 20
-3.5114
 30
0.0
 10
34.102
 20
-3.5114
 30
0.0
 10
34.102
 20
-3.5114
 30
0.0
 10
33.4846
 20
-2.9303
 30
0.0
 10
33.4846
 20
-2.9303
 30
0.0
 10
33.4846
 20
-2.9303
 30
0.0
 10
33.4846
 20
-2.9303
 30
0.0
 10
33.4846
 20
9.3084
 30
0.0
 10
33.4846
 20
9.3084
 30
0.0
 10
33.4846
 20
9.3084
 30
0.0
 10
33.4846
 20
9.3084
 30
0.0
 10
34.0657
 20
9.8532
 30
0.0
 10
34.0657
 20
9.8532
 30
0.0
 10
34.0657
 20
9.8532
 30
0.0
 10
34.0657
 20
9.8532
 30
0.0
 10
51.8725
 20
9.8581
 30
0.0
 10
51.8725
 20
9.8581
 30
0.0
 10
51.8725
 20
9.8581
 30
0.0
 10
51.8725
 20
9.8581
 30
0.0
 10
51.8725
 20
-3.4716
 30
0.0
 10
51.8725
 20
-3.4716
 30
0.0
 10
51.8725
 20
-3.4716
 30
0.0
 10
51.8725
 20
-3.4716
 30
0.0
 10
34.1177
 20
-3.5146
 30
0.0
 10
34.1177
 20
-3.5146
 30
0.0
  0
SPLINE
  5
75
330
1F
100
AcDbEntity
  8
VRSTVA_1
 62
   250
100
AcDbSpline
210
0.0
220
0.0
230
1.0
 70
    24
 71
     3
 72
     8
 73
     4
 74
     0
 42
0.0000000001
 43
0.0000000001
 40
0.0
 40
0.0
 40
0.0
 40
0.0
 40
1.0
 40
1.0
 40
1.0
 40
1.0
 10
44.8487
 20
-11.1036
 30
0.0
 10
44.8487
 20
-11.1036
 30
0.0
 10
44.8487
 20
14.2914
 30
0.0
 10
44.8487
 20
14.2914
 30
0.0
  0
SPLINE
  5
76
330
1F
100
AcDbEntity
  8
VRSTVA_1
 62
   250
100
AcDbSpline
210
0.0
220
0.0
230
1.0
 70
    11
 71
     3
 72
    20
 73
    16
 74
     0
 42
0.0000000001
 43
0.0000000001
 40
0.0
 40
0.0
 40
0.0
 40
0.0
 40
0.2
 40
0.2
 40
0.2
 40
0.2
 40
0.4
 40
0.4
 40
0.4
 40
0.4
 40
0.6
 40
0.6
 40
0.6
 40
0.6
 40
1.0
 40
1.0
 40
1.0
 40
1.0
 10
44.382
 20
-6.5341
 30
0.0
 10
44.382
 20
-6.5341
 30
0.0
 10
44.8053
 20
-3.5341
 30
0.0
 10
44.8053
 20
-3.5341
 30
0.0
 10
44.8053
 20
-3.5341
 30
0.0
 10
44.8053
 20
-3.5341
 30
0.0
 10
44.8993
 20
-3.5341
 30
0.0
 10
44.8993
 20
-3.5341
 30
0.0
 10
44.8993
 20
-3.5341
 30
0.0
 10
44.8993
 20
-3.5341
 30
0.0
 10
45.3507
 20
-6.5341
 30
0.0
 10
45.3507
 20
-6.5341
 30
0.0
 10
45.3507
 20
-6.5341
 30
0.0
 10
45.3507
 20
-6.5341
 30
0.0
 10
44.382
 20
-6.5341
 30
0.0
 10
44.382
 20
-6.5341
 30
0.0
  0
SPLINE
  5
77
330
1F
100
AcDbEntity
  8
VRSTVA_1
 62
   250
100
AcDbSpline
210
0.0
220
0.0
230
1.0
 70
    11
 71
     3
 72
    84
 73
    80
 74
     0
 42
0.0000000001
 43
0.0000000001
 40
0.0
 40
0.0
 40
0.0
 40
0.0
 40
0.0476190476190476
 40
0.0476190476190476
 40
0.0476190476190476
 40
0.0476190476190476
 40
0.0952380952380952
 40
0.0952380952380952
 40
0.0952380952380952
 40
0.0952380952380952
 40
0.1428571428571428
 40
0.1428571428571428
 40
0.1428571428571428
 40
0.1428571428571428
 40
0.1904761904761905
 40
0.1904761904761905
 40
0.1904761904761905
 40
0.1904761904761905
 40
0.2380952380952381
 40
0.2380952380952381
 40
0.2380952380952381
 40
0.2380952380952381
 40
0.2857142857142857
 40
0.2857142857142857
 40
0.2857142857142857
 40
0.2857142857142857
 40
0.3333333333333333
 40
0.3333333333333333
 40
0.3333333333333333
 40
0.3333333333333333
 40
0.3809523809523809
 40
0.3809523809523809
 40
0.3809523809523809
 40
0.3809523809523809
 40
0.4285714285714285
 40
0.4285714285714285
 40
0.4285714285714285
 40
0.4285714285714285
 40
0.4761904761904762
 40
0.4761904761904762
 40
0.4761904761904762
 40
0.4761904761904762
 40
0.5238095238095238
 40
0.5238095238095238
 40
0.5238095238095238
 40
0.5238095238095238
 40
0.5714285714285714
 40
0.5714285714285714
 40
0.5714285714285714
 40
0.5714285714285714
 40
0.6190476190476191
 40
0.6190476190476191
 40
0.6190476190476191
 40
0.6190476190476191
 40
0.6666666666666666
 40
0.6666666666666666
 40
0.6666666666666666
 40
0.6666666666666666
 40
0.7142857142857143
 40
0.7142857142857143
 40
0.7142857142857143
 40
0.7142857142857143
 40
0.7619047619047619
 40
0.7619047619047619
 40
0.7619047619047619
 40
0.7619047619047619
 40
0.8095238095238095
 40
0.8095238095238095
 40
0.8095238095238095
 40
0.8095238095238095
 40
0.8571428571428571
 40
0.8571428571428571
 40
0.8571428571428571
 40
0.8571428571428571
 40
0.9047619047619048
 40
0.9047619047619048
 40
0.9047619047619048
 40
0.9047619047619048
 40
1.0
 40
1.0
 40
1.0
 40
1.0
 10
42.1951
 20
-9.2469
 30
0.0
 10
42.1951
 20
-9.2469
 30
0.0
 10
41.9367
 20
-9.0147
 30
0.0
 10
41.9367
 20
-9.0147
 30
0.0
 10
41.9367
 20
-9.0147
 30
0.0
 10
41.9367
 20
-9.0147
 30
0.0
 10
42.0528
 20
-8.8787
 30
0.0
 10
42.0528
 20
-8.8787
 30
0.0
 10
42.0528
 20
-8.8787
 30
0.0
 10
42.0528
 20
-8.8787
 30
0.0
 10
42.3249
 20
-9.1217
 30
0.0
 10
42.3249
 20
-9.1217
 30
0.0
 10
42.3249
 20
-9.1217
 30
0.0
 10
42.4427
 20
-9.043
 30
0.0
 10
42.5459
 20
-8.9902
 30
0.0
 10
42.6338
 20
-8.9627
 30
0.0
 10
42.6338
 20
-8.9627
 30
0.0
 10
42.7498
 20
-8.9264
 30
0.0
 10
42.8796
 20
-8.9084
 30
0.0
 10
43.0226
 20
-8.9089
 30
0.0
 10
43.0226
 20
-8.9089
 30
0.0
 10
43.2295
 20
-8.9095
 30
0.0
 10
43.4138
 20
-8.9519
 30
0.0
 10
43.5748
 20
-9.0361
 30
0.0
 10
43.5748
 20
-9.0361
 30
0.0
 10
43.7365
 20
-9.1203
 30
0.0
 10
43.8583
 20
-9.2378
 30
0.0
 10
43.9407
 20
-9.389
 30
0.0
 10
43.9407
 20
-9.389
 30
0.0
 10
44.0225
 20
-9.5408
 30
0.0
 10
44.0634
 20
-9.7012
 30
0.0
 10
44.0629
 20
-9.871
 30
0.0
 10
44.0629
 20
-9.871
 30
0.0
 10
44.0625
 20
-9.998
 30
0.0
 10
44.0444
 20
-10.1128
 30
0.0
 10
44.0083
 20
-10.2156
 30
0.0
 10
44.0083
 20
-10.2156
 30
0.0
 10
43.9803
 20
-10.2946
 30
0.0
 10
43.9274
 20
-10.3866
 30
0.0
 10
43.849
 20
-10.4923
 30
0.0
 10
43.849
 20
-10.4923
 30
0.0
 10
43.849
 20
-10.4923
 30
0.0
 10
44.1075
 20
-10.7244
 30
0.0
 10
44.1075
 20
-10.7244
 30
0.0
 10
44.1075
 20
-10.7244
 30
0.0
 10
44.1075
 20
-10.7244
 30
0.0
 10
43.9913
 20
-10.8605
 30
0.0
 10
43.9913
 20
-10.8605
 30
0.0
 10
43.9913
 20
-10.8605
 30
0.0
 10
43.9913
 20
-10.8605
 30
0.0
 10
43.7207
 20
-10.617
 30
0.0
 10
43.7207
 20
-10.617
 30
0.0
 10
43.7207
 20
-10.617
 30
0.0
 10
43.5835
 20
-10.7069
 30
0.0
 10
43.4662
 20
-10.7667
 30
0.0
 10
43.3692
 20
-10.7965
 30
0.0
 10
43.3692
 20
-10.7965
 30
0.0
 10
43.2722
 20
-10.8263
 30
0.0
 10
43.1555
 20
-10.8415
 30
0.0
 10
43.0196
 20
-10.8411
 30
0.0
 10
43.0196
 20
-10.8411
 30
0.0
 10
42.8122
 20
-10.8405
 30
0.0
 10
42.6274
 20
-10.7985
 30
0.0
 10
42.4654
 20
-10.7153
 30
0.0
 10
42.4654
 20
-10.7153
 30
0.0
 10
42.3033
 20
-10.632
 30
0.0
 10
42.181
 20
-10.516
 30
0.0
 10
42.0977
 20
-10.3661
 30
0.0
 10
42.0977
 20
-10.3661
 30
0.0
 10
42.0149
 20
-10.2168
 30
0.0
 10
41.9735
 20
-10.0505
 30
0.0
 10
41.974
 20
-9.8676
 30
0.0
 10
41.974
 20
-9.8676
 30
0.0
 10
41.9744
 20
-9.7443
 30
0.0
 10
41.9907
 20
-9.6367
 30
0.0
 10
42.024
 20
-9.5446
 30
0.0
 10
42.024
 20
-9.5446
 30
0.0
 10
42.0567
 20
-9.4525
 30
0.0
 10
42.1139
 20
-9.3529
 30
0.0
 10
42.1951
 20
-9.2469
 30
0.0
  0
SPLINE
  5
78
330
1F
100
AcDbEntity
  8
VRSTVA_1
 62
   250
100
AcDbSpline
210
0.0
220
0.0
230
1.0
 70
    11
 71
     3
 72
    32
 73
    28
 74
     0
 42
0.0000000001
 43
0.0000000001
 40
0.0
 40
0.0
 40
0.0
 40
0.0
 40
0.125
 40
0.125
 40
0.125
 40
0.125
 40
0.25
 40
0.25
 40
0.25
 40
0.25
 40
0.375
 40
0.375
 40
0.375
 40
0.375
 40
0.5
 40
0.5
 40
0.5
 40
0.5
 40
0.625
 40
0.625
 40
0.625
 40
0.625
 40
0.75
 40
0.75
 40
0.75
 40
0.75
 40
1.0
 40
1.0
 40
1.0
 40
1.0
 10
42.3804
 20
-9.4125
 30
0.0
 10
42.3124
 20
-9.4989
 30
0.0
 10
42.2656
 20
-9.5745
 30
0.0
 10
42.2405
 20
-9.6388
 30
0.0
 10
42.2405
 20
-9.6388
 30
0.0
 10
42.2158
 20
-9.7037
 30
0.0
 10
42.2029
 20
-9.7798
 30
0.0
 10
42.2026
 20
-9.8669
 30
0.0
 10
42.2026
 20
-9.8669
 30
0.0
 10
42.202
 20
-10.0682
 30
0.0
 10
42.2697
 20
-10.2344
 30
0.0
 10
42.4057
 20
-10.3665
 30
0.0
 10
42.4057
 20
-10.3665
 30
0.0
 10
42.5418
 20
-10.4982
 30
0.0
 10
42.7452
 20
-10.5646
 30
0.0
 10
43.0166
 20
-10.5655
 30
0.0
 10
43.0166
 20
-10.5655
 30
0.0
 10
43.1229
 20
-10.5658
 30
0.0
 10
43.2176
 20
-10.5558
 30
0.0
 10
43.3004
 20
-10.5357
 30
0.0
 10
43.3004
 20
-10.5357
 30
0.0
 10
43.3621
 20
-10.5213
 30
0.0
 10
43.4379
 20
-10.491
 30
0.0
 10
43.5278
 20
-10.4442
 30
0.0
 10
43.5278
 20
-10.4442
 30
0.0
 10
43.5278
 20
-10.4442
 30
0.0
 10
42.3804
 20
-9.4125
 30
0.0
 10
42.3804
 20
-9.4125
 30
0.0
  0
SPLINE
  5
79
330
1F
100
AcDbEntity
  8
VRSTVA_1
 62
   250
100
AcDbSpline
210
0.0
220
0.0
230
1.0
 70
    11
 71
     3
 72
    28
 73
    24
 74
     0
 42
0.0000000001
 43
0.0000000001
 40
0.0
 40
0.0
 40
0.0
 40
0.0
 40
0.1428571428571428
 40
0.1428571428571428
 40
0.1428571428571428
 40
0.1428571428571428
 40
0.2857142857142857
 40
0.2857142857142857
 40
0.2857142857142857
 40
0.2857142857142857
 40
0.4285714285714285
 40
0.4285714285714285
 40
0.4285714285714285
 40
0.4285714285714285
 40
0.5714285714285714
 40
0.5714285714285714
 40
0.5714285714285714
 40
0.5714285714285714
 40
0.7142857142857143
 40
0.7142857142857143
 40
0.7142857142857143
 40
0.7142857142857143
 40
1.0
 40
1.0
 40
1.0
 40
1.0
 10
42.5228
 20
-9.3001
 30
0.0
 10
42.5228
 20
-9.3001
 30
0.0
 10
43.666
 20
-10.3275
 30
0.0
 10
43.666
 20
-10.3275
 30
0.0
 10
43.666
 20
-10.3275
 30
0.0
 10
43.7241
 20
-10.2572
 30
0.0
 10
43.7648
 20
-10.1919
 30
0.0
 10
43.7879
 20
-10.1322
 30
0.0
 10
43.7879
 20
-10.1322
 30
0.0
 10
43.8188
 20
-10.0543
 30
0.0
 10
43.834
 20
-9.9696
 30
0.0
 10
43.8343
 20
-9.8788
 30
0.0
 10
43.8343
 20
-9.8788
 30
0.0
 10
43.8349
 20
-9.6784
 30
0.0
 10
43.7649
 20
-9.5131
 30
0.0
 10
43.6237
 20
-9.382
 30
0.0
 10
43.6237
 20
-9.382
 30
0.0
 10
43.4825
 20
-9.2513
 30
0.0
 10
43.2842
 20
-9.1853
 30
0.0
 10
43.0288
 20
-9.1845
 30
0.0
 10
43.0288
 20
-9.1845
 30
0.0
 10
42.8379
 20
-9.1839
 30
0.0
 10
42.6689
 20
-9.2224
 30
0.0
 10
42.5228
 20
-9.3001
 30
0.0
  0
SPLINE
  5
7A
330
1F
100
AcDbEntity
  8
VRSTVA_1
 62
   250
100
AcDbSpline
210
0.0
220
0.0
230
1.0
 70
    11
 71
     3
 72
    48
 73
    44
 74
     0
 42
0.0000000001
 43
0.0000000001
 40
0.0
 40
0.0
 40
0.0
 40
0.0
 40
0.0833333333333333
 40
0.0833333333333333
 40
0.0833333333333333
 40
0.0833333333333333
 40
0.1666666666666667
 40
0.1666666666666667
 40
0.1666666666666667
 40
0.1666666666666667
 40
0.25
 40
0.25
 40
0.25
 40
0.25
 40
0.3333333333333333
 40
0.3333333333333333
 40
0.3333333333333333
 40
0.3333333333333333
 40
0.4166666666666667
 40
0.4166666666666667
 40
0.4166666666666667
 40
0.4166666666666667
 40
0.5
 40
0.5
 40
0.5
 40
0.5
 40
0.5833333333333334
 40
0.5833333333333334
 40
0.5833333333333334
 40
0.5833333333333334
 40
0.6666666666666666
 40
0.6666666666666666
 40
0.6666666666666666
 40
0.6666666666666666
 40
0.75
 40
0.75
 40
0.75
 40
0.75
 40
0.8333333333333334
 40
0.8333333333333334
 40
0.8333333333333334
 40
0.8333333333333334
 40
1.0
 40
1.0
 40
1.0
 40
1.0
 10
44.0346
 20
-7.8677
 30
0.0
 10
44.0346
 20
-7.8677
 30
0.0
 10
43.5511
 20
-7.8663
 30
0.0
 10
43.5511
 20
-7.8663
 30
0.0
 10
43.5511
 20
-7.8663
 30
0.0
 10
43.5511
 20
-7.8663
 30
0.0
 10
43.5485
 20
-8.7426
 30
0.0
 10
43.5485
 20
-8.7426
 30
0.0
 10
43.5485
 20
-8.7426
 30
0.0
 10
43.5485
 20
-8.7426
 30
0.0
 10
43.3208
 20
-8.7419
 30
0.0
 10
43.3208
 20
-8.7419
 30
0.0
 10
43.3208
 20
-8.7419
 30
0.0
 10
43.3208
 20
-8.7419
 30
0.0
 10
42.0146
 20
-7.8159
 30
0.0
 10
42.0146
 20
-7.8159
 30
0.0
 10
42.0146
 20
-7.8159
 30
0.0
 10
42.0146
 20
-7.8159
 30
0.0
 10
42.0152
 20
-7.6132
 30
0.0
 10
42.0152
 20
-7.6132
 30
0.0
 10
42.0152
 20
-7.6132
 30
0.0
 10
42.0152
 20
-7.6132
 30
0.0
 10
43.3242
 20
-7.6172
 30
0.0
 10
43.3242
 20
-7.6172
 30
0.0
 10
43.3242
 20
-7.6172
 30
0.0
 10
43.3242
 20
-7.6172
 30
0.0
 10
43.325
 20
-7.3444
 30
0.0
 10
43.325
 20
-7.3444
 30
0.0
 10
43.325
 20
-7.3444
 30
0.0
 10
43.325
 20
-7.3444
 30
0.0
 10
43.5527
 20
-7.3451
 30
0.0
 10
43.5527
 20
-7.3451
 30
0.0
 10
43.5527
 20
-7.3451
 30
0.0
 10
43.5527
 20
-7.3451
 30
0.0
 10
43.5519
 20
-7.6179
 30
0.0
 10
43.5519
 20
-7.6179
 30
0.0
 10
43.5519
 20
-7.6179
 30
0.0
 10
43.5519
 20
-7.6179
 30
0.0
 10
44.0354
 20
-7.6193
 30
0.0
 10
44.0354
 20
-7.6193
 30
0.0
 10
44.0354
 20
-7.6193
 30
0.0
 10
44.0354
 20
-7.6193
 30
0.0
 10
44.0346
 20
-7.8677
 30
0.0
 10
44.0346
 20
-7.8677
 30
0.0
  0
SPLINE
  5
7B
330
1F
100
AcDbEntity
  8
VRSTVA_1
 62
   250
100
AcDbSpline
210
0.0
220
0.0
230
1.0
 70
    11
 71
     3
 72
    16
 73
    12
 74
     0
 42
0.0000000001
 43
0.0000000001
 40
0.0
 40
0.0
 40
0.0
 40
0.0
 40
0.25
 40
0.25
 40
0.25
 40
0.25
 40
0.5
 40
0.5
 40
0.5
 40
0.5
 40
1.0
 40
1.0
 40
1.0
 40
1.0
 10
43.3234
 20
-7.8656
 30
0.0
 10
43.3234
 20
-7.8656
 30
0.0
 10
42.4128
 20
-7.8628
 30
0.0
 10
42.4128
 20
-7.8628
 30
0.0
 10
42.4128
 20
-7.8628
 30
0.0
 10
42.4128
 20
-7.8628
 30
0.0
 10
43.3215
 20
-8.4977
 30
0.0
 10
43.3215
 20
-8.4977
 30
0.0
 10
43.3215
 20
-8.4977
 30
0.0
 10
43.3215
 20
-8.4977
 30
0.0
 10
43.3234
 20
-7.8656
 30
0.0
 10
43.3234
 20
-7.8656
 30
0.0
  0
SPLINE
  5
7C
330
1F
100
AcDbEntity
  8
VRSTVA_1
 62
   250
100
AcDbSpline
210
0.0
220
0.0
230
1.0
 70
    11
 71
     3
 72
    52
 73
    48
 74
     0
 42
0.0000000001
 43
0.0000000001
 40
0.0
 40
0.0
 40
0.0
 40
0.0
 40
0.0769230769230769
 40
0.0769230769230769
 40
0.0769230769230769
 40
0.0769230769230769
 40
0.1538461538461539
 40
0.1538461538461539
 40
0.1538461538461539
 40
0.1538461538461539
 40
0.2307692307692308
 40
0.2307692307692308
 40
0.2307692307692308
 40
0.2307692307692308
 40
0.3076923076923077
 40
0.3076923076923077
 40
0.3076923076923077
 40
0.3076923076923077
 40
0.3846153846153846
 40
0.3846153846153846
 40
0.3846153846153846
 40
0.3846153846153846
 40
0.4615384615384616
 40
0.4615384615384616
 40
0.4615384615384616
 40
0.4615384615384616
 40
0.5384615384615384
 40
0.5384615384615384
 40
0.5384615384615384
 40
0.5384615384615384
 40
0.6153846153846154
 40
0.6153846153846154
 40
0.6153846153846154
 40
0.6153846153846154
 40
0.6923076923076923
 40
0.6923076923076923
 40
0.6923076923076923
 40
0.6923076923076923
 40
0.7692307692307693
 40
0.7692307692307693
 40
0.7692307692307693
 40
0.7692307692307693
 40
0.8461538461538461
 40
0.8461538461538461
 40
0.8461538461538461
 40
0.8461538461538461
 40
1.0
 40
1.0
 40
1.0
 40
1.0
 10
43.0408
 20
-7.09
 30
0.0
 10
42.8018
 20
-7.0893
 30
0.0
 10
42.6095
 20
-7.0642
 30
0.0
 10
42.4643
 20
-7.0144
 30
0.0
 10
42.4643
 20
-7.0144
 30
0.0
 10
42.3186
 20
-6.9651
 30
0.0
 10
42.2065
 20
-6.8913
 30
0.0
 10
42.1277
 20
-6.7942
 30
0.0
 10
42.1277
 20
-6.7942
 30
0.0
 10
42.049
 20
-6.697
 30
0.0
 10
42.0098
 20
-6.5751
 30
0.0
 10
42.0103
 20
-6.4284
 30
0.0
 10
42.0103
 20
-6.4284
 30
0.0
 10
42.0106
 20
-6.3197
 30
0.0
 10
42.033
 20
-6.2248
 30
0.0
 10
42.077
 20
-6.1431
 30
0.0
 10
42.077
 20
-6.1431
 30
0.0
 10
42.1205
 20
-6.0614
 30
0.0
 10
42.1838
 20
-5.9942
 30
0.0
 10
42.2662
 20
-5.9409
 30
0.0
 10
42.2662
 20
-5.9409
 30
0.0
 10
42.3487
 20
-5.888
 30
0.0
 10
42.449
 20
-5.8464
 30
0.0
 10
42.5671
 20
-5.8167
 30
0.0
 10
42.5671
 20
-5.8167
 30
0.0
 10
42.6853
 20
-5.7864
 30
0.0
 10
42.8443
 20
-5.7719
 30
0.0
 10
43.0447
 20
-5.7725
 30
0.0
 10
43.0447
 20
-5.7725
 30
0.0
 10
43.2817
 20
-5.7732
 30
0.0
 10
43.4727
 20
-5.7982
 30
0.0
 10
43.6183
 20
-5.8472
 30
0.0
 10
43.6183
 20
-5.8472
 30
0.0
 10
43.764
 20
-5.8965
 30
0.0
 10
43.8761
 20
-5.9697
 30
0.0
 10
43.9554
 20
-6.0669
 30
0.0
 10
43.9554
 20
-6.0669
 30
0.0
 10
44.0346
 20
-6.164
 30
0.0
 10
44.0737
 20
-6.2864
 30
0.0
 10
44.0733
 20
-6.4346
 30
0.0
 10
44.0733
 20
-6.4346
 30
0.0
 10
44.0727
 20
-6.6293
 30
0.0
 10
44.0026
 20
-6.782
 30
0.0
 10
43.8626
 20
-6.8926
 30
0.0
 10
43.8626
 20
-6.8926
 30
0.0
 10
43.6943
 20
-7.0252
 30
0.0
 10
43.4199
 20
-7.0912
 30
0.0
 10
43.0408
 20
-7.09
 30
0.0
  0
SPLINE
  5
7D
330
1F
100
AcDbEntity
  8
VRSTVA_1
 62
   250
100
AcDbSpline
210
0.0
220
0.0
230
1.0
 70
    11
 71
     3
 72
    36
 73
    32
 74
     0
 42
0.0000000001
 43
0.0000000001
 40
0.0
 40
0.0
 40
0.0
 40
0.0
 40
0.1111111111111111
 40
0.1111111111111111
 40
0.1111111111111111
 40
0.1111111111111111
 40
0.2222222222222222
 40
0.2222222222222222
 40
0.2222222222222222
 40
0.2222222222222222
 40
0.3333333333333333
 40
0.3333333333333333
 40
0.3333333333333333
 40
0.3333333333333333
 40
0.4444444444444444
 40
0.4444444444444444
 40
0.4444444444444444
 40
0.4444444444444444
 40
0.5555555555555556
 40
0.5555555555555556
 40
0.5555555555555556
 40
0.5555555555555556
 40
0.6666666666666666
 40
0.6666666666666666
 40
0.6666666666666666
 40
0.6666666666666666
 40
0.7777777777777778
 40
0.7777777777777778
 40
0.7777777777777778
 40
0.7777777777777778
 40
1.0
 40
1.0
 40
1.0
 40
1.0
 10
43.0415
 20
-6.835
 30
0.0
 10
43.3731
 20
-6.836
 30
0.0
 10
43.5939
 20
-6.7977
 30
0.0
 10
43.7041
 20
-6.7204
 30
0.0
 10
43.7041
 20
-6.7204
 30
0.0
 10
43.8139
 20
-6.6431
 30
0.0
 10
43.8693
 20
-6.5478
 30
0.0
 10
43.8697
 20
-6.434
 30
0.0
 10
43.8697
 20
-6.434
 30
0.0
 10
43.87
 20
-6.3197
 30
0.0
 10
43.8148
 20
-6.224
 30
0.0
 10
43.7049
 20
-6.1461
 30
0.0
 10
43.7049
 20
-6.1461
 30
0.0
 10
43.5951
 20
-6.0682
 30
0.0
 10
43.3746
 20
-6.0284
 30
0.0
 10
43.044
 20
-6.0274
 30
0.0
 10
43.044
 20
-6.0274
 30
0.0
 10
42.7114
 20
-6.0264
 30
0.0
 10
42.4902
 20
-6.0649
 30
0.0
 10
42.3808
 20
-6.1421
 30
0.0
 10
42.3808
 20
-6.1421
 30
0.0
 10
42.271
 20
-6.2194
 30
0.0
 10
42.2162
 20
-6.3156
 30
0.0
 10
42.2159
 20
-6.4313
 30
0.0
 10
42.2159
 20
-6.4313
 30
0.0
 10
42.2155
 20
-6.5456
 30
0.0
 10
42.2636
 20
-6.6366
 30
0.0
 10
42.3598
 20
-6.7051
 30
0.0
 10
42.3598
 20
-6.7051
 30
0.0
 10
42.4824
 20
-6.7905
 30
0.0
 10
42.7099
 20
-6.834
 30
0.0
 10
43.0415
 20
-6.835
 30
0.0
  0
SPLINE
  5
7E
330
1F
100
AcDbEntity
  8
VRSTVA_1
 62
   250
100
AcDbSpline
210
0.0
220
0.0
230
1.0
 70
    11
 71
     3
 72
    20
 73
    16
 74
     0
 42
0.0000000001
 43
0.0000000001
 40
0.0
 40
0.0
 40
0.0
 40
0.0
 40
0.2
 40
0.2
 40
0.2
 40
0.2
 40
0.4
 40
0.4
 40
0.4
 40
0.4
 40
0.6
 40
0.6
 40
0.6
 40
0.6
 40
1.0
 40
1.0
 40
1.0
 40
1.0
 10
45.3251
 20
13.0143
 30
0.0
 10
45.3251
 20
13.0143
 30
0.0
 10
44.9018
 20
10.0143
 30
0.0
 10
44.9018
 20
10.0143
 30
0.0
 10
44.9018
 20
10.0143
 30
0.0
 10
44.9018
 20
10.0143
 30
0.0
 10
44.8077
 20
10.0143
 30
0.0
 10
44.8077
 20
10.0143
 30
0.0
 10
44.8077
 20
10.0143
 30
0.0
 10
44.8077
 20
10.0143
 30
0.0
 10
44.3563
 20
13.0143
 30
0.0
 10
44.3563
 20
13.0143
 30
0.0
 10
44.3563
 20
13.0143
 30
0.0
 10
44.3563
 20
13.0143
 30
0.0
 10
45.3251
 20
13.0143
 30
0.0
 10
45.3251
 20
13.0143
 30
0.0
  0
SPLINE
  5
7F
330
1F
100
AcDbEntity
  8
VRSTVA_1
 62
   250
100
AcDbSpline
210
0.0
220
0.0
230
1.0
 70
    11
 71
     3
 72
    20
 73
    16
 74
     0
 42
0.0000000001
 43
0.0000000001
 40
0.0
 40
0.0
 40
0.0
 40
0.0
 40
0.2
 40
0.2
 40
0.2
 40
0.2
 40
0.4
 40
0.4
 40
0.4
 40
0.4
 40
0.6
 40
0.6
 40
0.6
 40
0.6
 40
1.0
 40
1.0
 40
1.0
 40
1.0
 10
-36.3438
 20
10.7226
 30
0.0
 10
-36.3438
 20
10.7226
 30
0.0
 10
-35.4178
 20
10.7226
 30
0.0
 10
-35.4178
 20
10.7226
 30
0.0
 10
-35.4178
 20
10.7226
 30
0.0
 10
-35.4178
 20
10.7226
 30
0.0
 10
-35.4178
 20
-4.588
 30
0.0
 10
-35.4178
 20
-4.588
 30
0.0
 10
-35.4178
 20
-4.588
 30
0.0
 10
-35.4178
 20
-4.588
 30
0.0
 10
-36.3438
 20
-4.588
 30
0.0
 10
-36.3438
 20
-4.588
 30
0.0
 10
-36.3438
 20
-4.588
 30
0.0
 10
-36.3438
 20
-4.588
 30
0.0
 10
-36.3438
 20
10.7226
 30
0.0
 10
-36.3438
 20
10.7226
 30
0.0
  0
SPLINE
  5
80
330
1F
100
AcDbEntity
  8
VRSTVA_1
100
AcDbSpline
210
0.0
220
0.0
230
1.0
 70
     8
 71
     3
 72
    12
 73
     8
 74
     0
 42
0.0000000001
 43
0.0000000001
 40
0.0
 40
0.0
 40
0.0
 40
0.0
 40
0.3333333333333333
 40
0.3333333333333333
 40
0.3333333333333333
 40
0.3333333333333333
 40
1.0
 40
1.0
 40
1.0
 40
1.0
 10
-23.9368
 20
6.8895
 30
0.0
 10
-23.9368
 20
7.1175
 30
0.0
 10
-24.1216
 20
7.3017
 30
0.0
 10
-24.3485
 20
7.3017
 30
0.0
 10
-24.3485
 20
7.3017
 30
0.0
 10
-24.5753
 20
7.3017
 30
0.0
 10
-35.3562
 20
7.2893
 30
0.0
 10
-35.3562
 20
7.2893
 30
0.0
  0
SPLINE
  5
81
330
1F
100
AcDbEntity
  8
VRSTVA_1
100
AcDbSpline
210
0.0
220
0.0
230
1.0
 70
     8
 71
     3
 72
    32
 73
    28
 74
     0
 42
0.0000000001
 43
0.0000000001
 40
0.0
 40
0.0
 40
0.0
 40
0.0
 40
0.125
 40
0.125
 40
0.125
 40
0.125
 40
0.25
 40
0.25
 40
0.25
 40
0.25
 40
0.375
 40
0.375
 40
0.375
 40
0.375
 40
0.5
 40
0.5
 40
0.5
 40
0.5
 40
0.625
 40
0.625
 40
0.625
 40
0.625
 40
0.75
 40
0.75
 40
0.75
 40
0.75
 40
1.0
 40
1.0
 40
1.0
 40
1.0
 10
-23.9058
 20
1.87
 30
0.0
 10
-23.9058
 20
1.87
 30
0.0
 10
-23.9192
 20
1.8433
 30
0.0
 10
-23.9192
 20
1.8433
 30
0.0
 10
-23.9192
 20
1.8433
 30
0.0
 10
-23.9192
 20
1.8433
 30
0.0
 10
-23.962
 20
1.819
 30
0.0
 10
-23.962
 20
1.819
 30
0.0
 10
-23.962
 20
1.819
 30
0.0
 10
-23.962
 20
1.819
 30
0.0
 10
-24.0253
 20
1.7962
 30
0.0
 10
-24.0253
 20
1.7962
 30
0.0
 10
-24.0253
 20
1.7962
 30
0.0
 10
-24.0253
 20
1.7962
 30
0.0
 10
-24.1119
 20
1.7803
 30
0.0
 10
-24.1119
 20
1.7803
 30
0.0
 10
-24.1119
 20
1.7803
 30
0.0
 10
-24.1119
 20
1.7803
 30
0.0
 10
-24.214
 20
1.7688
 30
0.0
 10
-24.214
 20
1.7688
 30
0.0
 10
-24.214
 20
1.7688
 30
0.0
 10
-24.214
 20
1.7688
 30
0.0
 10
-24.3176
 20
1.7659
 30
0.0
 10
-24.3176
 20
1.7659
 30
0.0
 10
-24.3176
 20
1.7659
 30
0.0
 10
-24.3176
 20
1.7659
 30
0.0
 10
-35.3252
 20
1.7219
 30
0.0
 10
-35.3252
 20
1.7219
 30
0.0
  0
SPLINE
  5
82
330
1F
100
AcDbEntity
  8
VRSTVA_1
100
AcDbSpline
210
0.0
220
0.0
230
1.0
 70
    24
 71
     3
 72
     8
 73
     4
 74
     0
 42
0.0000000001
 43
0.0000000001
 40
0.0
 40
0.0
 40
0.0
 40
0.0
 40
1.0
 40
1.0
 40
1.0
 40
1.0
 10
-38.6189
 20
-3.2755
 30
0.0
 10
-38.6189
 20
-3.2755
 30
0.0
 10
-36.2664
 20
-3.2755
 30
0.0
 10
-36.2664
 20
-3.2755
 30
0.0
  0
SPLINE
  5
83
330
1F
100
AcDbEntity
  8
VRSTVA_1
100
AcDbSpline
210
0.0
220
0.0
230
1.0
 70
     8
 71
     3
 72
    16
 73
    12
 74
     0
 42
0.0000000001
 43
0.0000000001
 40
0.0
 40
0.0
 40
0.0
 40
0.0
 40
0.25
 40
0.25
 40
0.25
 40
0.25
 40
0.5
 40
0.5
 40
0.5
 40
0.5
 40
1.0
 40
1.0
 40
1.0
 40
1.0
 10
-23.9058
 20
-2.4514
 30
0.0
 10
-23.9058
 20
-2.4514
 30
0.0
 10
-19.7853
 20
-2.4514
 30
0.0
 10
-19.7853
 20
-2.4514
 30
0.0
 10
-19.7853
 20
-2.4514
 30
0.0
 10
-19.7853
 20
-2.4514
 30
0.0
 10
-19.768
 20
8.7121
 30
0.0
 10
-19.768
 20
8.7121
 30
0.0
 10
-19.768
 20
8.7121
 30
0.0
 10
-19.768
 20
8.7121
 30
0.0
 10
-23.8426
 20
8.6811
 30
0.0
 10
-23.8426
 20
8.6811
 30
0.0
  0
SPLINE
  5
84
330
1F
100
AcDbEntity
  8
VRSTVA_1
100
AcDbSpline
210
0.0
220
0.0
230
1.0
 70
    24
 71
     3
 72
     8
 73
     4
 74
     0
 42
0.0000000001
 43
0.0000000001
 40
0.0
 40
0.0
 40
0.0
 40
0.0
 40
1.0
 40
1.0
 40
1.0
 40
1.0
 10
-38.8179
 20
9.4981
 30
0.0
 10
-38.8179
 20
9.4981
 30
0.0
 10
-36.2664
 20
9.4981
 30
0.0
 10
-36.2664
 20
9.4981
 30
0.0
  0
SPLINE
  5
85
330
1F
100
AcDbEntity
  8
VRSTVA_1
100
AcDbSpline
210
0.0
220
0.0
230
1.0
 70
    24
 71
     3
 72
     8
 73
     4
 74
     0
 42
0.0000000001
 43
0.0000000001
 40
0.0
 40
0.0
 40
0.0
 40
0.0
 40
1.0
 40
1.0
 40
1.0
 40
1.0
 10
-24.3179
 20
9.9925
 30
0.0
 10
-24.3179
 20
9.9925
 30
0.0
 10
-35.4434
 20
9.9925
 30
0.0
 10
-35.4434
 20
9.9925
 30
0.0
  0
SPLINE
  5
86
330
1F
100
AcDbEntity
  8
VRSTVA_1
100
AcDbSpline
210
0.0
220
0.0
230
1.0
 70
     8
 71
     3
 72
    12
 73
     8
 74
     0
 42
0.0000000001
 43
0.0000000001
 40
0.0
 40
0.0
 40
0.0
 40
0.0
 40
0.3333333333333333
 40
0.3333333333333333
 40
0.3333333333333333
 40
0.3333333333333333
 40
1.0
 40
1.0
 40
1.0
 40
1.0
 10
-23.9058
 20
9.0857
 30
0.0
 10
-23.9058
 20
9.3136
 30
0.0
 10
-24.0907
 20
9.4979
 30
0.0
 10
-24.3176
 20
9.4979
 30
0.0
 10
-24.3176
 20
9.4979
 30
0.0
 10
-24.5444
 20
9.4979
 30
0.0
 10
-35.3252
 20
9.4854
 30
0.0
 10
-35.3252
 20
9.4854
 30
0.0
  0
SPLINE
  5
87
330
1F
100
AcDbEntity
  8
VRSTVA_1
100
AcDbSpline
210
0.0
220
0.0
230
1.0
 70
     8
 71
     3
 72
    52
 73
    48
 74
     0
 42
0.0000000001
 43
0.0000000001
 40
0.0
 40
0.0
 40
0.0
 40
0.0
 40
0.0769230769230769
 40
0.0769230769230769
 40
0.0769230769230769
 40
0.0769230769230769
 40
0.1538461538461539
 40
0.1538461538461539
 40
0.1538461538461539
 40
0.1538461538461539
 40
0.2307692307692308
 40
0.2307692307692308
 40
0.2307692307692308
 40
0.2307692307692308
 40
0.3076923076923077
 40
0.3076923076923077
 40
0.3076923076923077
 40
0.3076923076923077
 40
0.3846153846153846
 40
0.3846153846153846
 40
0.3846153846153846
 40
0.3846153846153846
 40
0.4615384615384616
 40
0.4615384615384616
 40
0.4615384615384616
 40
0.4615384615384616
 40
0.5384615384615384
 40
0.5384615384615384
 40
0.5384615384615384
 40
0.5384615384615384
 40
0.6153846153846154
 40
0.6153846153846154
 40
0.6153846153846154
 40
0.6153846153846154
 40
0.6923076923076923
 40
0.6923076923076923
 40
0.6923076923076923
 40
0.6923076923076923
 40
0.7692307692307693
 40
0.7692307692307693
 40
0.7692307692307693
 40
0.7692307692307693
 40
0.8461538461538461
 40
0.8461538461538461
 40
0.8461538461538461
 40
0.8461538461538461
 40
1.0
 40
1.0
 40
1.0
 40
1.0
 10
-35.2943
 20
9.9185
 30
0.0
 10
-35.2943
 20
9.9185
 30
0.0
 10
-24.3176
 20
9.992
 30
0.0
 10
-24.3176
 20
9.992
 30
0.0
 10
-24.3176
 20
9.992
 30
0.0
 10
-24.3176
 20
9.992
 30
0.0
 10
-24.214
 20
9.98
 30
0.0
 10
-24.214
 20
9.98
 30
0.0
 10
-24.214
 20
9.98
 30
0.0
 10
-24.214
 20
9.98
 30
0.0
 10
-24.1119
 20
9.9399
 30
0.0
 10
-24.1119
 20
9.9399
 30
0.0
 10
-24.1119
 20
9.9399
 30
0.0
 10
-24.1119
 20
9.9399
 30
0.0
 10
-24.0253
 20
9.8755
 30
0.0
 10
-24.0253
 20
9.8755
 30
0.0
 10
-24.0253
 20
9.8755
 30
0.0
 10
-24.0253
 20
9.8755
 30
0.0
 10
-23.962
 20
9.7928
 30
0.0
 10
-23.962
 20
9.7928
 30
0.0
 10
-23.962
 20
9.7928
 30
0.0
 10
-23.962
 20
9.7928
 30
0.0
 10
-23.9192
 20
9.6969
 30
0.0
 10
-23.9192
 20
9.6969
 30
0.0
 10
-23.9192
 20
9.6969
 30
0.0
 10
-23.9192
 20
9.6969
 30
0.0
 10
-23.9058
 20
9.5921
 30
0.0
 10
-23.9058
 20
9.5921
 30
0.0
 10
-23.9058
 20
9.5921
 30
0.0
 10
-23.9058
 20
9.5921
 30
0.0
 10
-23.9043
 20
-3.4126
 30
0.0
 10
-23.9043
 20
-3.4126
 30
0.0
 10
-23.9043
 20
-3.4126
 30
0.0
 10
-23.9043
 20
-3.4126
 30
0.0
 10
-23.9968
 20
-3.5982
 30
0.0
 10
-23.9968
 20
-3.5982
 30
0.0
 10
-23.9968
 20
-3.5982
 30
0.0
 10
-23.9968
 20
-3.5982
 30
0.0
 10
-24.2129
 20
-3.691
 30
0.0
 10
-24.2129
 20
-3.691
 30
0.0
 10
-24.2129
 20
-3.691
 30
0.0
 10
-24.2129
 20
-3.691
 30
0.0
 10
-24.4908
 20
-3.7839
 30
0.0
 10
-24.4908
 20
-3.7839
 30
0.0
 10
-24.4908
 20
-3.7839
 30
0.0
 10
-24.4908
 20
-3.7839
 30
0.0
 10
-35.4178
 20
-3.8148
 30
0.0
 10
-35.4178
 20
-3.8148
 30
0.0
  0
SPLINE
  5
88
330
1F
100
AcDbEntity
  8
VRSTVA_1
100
AcDbSpline
210
0.0
220
0.0
230
1.0
 70
     8
 71
     3
 72
    32
 73
    28
 74
     0
 42
0.0000000001
 43
0.0000000001
 40
0.0
 40
0.0
 40
0.0
 40
0.0
 40
0.125
 40
0.125
 40
0.125
 40
0.125
 40
0.25
 40
0.25
 40
0.25
 40
0.25
 40
0.375
 40
0.375
 40
0.375
 40
0.375
 40
0.5
 40
0.5
 40
0.5
 40
0.5
 40
0.625
 40
0.625
 40
0.625
 40
0.625
 40
0.75
 40
0.75
 40
0.75
 40
0.75
 40
1.0
 40
1.0
 40
1.0
 40
1.0
 10
-23.9058
 20
0.9112
 30
0.0
 10
-23.9058
 20
0.9112
 30
0.0
 10
-23.9192
 20
0.8844
 30
0.0
 10
-23.9192
 20
0.8844
 30
0.0
 10
-23.9192
 20
0.8844
 30
0.0
 10
-23.9192
 20
0.8844
 30
0.0
 10
-23.962
 20
0.8602
 30
0.0
 10
-23.962
 20
0.8602
 30
0.0
 10
-23.962
 20
0.8602
 30
0.0
 10
-23.962
 20
0.8602
 30
0.0
 10
-24.0253
 20
0.8373
 30
0.0
 10
-24.0253
 20
0.8373
 30
0.0
 10
-24.0253
 20
0.8373
 30
0.0
 10
-24.0253
 20
0.8373
 30
0.0
 10
-24.1119
 20
0.8215
 30
0.0
 10
-24.1119
 20
0.8215
 30
0.0
 10
-24.1119
 20
0.8215
 30
0.0
 10
-24.1119
 20
0.8215
 30
0.0
 10
-24.214
 20
0.81
 30
0.0
 10
-24.214
 20
0.81
 30
0.0
 10
-24.214
 20
0.81
 30
0.0
 10
-24.214
 20
0.81
 30
0.0
 10
-24.3176
 20
0.807
 30
0.0
 10
-24.3176
 20
0.807
 30
0.0
 10
-24.3176
 20
0.807
 30
0.0
 10
-24.3176
 20
0.807
 30
0.0
 10
-35.3252
 20
0.763
 30
0.0
 10
-35.3252
 20
0.763
 30
0.0
  0
SPLINE
  5
89
330
1F
100
AcDbEntity
  8
VRSTVA_1
100
AcDbSpline
210
0.0
220
0.0
230
1.0
 70
     8
 71
     3
 72
    32
 73
    28
 74
     0
 42
0.0000000001
 43
0.0000000001
 40
0.0
 40
0.0
 40
0.0
 40
0.0
 40
0.125
 40
0.125
 40
0.125
 40
0.125
 40
0.25
 40
0.25
 40
0.25
 40
0.25
 40
0.375
 40
0.375
 40
0.375
 40
0.375
 40
0.5
 40
0.5
 40
0.5
 40
0.5
 40
0.625
 40
0.625
 40
0.625
 40
0.625
 40
0.75
 40
0.75
 40
0.75
 40
0.75
 40
1.0
 40
1.0
 40
1.0
 40
1.0
 10
-23.9058
 20
-2.5039
 30
0.0
 10
-23.9058
 20
-2.5039
 30
0.0
 10
-23.9192
 20
-2.6083
 30
0.0
 10
-23.9192
 20
-2.6083
 30
0.0
 10
-23.9192
 20
-2.6083
 30
0.0
 10
-23.9192
 20
-2.6083
 30
0.0
 10
-23.962
 20
-2.7048
 30
0.0
 10
-23.962
 20
-2.7048
 30
0.0
 10
-23.962
 20
-2.7048
 30
0.0
 10
-23.962
 20
-2.7048
 30
0.0
 10
-24.0253
 20
-2.7872
 30
0.0
 10
-24.0253
 20
-2.7872
 30
0.0
 10
-24.0253
 20
-2.7872
 30
0.0
 10
-24.0253
 20
-2.7872
 30
0.0
 10
-24.1119
 20
-2.8519
 30
0.0
 10
-24.1119
 20
-2.8519
 30
0.0
 10
-24.1119
 20
-2.8519
 30
0.0
 10
-24.1119
 20
-2.8519
 30
0.0
 10
-24.214
 20
-2.892
 30
0.0
 10
-24.214
 20
-2.892
 30
0.0
 10
-24.214
 20
-2.892
 30
0.0
 10
-24.214
 20
-2.892
 30
0.0
 10
-24.3176
 20
-2.904
 30
0.0
 10
-24.3176
 20
-2.904
 30
0.0
 10
-24.3176
 20
-2.904
 30
0.0
 10
-24.3176
 20
-2.904
 30
0.0
 10
-35.2943
 20
-2.9177
 30
0.0
 10
-35.2943
 20
-2.9177
 30
0.0
  0
SPLINE
  5
8A
330
1F
100
AcDbEntity
  8
VRSTVA_1
 62
   250
100
AcDbSpline
210
0.0
220
0.0
230
1.0
 70
    27
 71
     3
 72
    12
 73
     8
 74
     0
 42
0.0000000001
 43
0.0000000001
 40
0.0
 40
0.0
 40
0.0
 40
0.0
 40
0.3333333333333333
 40
0.3333333333333333
 40
0.3333333333333333
 40
0.3333333333333333
 40
1.0
 40
1.0
 40
1.0
 40
1.0
 10
-45.3339
 20
10.9675
 30
0.0
 10
-45.3339
 20
10.9675
 30
0.0
 10
-49.9217
 20
10.9675
 30
0.0
 10
-49.9217
 20
10.9675
 30
0.0
 10
-49.9217
 20
10.9675
 30
0.0
 10
-49.9217
 20
10.9675
 30
0.0
 10
-45.3339
 20
10.9675
 30
0.0
 10
-45.3339
 20
10.9675
 30
0.0
  0
SPLINE
  5
8B
330
1F
100
AcDbEntity
  8
VRSTVA_1
 62
   250
100
AcDbSpline
210
0.0
220
0.0
230
1.0
 70
    27
 71
     3
 72
    12
 73
     8
 74
     0
 42
0.0000000001
 43
0.0000000001
 40
0.0
 40
0.0
 40
0.0
 40
0.0
 40
0.3333333333333333
 40
0.3333333333333333
 40
0.3333333333333333
 40
0.3333333333333333
 40
1.0
 40
1.0
 40
1.0
 40
1.0
 10
-45.3339
 20
-4.6154
 30
0.0
 10
-45.3339
 20
-4.6154
 30
0.0
 10
-50.0971
 20
-4.6154
 30
0.0
 10
-50.0971
 20
-4.6154
 30
0.0
 10
-50.0971
 20
-4.6154
 30
0.0
 10
-50.0971
 20
-4.6154
 30
0.0
 10
-45.3339
 20
-4.6154
 30
0.0
 10
-45.3339
 20
-4.6154
 30
0.0
  0
SPLINE
  5
8C
330
1F
100
AcDbEntity
  8
VRSTVA_1
100
AcDbSpline
210
0.0
220
0.0
230
1.0
 70
     8
 71
     3
 72
    12
 73
     8
 74
     0
 42
0.0000000001
 43
0.0000000001
 40
0.0
 40
0.0
 40
0.0
 40
0.0
 40
0.3333333333333333
 40
0.3333333333333333
 40
0.3333333333333333
 40
0.3333333333333333
 40
1.0
 40
1.0
 40
1.0
 40
1.0
 10
-39.471
 20
-5.6008
 30
0.0
 10
-39.2711
 20
-5.6008
 30
0.0
 10
-39.0794
 20
-5.5348
 30
0.0
 10
-38.938
 20
-5.4178
 30
0.0
 10
-38.938
 20
-5.4178
 30
0.0
 10
-38.7966
 20
-5.3003
 30
0.0
 10
-38.7174
 20
-5.1413
 30
0.0
 10
-38.7174
 20
-4.9755
 30
0.0
  0
SPLINE
  5
8D
330
1F
100
AcDbEntity
  8
VRSTVA_1
100
AcDbSpline
210
0.0
220
0.0
230
1.0
 70
     8
 71
     3
 72
    12
 73
     8
 74
     0
 42
0.0000000001
 43
0.0000000001
 40
0.0
 40
0.0
 40
0.0
 40
0.0
 40
0.3333333333333333
 40
0.3333333333333333
 40
0.3333333333333333
 40
0.3333333333333333
 40
1.0
 40
1.0
 40
1.0
 40
1.0
 10
-38.7174
 20
11.6976
 30
0.0
 10
-38.7174
 20
11.8632
 30
0.0
 10
-38.7966
 20
12.0224
 30
0.0
 10
-38.938
 20
12.1397
 30
0.0
 10
-38.938
 20
12.1397
 30
0.0
 10
-39.0794
 20
12.257
 30
0.0
 10
-39.2711
 20
12.3228
 30
0.0
 10
-39.471
 20
12.3228
 30
0.0
  0
SPLINE
  5
8E
330
1F
100
AcDbEntity
  8
VRSTVA_1
100
AcDbSpline
210
0.0
220
0.0
230
1.0
 70
    11
 71
     3
 72
   708
 73
   704
 74
     0
 42
0.0000000001
 43
0.0000000001
 40
0.0
 40
0.0
 40
0.0
 40
0.0
 40
0.0056497175141243
 40
0.0056497175141243
 40
0.0056497175141243
 40
0.0056497175141243
 40
0.0112994350282486
 40
0.0112994350282486
 40
0.0112994350282486
 40
0.0112994350282486
 40
0.0169491525423729
 40
0.0169491525423729
 40
0.0169491525423729
 40
0.0169491525423729
 40
0.0225988700564972
 40
0.0225988700564972
 40
0.0225988700564972
 40
0.0225988700564972
 40
0.0282485875706215
 40
0.0282485875706215
 40
0.0282485875706215
 40
0.0282485875706215
 40
0.0338983050847458
 40
0.0338983050847458
 40
0.0338983050847458
 40
0.0338983050847458
 40
0.0395480225988701
 40
0.0395480225988701
 40
0.0395480225988701
 40
0.0395480225988701
 40
0.0451977401129944
 40
0.0451977401129944
 40
0.0451977401129944
 40
0.0451977401129944
 40
0.0508474576271186
 40
0.0508474576271186
 40
0.0508474576271186
 40
0.0508474576271186
 40
0.0564971751412429
 40
0.0564971751412429
 40
0.0564971751412429
 40
0.0564971751412429
 40
0.0621468926553672
 40
0.0621468926553672
 40
0.0621468926553672
 40
0.0621468926553672
 40
0.0677966101694915
 40
0.0677966101694915
 40
0.0677966101694915
 40
0.0677966101694915
 40
0.0734463276836158
 40
0.0734463276836158
 40
0.0734463276836158
 40
0.0734463276836158
 40
0.0790960451977401
 40
0.0790960451977401
 40
0.0790960451977401
 40
0.0790960451977401
 40
0.0847457627118644
 40
0.0847457627118644
 40
0.0847457627118644
 40
0.0847457627118644
 40
0.0903954802259887
 40
0.0903954802259887
 40
0.0903954802259887
 40
0.0903954802259887
 40
0.096045197740113
 40
0.096045197740113
 40
0.096045197740113
 40
0.096045197740113
 40
0.1016949152542373
 40
0.1016949152542373
 40
0.1016949152542373
 40
0.1016949152542373
 40
0.1073446327683616
 40
0.1073446327683616
 40
0.1073446327683616
 40
0.1073446327683616
 40
0.1129943502824859
 40
0.1129943502824859
 40
0.1129943502824859
 40
0.1129943502824859
 40
0.1186440677966102
 40
0.1186440677966102
 40
0.1186440677966102
 40
0.1186440677966102
 40
0.1242937853107345
 40
0.1242937853107345
 40
0.1242937853107345
 40
0.1242937853107345
 40
0.1299435028248588
 40
0.1299435028248588
 40
0.1299435028248588
 40
0.1299435028248588
 40
0.1355932203389831
 40
0.1355932203389831
 40
0.1355932203389831
 40
0.1355932203389831
 40
0.1412429378531073
 40
0.1412429378531073
 40
0.1412429378531073
 40
0.1412429378531073
 40
0.1468926553672316
 40
0.1468926553672316
 40
0.1468926553672316
 40
0.1468926553672316
 40
0.1525423728813559
 40
0.1525423728813559
 40
0.1525423728813559
 40
0.1525423728813559
 40
0.1581920903954802
 40
0.1581920903954802
 40
0.1581920903954802
 40
0.1581920903954802
 40
0.1638418079096045
 40
0.1638418079096045
 40
0.1638418079096045
 40
0.1638418079096045
 40
0.1694915254237288
 40
0.1694915254237288
 40
0.1694915254237288
 40
0.1694915254237288
 40
0.1751412429378531
 40
0.1751412429378531
 40
0.1751412429378531
 40
0.1751412429378531
 40
0.1807909604519774
 40
0.1807909604519774
 40
0.1807909604519774
 40
0.1807909604519774
 40
0.1864406779661017
 40
0.1864406779661017
 40
0.1864406779661017
 40
0.1864406779661017
 40
0.192090395480226
 40
0.192090395480226
 40
0.192090395480226
 40
0.192090395480226
 40
0.1977401129943503
 40
0.1977401129943503
 40
0.1977401129943503
 40
0.1977401129943503
 40
0.2033898305084746
 40
0.2033898305084746
 40
0.2033898305084746
 40
0.2033898305084746
 40
0.2090395480225989
 40
0.2090395480225989
 40
0.2090395480225989
 40
0.2090395480225989
 40
0.2146892655367232
 40
0.2146892655367232
 40
0.2146892655367232
 40
0.2146892655367232
 40
0.2203389830508475
 40
0.2203389830508475
 40
0.2203389830508475
 40
0.2203389830508475
 40
0.2259887005649718
 40
0.2259887005649718
 40
0.2259887005649718
 40
0.2259887005649718
 40
0.231638418079096
 40
0.231638418079096
 40
0.231638418079096
 40
0.231638418079096
 40
0.2372881355932203
 40
0.2372881355932203
 40
0.2372881355932203
 40
0.2372881355932203
 40
0.2429378531073446
 40
0.2429378531073446
 40
0.2429378531073446
 40
0.2429378531073446
 40
0.2485875706214689
 40
0.2485875706214689
 40
0.2485875706214689
 40
0.2485875706214689
 40
0.2542372881355932
 40
0.2542372881355932
 40
0.2542372881355932
 40
0.2542372881355932
 40
0.2598870056497175
 40
0.2598870056497175
 40
0.2598870056497175
 40
0.2598870056497175
 40
0.2655367231638418
 40
0.2655367231638418
 40
0.2655367231638418
 40
0.2655367231638418
 40
0.2711864406779661
 40
0.2711864406779661
 40
0.2711864406779661
 40
0.2711864406779661
 40
0.2768361581920904
 40
0.2768361581920904
 40
0.2768361581920904
 40
0.2768361581920904
 40
0.2824858757062147
 40
0.2824858757062147
 40
0.2824858757062147
 40
0.2824858757062147
 40
0.288135593220339
 40
0.288135593220339
 40
0.288135593220339
 40
0.288135593220339
 40
0.2937853107344633
 40
0.2937853107344633
 40
0.2937853107344633
 40
0.2937853107344633
 40
0.2994350282485876
 40
0.2994350282485876
 40
0.2994350282485876
 40
0.2994350282485876
 40
0.3050847457627119
 40
0.3050847457627119
 40
0.3050847457627119
 40
0.3050847457627119
 40
0.3107344632768362
 40
0.3107344632768362
 40
0.3107344632768362
 40
0.3107344632768362
 40
0.3163841807909605
 40
0.3163841807909605
 40
0.3163841807909605
 40
0.3163841807909605
 40
0.3220338983050847
 40
0.3220338983050847
 40
0.3220338983050847
 40
0.3220338983050847
 40
0.327683615819209
 40
0.327683615819209
 40
0.327683615819209
 40
0.327683615819209
 40
0.3333333333333333
 40
0.3333333333333333
 40
0.3333333333333333
 40
0.3333333333333333
 40
0.3389830508474576
 40
0.3389830508474576
 40
0.3389830508474576
 40
0.3389830508474576
 40
0.3446327683615819
 40
0.3446327683615819
 40
0.3446327683615819
 40
0.3446327683615819
 40
0.3502824858757062
 40
0.3502824858757062
 40
0.3502824858757062
 40
0.3502824858757062
 40
0.3559322033898305
 40
0.3559322033898305
 40
0.3559322033898305
 40
0.3559322033898305
 40
0.3615819209039548
 40
0.3615819209039548
 40
0.3615819209039548
 40
0.3615819209039548
 40
0.3672316384180791
 40
0.3672316384180791
 40
0.3672316384180791
 40
0.3672316384180791
 40
0.3728813559322034
 40
0.3728813559322034
 40
0.3728813559322034
 40
0.3728813559322034
 40
0.3785310734463277
 40
0.3785310734463277
 40
0.3785310734463277
 40
0.3785310734463277
 40
0.384180790960452
 40
0.384180790960452
 40
0.384180790960452
 40
0.384180790960452
 40
0.3898305084745763
 40
0.3898305084745763
 40
0.3898305084745763
 40
0.3898305084745763
 40
0.3954802259887006
 40
0.3954802259887006
 40
0.3954802259887006
 40
0.3954802259887006
 40
0.4011299435028249
 40
0.4011299435028249
 40
0.4011299435028249
 40
0.4011299435028249
 40
0.4067796610169492
 40
0.4067796610169492
 40
0.4067796610169492
 40
0.4067796610169492
 40
0.4124293785310734
 40
0.4124293785310734
 40
0.4124293785310734
 40
0.4124293785310734
 40
0.4180790960451977
 40
0.4180790960451977
 40
0.4180790960451977
 40
0.4180790960451977
 40
0.423728813559322
 40
0.423728813559322
 40
0.423728813559322
 40
0.423728813559322
 40
0.4293785310734463
 40
0.4293785310734463
 40
0.4293785310734463
 40
0.4293785310734463
 40
0.4350282485875706
 40
0.4350282485875706
 40
0.4350282485875706
 40
0.4350282485875706
 40
0.4406779661016949
 40
0.4406779661016949
 40
0.4406779661016949
 40
0.4406779661016949
 40
0.4463276836158192
 40
0.4463276836158192
 40
0.4463276836158192
 40
0.4463276836158192
 40
0.4519774011299435
 40
0.4519774011299435
 40
0.4519774011299435
 40
0.4519774011299435
 40
0.4576271186440678
 40
0.4576271186440678
 40
0.4576271186440678
 40
0.4576271186440678
 40
0.4632768361581921
 40
0.4632768361581921
 40
0.4632768361581921
 40
0.4632768361581921
 40
0.4689265536723164
 40
0.4689265536723164
 40
0.4689265536723164
 40
0.4689265536723164
 40
0.4745762711864407
 40
0.4745762711864407
 40
0.4745762711864407
 40
0.4745762711864407
 40
0.480225988700565
 40
0.480225988700565
 40
0.480225988700565
 40
0.480225988700565
 40
0.4858757062146893
 40
0.4858757062146893
 40
0.4858757062146893
 40
0.4858757062146893
 40
0.4915254237288136
 40
0.4915254237288136
 40
0.4915254237288136
 40
0.4915254237288136
 40
0.4971751412429379
 40
0.4971751412429379
 40
0.4971751412429379
 40
0.4971751412429379
 40
0.5028248587570622
 40
0.5028248587570622
 40
0.5028248587570622
 40
0.5028248587570622
 40
0.5084745762711864
 40
0.5084745762711864
 40
0.5084745762711864
 40
0.5084745762711864
 40
0.5141242937853108
 40
0.5141242937853108
 40
0.5141242937853108
 40
0.5141242937853108
 40
0.519774011299435
 40
0.519774011299435
 40
0.519774011299435
 40
0.519774011299435
 40
0.5254237288135594
 40
0.5254237288135594
 40
0.5254237288135594
 40
0.5254237288135594
 40
0.5310734463276836
 40
0.5310734463276836
 40
0.5310734463276836
 40
0.5310734463276836
 40
0.536723163841808
 40
0.536723163841808
 40
0.536723163841808
 40
0.536723163841808
 40
0.5423728813559322
 40
0.5423728813559322
 40
0.5423728813559322
 40
0.5423728813559322
 40
0.5480225988700564
 40
0.5480225988700564
 40
0.5480225988700564
 40
0.5480225988700564
 40
0.5536723163841808
 40
0.5536723163841808
 40
0.5536723163841808
 40
0.5536723163841808
 40
0.559322033898305
 40
0.559322033898305
 40
0.559322033898305
 40
0.559322033898305
 40
0.5649717514124294
 40
0.5649717514124294
 40
0.5649717514124294
 40
0.5649717514124294
 40
0.5706214689265536
 40
0.5706214689265536
 40
0.5706214689265536
 40
0.5706214689265536
 40
0.576271186440678
 40
0.576271186440678
 40
0.576271186440678
 40
0.576271186440678
 40
0.5819209039548022
 40
0.5819209039548022
 40
0.5819209039548022
 40
0.5819209039548022
 40
0.5875706214689266
 40
0.5875706214689266
 40
0.5875706214689266
 40
0.5875706214689266
 40
0.5932203389830508
 40
0.5932203389830508
 40
0.5932203389830508
 40
0.5932203389830508
 40
0.5988700564971752
 40
0.5988700564971752
 40
0.5988700564971752
 40
0.5988700564971752
 40
0.6045197740112994
 40
0.6045197740112994
 40
0.6045197740112994
 40
0.6045197740112994
 40
0.6101694915254238
 40
0.6101694915254238
 40
0.6101694915254238
 40
0.6101694915254238
 40
0.615819209039548
 40
0.615819209039548
 40
0.615819209039548
 40
0.615819209039548
 40
0.6214689265536724
 40
0.6214689265536724
 40
0.6214689265536724
 40
0.6214689265536724
 40
0.6271186440677966
 40
0.6271186440677966
 40
0.6271186440677966
 40
0.6271186440677966
 40
0.632768361581921
 40
0.632768361581921
 40
0.632768361581921
 40
0.632768361581921
 40
0.6384180790960452
 40
0.6384180790960452
 40
0.6384180790960452
 40
0.6384180790960452
 40
0.6440677966101694
 40
0.6440677966101694
 40
0.6440677966101694
 40
0.6440677966101694
 40
0.6497175141242938
 40
0.6497175141242938
 40
0.6497175141242938
 40
0.6497175141242938
 40
0.655367231638418
 40
0.655367231638418
 40
0.655367231638418
 40
0.655367231638418
 40
0.6610169491525424
 40
0.6610169491525424
 40
0.6610169491525424
 40
0.6610169491525424
 40
0.6666666666666666
 40
0.6666666666666666
 40
0.6666666666666666
 40
0.6666666666666666
 40
0.672316384180791
 40
0.672316384180791
 40
0.672316384180791
 40
0.672316384180791
 40
0.6779661016949152
 40
0.6779661016949152
 40
0.6779661016949152
 40
0.6779661016949152
 40
0.6836158192090396
 40
0.6836158192090396
 40
0.6836158192090396
 40
0.6836158192090396
 40
0.6892655367231638
 40
0.6892655367231638
 40
0.6892655367231638
 40
0.6892655367231638
 40
0.6949152542372882
 40
0.6949152542372882
 40
0.6949152542372882
 40
0.6949152542372882
 40
0.7005649717514124
 40
0.7005649717514124
 40
0.7005649717514124
 40
0.7005649717514124
 40
0.7062146892655368
 40
0.7062146892655368
 40
0.7062146892655368
 40
0.7062146892655368
 40
0.711864406779661
 40
0.711864406779661
 40
0.711864406779661
 40
0.711864406779661
 40
0.7175141242937854
 40
0.7175141242937854
 40
0.7175141242937854
 40
0.7175141242937854
 40
0.7231638418079096
 40
0.7231638418079096
 40
0.7231638418079096
 40
0.7231638418079096
 40
0.7288135593220338
 40
0.7288135593220338
 40
0.7288135593220338
 40
0.7288135593220338
 40
0.7344632768361582
 40
0.7344632768361582
 40
0.7344632768361582
 40
0.7344632768361582
 40
0.7401129943502824
 40
0.7401129943502824
 40
0.7401129943502824
 40
0.7401129943502824
 40
0.7457627118644068
 40
0.7457627118644068
 40
0.7457627118644068
 40
0.7457627118644068
 40
0.751412429378531
 40
0.751412429378531
 40
0.751412429378531
 40
0.751412429378531
 40
0.7570621468926554
 40
0.7570621468926554
 40
0.7570621468926554
 40
0.7570621468926554
 40
0.7627118644067796
 40
0.7627118644067796
 40
0.7627118644067796
 40
0.7627118644067796
 40
0.768361581920904
 40
0.768361581920904
 40
0.768361581920904
 40
0.768361581920904
 40
0.7740112994350282
 40
0.7740112994350282
 40
0.7740112994350282
 40
0.7740112994350282
 40
0.7796610169491526
 40
0.7796610169491526
 40
0.7796610169491526
 40
0.7796610169491526
 40
0.7853107344632768
 40
0.7853107344632768
 40
0.7853107344632768
 40
0.7853107344632768
 40
0.7909604519774012
 40
0.7909604519774012
 40
0.7909604519774012
 40
0.7909604519774012
 40
0.7966101694915254
 40
0.7966101694915254
 40
0.7966101694915254
 40
0.7966101694915254
 40
0.8022598870056498
 40
0.8022598870056498
 40
0.8022598870056498
 40
0.8022598870056498
 40
0.807909604519774
 40
0.807909604519774
 40
0.807909604519774
 40
0.807909604519774
 40
0.8135593220338984
 40
0.8135593220338984
 40
0.8135593220338984
 40
0.8135593220338984
 40
0.8192090395480226
 40
0.8192090395480226
 40
0.8192090395480226
 40
0.8192090395480226
 40
0.8248587570621468
 40
0.8248587570621468
 40
0.8248587570621468
 40
0.8248587570621468
 40
0.8305084745762712
 40
0.8305084745762712
 40
0.8305084745762712
 40
0.8305084745762712
 40
0.8361581920903954
 40
0.8361581920903954
 40
0.8361581920903954
 40
0.8361581920903954
 40
0.8418079096045198
 40
0.8418079096045198
 40
0.8418079096045198
 40
0.8418079096045198
 40
0.847457627118644
 40
0.847457627118644
 40
0.847457627118644
 40
0.847457627118644
 40
0.8531073446327684
 40
0.8531073446327684
 40
0.8531073446327684
 40
0.8531073446327684
 40
0.8587570621468926
 40
0.8587570621468926
 40
0.8587570621468926
 40
0.8587570621468926
 40
0.864406779661017
 40
0.864406779661017
 40
0.864406779661017
 40
0.864406779661017
 40
0.8700564971751412
 40
0.8700564971751412
 40
0.8700564971751412
 40
0.8700564971751412
 40
0.8757062146892656
 40
0.8757062146892656
 40
0.8757062146892656
 40
0.8757062146892656
 40
0.8813559322033898
 40
0.8813559322033898
 40
0.8813559322033898
 40
0.8813559322033898
 40
0.8870056497175142
 40
0.8870056497175142
 40
0.8870056497175142
 40
0.8870056497175142
 40
0.8926553672316384
 40
0.8926553672316384
 40
0.8926553672316384
 40
0.8926553672316384
 40
0.8983050847457628
 40
0.8983050847457628
 40
0.8983050847457628
 40
0.8983050847457628
 40
0.903954802259887
 40
0.903954802259887
 40
0.903954802259887
 40
0.903954802259887
 40
0.9096045197740112
 40
0.9096045197740112
 40
0.9096045197740112
 40
0.9096045197740112
 40
0.9152542372881356
 40
0.9152542372881356
 40
0.9152542372881356
 40
0.9152542372881356
 40
0.9209039548022598
 40
0.9209039548022598
 40
0.9209039548022598
 40
0.9209039548022598
 40
0.9265536723163842
 40
0.9265536723163842
 40
0.9265536723163842
 40
0.9265536723163842
 40
0.9322033898305084
 40
0.9322033898305084
 40
0.9322033898305084
 40
0.9322033898305084
 40
0.9378531073446328
 40
0.9378531073446328
 40
0.9378531073446328
 40
0.9378531073446328
 40
0.943502824858757
 40
0.943502824858757
 40
0.943502824858757
 40
0.943502824858757
 40
0.9491525423728814
 40
0.9491525423728814
 40
0.9491525423728814
 40
0.9491525423728814
 40
0.9548022598870056
 40
0.9548022598870056
 40
0.9548022598870056
 40
0.9548022598870056
 40
0.96045197740113
 40
0.96045197740113
 40
0.96045197740113
 40
0.96045197740113
 40
0.9661016949152542
 40
0.9661016949152542
 40
0.9661016949152542
 40
0.9661016949152542
 40
0.9717514124293786
 40
0.9717514124293786
 40
0.9717514124293786
 40
0.9717514124293786
 40
0.9774011299435028
 40
0.9774011299435028
 40
0.9774011299435028
 40
0.9774011299435028
 40
0.9830508474576272
 40
0.9830508474576272
 40
0.9830508474576272
 40
0.9830508474576272
 40
0.9887005649717514
 40
0.9887005649717514
 40
0.9887005649717514
 40
0.9887005649717514
 40
1.0
 40
1.0
 40
1.0
 40
1.0
 10
-44.7461
 20
-6.0134
 30
0.0
 10
-44.7461
 20
-6.0134
 30
0.0
 10
-41.7317
 20
-6.0134
 30
0.0
 10
-41.7317
 20
-6.0134
 30
0.0
 10
-41.7317
 20
-6.0134
 30
0.0
 10
-41.7317
 20
-6.0134
 30
0.0
 10
-41.7317
 20
-5.9916
 30
0.0
 10
-41.7317
 20
-5.9916
 30
0.0
 10
-41.7317
 20
-5.9916
 30
0.0
 10
-41.7317
 20
-5.9916
 30
0.0
 10
-44.7461
 20
-5.9916
 30
0.0
 10
-44.7461
 20
-5.9916
 30
0.0
 10
-44.7461
 20
-5.9916
 30
0.0
 10
-44.7461
 20
-5.9916
 30
0.0
 10
-44.7461
 20
-5.6419
 30
0.0
 10
-44.7461
 20
-5.6419
 30
0.0
 10
-44.7461
 20
-5.6419
 30
0.0
 10
-44.7461
 20
-5.6419
 30
0.0
 10
-41.7317
 20
-5.6419
 30
0.0
 10
-41.7317
 20
-5.6419
 30
0.0
 10
-41.7317
 20
-5.6419
 30
0.0
 10
-41.7317
 20
-5.6419
 30
0.0
 10
-41.7317
 20
-5.6008
 30
0.0
 10
-41.7317
 20
-5.6008
 30
0.0
 10
-41.7317
 20
-5.6008
 30
0.0
 10
-41.7317
 20
-5.6008
 30
0.0
 10
-39.471
 20
-5.6008
 30
0.0
 10
-39.471
 20
-5.6008
 30
0.0
 10
-39.471
 20
-5.6008
 30
0.0
 10
-39.471
 20
-5.6008
 30
0.0
 10
-41.7317
 20
-5.6008
 30
0.0
 10
-41.7317
 20
-5.6008
 30
0.0
 10
-41.7317
 20
-5.6008
 30
0.0
 10
-41.7317
 20
-5.6008
 30
0.0
 10
-41.7317
 20
-5.088
 30
0.0
 10
-41.7317
 20
-5.088
 30
0.0
 10
-41.7317
 20
-5.088
 30
0.0
 10
-41.7317
 20
-5.088
 30
0.0
 10
-44.7461
 20
-5.088
 30
0.0
 10
-44.7461
 20
-5.088
 30
0.0
 10
-44.7461
 20
-5.088
 30
0.0
 10
-44.7461
 20
-5.088
 30
0.0
 10
-44.7461
 20
-4.616
 30
0.0
 10
-44.7461
 20
-4.616
 30
0.0
 10
-44.7461
 20
-4.616
 30
0.0
 10
-44.7461
 20
-4.616
 30
0.0
 10
-41.7317
 20
-4.616
 30
0.0
 10
-41.7317
 20
-4.616
 30
0.0
 10
-41.7317
 20
-4.616
 30
0.0
 10
-41.7317
 20
-4.616
 30
0.0
 10
-41.7317
 20
-4.0569
 30
0.0
 10
-41.7317
 20
-4.0569
 30
0.0
 10
-41.7317
 20
-4.0569
 30
0.0
 10
-41.7317
 20
-4.0569
 30
0.0
 10
-44.7461
 20
-4.0569
 30
0.0
 10
-44.7461
 20
-4.0569
 30
0.0
 10
-44.7461
 20
-4.0569
 30
0.0
 10
-44.7461
 20
-4.0569
 30
0.0
 10
-44.7461
 20
-3.4164
 30
0.0
 10
-44.7461
 20
-3.4164
 30
0.0
 10
-44.7461
 20
-3.4164
 30
0.0
 10
-44.7461
 20
-3.4164
 30
0.0
 10
-41.7317
 20
-3.4164
 30
0.0
 10
-41.7317
 20
-3.4164
 30
0.0
 10
-41.7317
 20
-3.4164
 30
0.0
 10
-41.7317
 20
-3.4164
 30
0.0
 10
-41.7317
 20
-2.7016
 30
0.0
 10
-41.7317
 20
-2.7016
 30
0.0
 10
-41.7317
 20
-2.7016
 30
0.0
 10
-41.7317
 20
-2.7016
 30
0.0
 10
-44.7461
 20
-2.7016
 30
0.0
 10
-44.7461
 20
-2.7016
 30
0.0
 10
-44.7461
 20
-2.7016
 30
0.0
 10
-44.7461
 20
-2.7016
 30
0.0
 10
-44.7461
 20
-1.9204
 30
0.0
 10
-44.7461
 20
-1.9204
 30
0.0
 10
-44.7461
 20
-1.9204
 30
0.0
 10
-44.7461
 20
-1.9204
 30
0.0
 10
-41.7317
 20
-1.9204
 30
0.0
 10
-41.7317
 20
-1.9204
 30
0.0
 10
-41.7317
 20
-1.9204
 30
0.0
 10
-41.7317
 20
-1.9204
 30
0.0
 10
-41.7317
 20
-1.0815
 30
0.0
 10
-41.7317
 20
-1.0815
 30
0.0
 10
-41.7317
 20
-1.0815
 30
0.0
 10
-41.7317
 20
-1.0815
 30
0.0
 10
-44.7461
 20
-1.0815
 30
0.0
 10
-44.7461
 20
-1.0815
 30
0.0
 10
-44.7461
 20
-1.0815
 30
0.0
 10
-44.7461
 20
-1.0815
 30
0.0
 10
-44.7461
 20
-0.1936
 30
0.0
 10
-44.7461
 20
-0.1936
 30
0.0
 10
-44.7461
 20
-0.1936
 30
0.0
 10
-44.7461
 20
-0.1936
 30
0.0
 10
-41.7317
 20
-0.1936
 30
0.0
 10
-41.7317
 20
-0.1936
 30
0.0
 10
-41.7317
 20
-0.1936
 30
0.0
 10
-41.7317
 20
-0.1936
 30
0.0
 10
-41.7317
 20
0.7329
 30
0.0
 10
-41.7317
 20
0.7329
 30
0.0
 10
-41.7317
 20
0.7329
 30
0.0
 10
-41.7317
 20
0.7329
 30
0.0
 10
-44.7461
 20
0.7329
 30
0.0
 10
-44.7461
 20
0.7329
 30
0.0
 10
-44.7461
 20
0.7329
 30
0.0
 10
-44.7461
 20
0.7329
 30
0.0
 10
-44.7461
 20
1.6884
 30
0.0
 10
-44.7461
 20
1.6884
 30
0.0
 10
-44.7461
 20
1.6884
 30
0.0
 10
-44.7461
 20
1.6884
 30
0.0
 10
-41.7317
 20
1.6884
 30
0.0
 10
-41.7317
 20
1.6884
 30
0.0
 10
-41.7317
 20
1.6884
 30
0.0
 10
-41.7317
 20
1.6884
 30
0.0
 10
-41.7317
 20
2.6622
 30
0.0
 10
-41.7317
 20
2.6622
 30
0.0
 10
-41.7317
 20
2.6622
 30
0.0
 10
-41.7317
 20
2.6622
 30
0.0
 10
-44.7461
 20
2.6622
 30
0.0
 10
-44.7461
 20
2.6622
 30
0.0
 10
-44.7461
 20
2.6622
 30
0.0
 10
-44.7461
 20
2.6622
 30
0.0
 10
-44.7461
 20
3.6436
 30
0.0
 10
-44.7461
 20
3.6436
 30
0.0
 10
-44.7461
 20
3.6436
 30
0.0
 10
-44.7461
 20
3.6436
 30
0.0
 10
-41.7317
 20
3.6436
 30
0.0
 10
-41.7317
 20
3.6436
 30
0.0
 10
-41.7317
 20
3.6436
 30
0.0
 10
-41.7317
 20
3.6436
 30
0.0
 10
-41.7317
 20
4.622
 30
0.0
 10
-41.7317
 20
4.622
 30
0.0
 10
-41.7317
 20
4.622
 30
0.0
 10
-41.7317
 20
4.622
 30
0.0
 10
-44.7461
 20
4.622
 30
0.0
 10
-44.7461
 20
4.622
 30
0.0
 10
-44.7461
 20
4.622
 30
0.0
 10
-44.7461
 20
4.622
 30
0.0
 10
-44.7461
 20
5.5865
 30
0.0
 10
-44.7461
 20
5.5865
 30
0.0
 10
-44.7461
 20
5.5865
 30
0.0
 10
-44.7461
 20
5.5865
 30
0.0
 10
-41.7317
 20
5.5865
 30
0.0
 10
-41.7317
 20
5.5865
 30
0.0
 10
-41.7317
 20
5.5865
 30
0.0
 10
-41.7317
 20
5.5865
 30
0.0
 10
-41.7317
 20
6.5267
 30
0.0
 10
-41.7317
 20
6.5267
 30
0.0
 10
-41.7317
 20
6.5267
 30
0.0
 10
-41.7317
 20
6.5267
 30
0.0
 10
-44.7461
 20
6.5267
 30
0.0
 10
-44.7461
 20
6.5267
 30
0.0
 10
-44.7461
 20
6.5267
 30
0.0
 10
-44.7461
 20
6.5267
 30
0.0
 10
-44.7461
 20
7.4319
 30
0.0
 10
-44.7461
 20
7.4319
 30
0.0
 10
-44.7461
 20
7.4319
 30
0.0
 10
-44.7461
 20
7.4319
 30
0.0
 10
-41.7317
 20
7.4319
 30
0.0
 10
-41.7317
 20
7.4319
 30
0.0
 10
-41.7317
 20
7.4319
 30
0.0
 10
-41.7317
 20
7.4319
 30
0.0
 10
-41.7317
 20
8.2928
 30
0.0
 10
-41.7317
 20
8.2928
 30
0.0
 10
-41.7317
 20
8.2928
 30
0.0
 10
-41.7317
 20
8.2928
 30
0.0
 10
-44.7461
 20
8.2928
 30
0.0
 10
-44.7461
 20
8.2928
 30
0.0
 10
-44.7461
 20
8.2928
 30
0.0
 10
-44.7461
 20
8.2928
 30
0.0
 10
-44.7461
 20
9.0996
 30
0.0
 10
-44.7461
 20
9.0996
 30
0.0
 10
-44.7461
 20
9.0996
 30
0.0
 10
-44.7461
 20
9.0996
 30
0.0
 10
-41.7317
 20
9.0996
 30
0.0
 10
-41.7317
 20
9.0996
 30
0.0
 10
-41.7317
 20
9.0996
 30
0.0
 10
-41.7317
 20
9.0996
 30
0.0
 10
-41.7317
 20
9.8437
 30
0.0
 10
-41.7317
 20
9.8437
 30
0.0
 10
-41.7317
 20
9.8437
 30
0.0
 10
-41.7317
 20
9.8437
 30
0.0
 10
-44.7461
 20
9.8437
 30
0.0
 10
-44.7461
 20
9.8437
 30
0.0
 10
-44.7461
 20
9.8437
 30
0.0
 10
-44.7461
 20
9.8437
 30
0.0
 10
-44.7461
 20
10.5165
 30
0.0
 10
-44.7461
 20
10.5165
 30
0.0
 10
-44.7461
 20
10.5165
 30
0.0
 10
-44.7461
 20
10.5165
 30
0.0
 10
-41.7317
 20
10.5165
 30
0.0
 10
-41.7317
 20
10.5165
 30
0.0
 10
-41.7317
 20
10.5165
 30
0.0
 10
-41.7317
 20
10.5165
 30
0.0
 10
-41.7317
 20
11.3174
 30
0.0
 10
-41.7317
 20
11.3174
 30
0.0
 10
-41.7317
 20
11.3174
 30
0.0
 10
-41.7317
 20
11.3174
 30
0.0
 10
-41.7042
 20
11.3174
 30
0.0
 10
-41.7042
 20
11.3174
 30
0.0
 10
-41.7042
 20
11.3174
 30
0.0
 10
-41.7042
 20
11.3174
 30
0.0
 10
-41.7317
 20
11.3174
 30
0.0
 10
-41.7317
 20
11.3174
 30
0.0
 10
-41.7317
 20
11.3174
 30
0.0
 10
-41.7317
 20
11.3174
 30
0.0
 10
-41.7317
 20
12.1891
 30
0.0
 10
-41.7317
 20
12.1891
 30
0.0
 10
-41.7317
 20
12.1891
 30
0.0
 10
-41.7317
 20
12.1891
 30
0.0
 10
-44.7461
 20
12.1891
 30
0.0
 10
-44.7461
 20
12.1891
 30
0.0
 10
-44.7461
 20
12.1891
 30
0.0
 10
-44.7461
 20
12.1891
 30
0.0
 10
-44.7461
 20
12.6544
 30
0.0
 10
-44.7461
 20
12.6544
 30
0.0
 10
-44.7461
 20
12.6544
 30
0.0
 10
-44.7461
 20
12.6544
 30
0.0
 10
-41.7317
 20
12.6544
 30
0.0
 10
-41.7317
 20
12.6544
 30
0.0
 10
-41.7317
 20
12.6544
 30
0.0
 10
-41.7317
 20
12.6544
 30
0.0
 10
-41.7317
 20
12.7135
 30
0.0
 10
-41.7317
 20
12.7135
 30
0.0
 10
-41.7317
 20
12.7135
 30
0.0
 10
-41.7317
 20
12.7135
 30
0.0
 10
-44.7461
 20
12.7135
 30
0.0
 10
-44.7461
 20
12.7135
 30
0.0
 10
-44.7461
 20
12.7135
 30
0.0
 10
-44.7461
 20
12.7135
 30
0.0
 10
-44.7461
 20
12.7354
 30
0.0
 10
-44.7461
 20
12.7354
 30
0.0
 10
-44.7461
 20
12.7354
 30
0.0
 10
-44.7461
 20
12.7354
 30
0.0
 10
-41.7317
 20
12.7354
 30
0.0
 10
-41.7317
 20
12.7354
 30
0.0
 10
-41.7317
 20
12.7354
 30
0.0
 10
-41.7317
 20
12.7354
 30
0.0
 10
-41.7317
 20
12.7135
 30
0.0
 10
-41.7317
 20
12.7135
 30
0.0
 10
-41.7317
 20
12.7135
 30
0.0
 10
-41.7317
 20
12.7135
 30
0.0
 10
-41.7317
 20
12.6544
 30
0.0
 10
-41.7317
 20
12.6544
 30
0.0
 10
-41.7317
 20
12.6544
 30
0.0
 10
-41.7317
 20
12.6544
 30
0.0
 10
-41.7317
 20
12.3228
 30
0.0
 10
-41.7317
 20
12.3228
 30
0.0
 10
-41.7317
 20
12.3228
 30
0.0
 10
-41.7317
 20
12.3228
 30
0.0
 10
-39.471
 20
12.3228
 30
0.0
 10
-39.471
 20
12.3228
 30
0.0
 10
-39.471
 20
12.3228
 30
0.0
 10
-39.471
 20
12.3228
 30
0.0
 10
-41.7317
 20
12.3228
 30
0.0
 10
-41.7317
 20
12.3228
 30
0.0
 10
-41.7317
 20
12.3228
 30
0.0
 10
-41.7317
 20
12.3228
 30
0.0
 10
-41.7317
 20
12.1891
 30
0.0
 10
-41.7317
 20
12.1891
 30
0.0
 10
-41.7317
 20
12.1891
 30
0.0
 10
-41.7317
 20
12.1891
 30
0.0
 10
-41.7317
 20
11.3174
 30
0.0
 10
-41.7317
 20
11.3174
 30
0.0
 10
-41.7317
 20
11.3174
 30
0.0
 10
-41.7317
 20
11.3174
 30
0.0
 10
-44.7187
 20
11.3174
 30
0.0
 10
-44.7187
 20
11.3174
 30
0.0
 10
-44.7187
 20
11.3174
 30
0.0
 10
-44.7187
 20
11.3174
 30
0.0
 10
-41.7317
 20
11.3174
 30
0.0
 10
-41.7317
 20
11.3174
 30
0.0
 10
-41.7317
 20
11.3174
 30
0.0
 10
-41.7317
 20
11.3174
 30
0.0
 10
-41.7317
 20
10.5165
 30
0.0
 10
-41.7317
 20
10.5165
 30
0.0
 10
-41.7317
 20
10.5165
 30
0.0
 10
-41.7317
 20
10.5165
 30
0.0
 10
-41.7317
 20
9.8437
 30
0.0
 10
-41.7317
 20
9.8437
 30
0.0
 10
-41.7317
 20
9.8437
 30
0.0
 10
-41.7317
 20
9.8437
 30
0.0
 10
-41.7317
 20
9.0996
 30
0.0
 10
-41.7317
 20
9.0996
 30
0.0
 10
-41.7317
 20
9.0996
 30
0.0
 10
-41.7317
 20
9.0996
 30
0.0
 10
-41.7317
 20
8.2928
 30
0.0
 10
-41.7317
 20
8.2928
 30
0.0
 10
-41.7317
 20
8.2928
 30
0.0
 10
-41.7317
 20
8.2928
 30
0.0
 10
-41.7317
 20
7.4319
 30
0.0
 10
-41.7317
 20
7.4319
 30
0.0
 10
-41.7317
 20
7.4319
 30
0.0
 10
-41.7317
 20
7.4319
 30
0.0
 10
-41.7317
 20
6.5267
 30
0.0
 10
-41.7317
 20
6.5267
 30
0.0
 10
-41.7317
 20
6.5267
 30
0.0
 10
-41.7317
 20
6.5267
 30
0.0
 10
-41.7317
 20
5.5865
 30
0.0
 10
-41.7317
 20
5.5865
 30
0.0
 10
-41.7317
 20
5.5865
 30
0.0
 10
-41.7317
 20
5.5865
 30
0.0
 10
-41.7317
 20
4.622
 30
0.0
 10
-41.7317
 20
4.622
 30
0.0
 10
-41.7317
 20
4.622
 30
0.0
 10
-41.7317
 20
4.622
 30
0.0
 10
-41.7317
 20
3.6436
 30
0.0
 10
-41.7317
 20
3.6436
 30
0.0
 10
-41.7317
 20
3.6436
 30
0.0
 10
-41.7317
 20
3.6436
 30
0.0
 10
-41.7317
 20
2.6622
 30
0.0
 10
-41.7317
 20
2.6622
 30
0.0
 10
-41.7317
 20
2.6622
 30
0.0
 10
-41.7317
 20
2.6622
 30
0.0
 10
-41.7317
 20
1.6884
 30
0.0
 10
-41.7317
 20
1.6884
 30
0.0
 10
-41.7317
 20
1.6884
 30
0.0
 10
-41.7317
 20
1.6884
 30
0.0
 10
-41.7317
 20
0.7329
 30
0.0
 10
-41.7317
 20
0.7329
 30
0.0
 10
-41.7317
 20
0.7329
 30
0.0
 10
-41.7317
 20
0.7329
 30
0.0
 10
-41.7317
 20
-0.1936
 30
0.0
 10
-41.7317
 20
-0.1936
 30
0.0
 10
-41.7317
 20
-0.1936
 30
0.0
 10
-41.7317
 20
-0.1936
 30
0.0
 10
-41.7317
 20
-1.0815
 30
0.0
 10
-41.7317
 20
-1.0815
 30
0.0
 10
-41.7317
 20
-1.0815
 30
0.0
 10
-41.7317
 20
-1.0815
 30
0.0
 10
-41.7317
 20
-1.9204
 30
0.0
 10
-41.7317
 20
-1.9204
 30
0.0
 10
-41.7317
 20
-1.9204
 30
0.0
 10
-41.7317
 20
-1.9204
 30
0.0
 10
-41.7317
 20
-2.7016
 30
0.0
 10
-41.7317
 20
-2.7016
 30
0.0
 10
-41.7317
 20
-2.7016
 30
0.0
 10
-41.7317
 20
-2.7016
 30
0.0
 10
-41.7317
 20
-3.4164
 30
0.0
 10
-41.7317
 20
-3.4164
 30
0.0
 10
-41.7317
 20
-3.4164
 30
0.0
 10
-41.7317
 20
-3.4164
 30
0.0
 10
-41.7317
 20
-4.0569
 30
0.0
 10
-41.7317
 20
-4.0569
 30
0.0
 10
-41.7317
 20
-4.0569
 30
0.0
 10
-41.7317
 20
-4.0569
 30
0.0
 10
-41.7317
 20
-4.616
 30
0.0
 10
-41.7317
 20
-4.616
 30
0.0
 10
-41.7317
 20
-4.616
 30
0.0
 10
-41.7317
 20
-4.616
 30
0.0
 10
-41.7317
 20
-5.088
 30
0.0
 10
-41.7317
 20
-5.088
 30
0.0
 10
-41.7317
 20
-5.088
 30
0.0
 10
-41.7317
 20
-5.088
 30
0.0
 10
-41.7317
 20
-5.6008
 30
0.0
 10
-41.7317
 20
-5.6008
 30
0.0
 10
-41.7317
 20
-5.6008
 30
0.0
 10
-41.7317
 20
-5.6008
 30
0.0
 10
-41.7317
 20
-5.6419
 30
0.0
 10
-41.7317
 20
-5.6419
 30
0.0
 10
-41.7317
 20
-5.6419
 30
0.0
 10
-41.7317
 20
-5.6419
 30
0.0
 10
-41.7317
 20
-5.9916
 30
0.0
 10
-41.7317
 20
-5.9916
 30
0.0
 10
-41.7317
 20
-5.9916
 30
0.0
 10
-41.7317
 20
-5.9916
 30
0.0
 10
-41.7317
 20
-6.0134
 30
0.0
 10
-41.7317
 20
-6.0134
 30
0.0
 10
-41.7317
 20
-6.0134
 30
0.0
 10
-41.7317
 20
-6.0134
 30
0.0
 10
-44.7461
 20
-6.0134
 30
0.0
 10
-44.7461
 20
-6.0134
 30
0.0
 10
-44.7461
 20
-6.0134
 30
0.0
 10
-44.7461
 20
-6.0134
 30
0.0
 10
-44.7461
 20
-5.9916
 30
0.0
 10
-44.7461
 20
-5.9916
 30
0.0
 10
-44.7461
 20
-5.9916
 30
0.0
 10
-44.7461
 20
-5.9916
 30
0.0
 10
-41.7317
 20
-5.9916
 30
0.0
 10
-41.7317
 20
-5.9916
 30
0.0
 10
-41.7317
 20
-5.9916
 30
0.0
 10
-41.7317
 20
-5.9916
 30
0.0
 10
-41.7317
 20
-5.6419
 30
0.0
 10
-41.7317
 20
-5.6419
 30
0.0
 10
-41.7317
 20
-5.6419
 30
0.0
 10
-41.7317
 20
-5.6419
 30
0.0
 10
-44.7461
 20
-5.6419
 30
0.0
 10
-44.7461
 20
-5.6419
 30
0.0
 10
-44.7461
 20
-5.6419
 30
0.0
 10
-44.7461
 20
-5.6419
 30
0.0
 10
-44.7461
 20
-5.088
 30
0.0
 10
-44.7461
 20
-5.088
 30
0.0
 10
-44.7461
 20
-5.088
 30
0.0
 10
-44.7461
 20
-5.088
 30
0.0
 10
-41.7317
 20
-5.088
 30
0.0
 10
-41.7317
 20
-5.088
 30
0.0
 10
-41.7317
 20
-5.088
 30
0.0
 10
-41.7317
 20
-5.088
 30
0.0
 10
-41.7317
 20
-4.616
 30
0.0
 10
-41.7317
 20
-4.616
 30
0.0
 10
-41.7317
 20
-4.616
 30
0.0
 10
-41.7317
 20
-4.616
 30
0.0
 10
-44.7461
 20
-4.616
 30
0.0
 10
-44.7461
 20
-4.616
 30
0.0
 10
-44.7461
 20
-4.616
 30
0.0
 10
-44.7461
 20
-4.616
 30
0.0
 10
-44.7461
 20
-4.0569
 30
0.0
 10
-44.7461
 20
-4.0569
 30
0.0
 10
-44.7461
 20
-4.0569
 30
0.0
 10
-44.7461
 20
-4.0569
 30
0.0
 10
-41.7317
 20
-4.0569
 30
0.0
 10
-41.7317
 20
-4.0569
 30
0.0
 10
-41.7317
 20
-4.0569
 30
0.0
 10
-41.7317
 20
-4.0569
 30
0.0
 10
-41.7317
 20
-3.4164
 30
0.0
 10
-41.7317
 20
-3.4164
 30
0.0
 10
-41.7317
 20
-3.4164
 30
0.0
 10
-41.7317
 20
-3.4164
 30
0.0
 10
-44.7461
 20
-3.4164
 30
0.0
 10
-44.7461
 20
-3.4164
 30
0.0
 10
-44.7461
 20
-3.4164
 30
0.0
 10
-44.7461
 20
-3.4164
 30
0.0
 10
-44.7461
 20
-2.7016
 30
0.0
 10
-44.7461
 20
-2.7016
 30
0.0
 10
-44.7461
 20
-2.7016
 30
0.0
 10
-44.7461
 20
-2.7016
 30
0.0
 10
-41.7317
 20
-2.7016
 30
0.0
 10
-41.7317
 20
-2.7016
 30
0.0
 10
-41.7317
 20
-2.7016
 30
0.0
 10
-41.7317
 20
-2.7016
 30
0.0
 10
-41.7317
 20
-1.9204
 30
0.0
 10
-41.7317
 20
-1.9204
 30
0.0
 10
-41.7317
 20
-1.9204
 30
0.0
 10
-41.7317
 20
-1.9204
 30
0.0
 10
-44.7461
 20
-1.9204
 30
0.0
 10
-44.7461
 20
-1.9204
 30
0.0
 10
-44.7461
 20
-1.9204
 30
0.0
 10
-44.7461
 20
-1.9204
 30
0.0
 10
-44.7461
 20
-1.0815
 30
0.0
 10
-44.7461
 20
-1.0815
 30
0.0
 10
-44.7461
 20
-1.0815
 30
0.0
 10
-44.7461
 20
-1.0815
 30
0.0
 10
-41.7317
 20
-1.0815
 30
0.0
 10
-41.7317
 20
-1.0815
 30
0.0
 10
-41.7317
 20
-1.0815
 30
0.0
 10
-41.7317
 20
-1.0815
 30
0.0
 10
-41.7317
 20
-0.1936
 30
0.0
 10
-41.7317
 20
-0.1936
 30
0.0
 10
-41.7317
 20
-0.1936
 30
0.0
 10
-41.7317
 20
-0.1936
 30
0.0
 10
-44.7461
 20
-0.1936
 30
0.0
 10
-44.7461
 20
-0.1936
 30
0.0
 10
-44.7461
 20
-0.1936
 30
0.0
 10
-44.7461
 20
-0.1936
 30
0.0
 10
-44.7461
 20
0.7329
 30
0.0
 10
-44.7461
 20
0.7329
 30
0.0
 10
-44.7461
 20
0.7329
 30
0.0
 10
-44.7461
 20
0.7329
 30
0.0
 10
-41.7317
 20
0.7329
 30
0.0
 10
-41.7317
 20
0.7329
 30
0.0
 10
-41.7317
 20
0.7329
 30
0.0
 10
-41.7317
 20
0.7329
 30
0.0
 10
-41.7317
 20
1.6884
 30
0.0
 10
-41.7317
 20
1.6884
 30
0.0
 10
-41.7317
 20
1.6884
 30
0.0
 10
-41.7317
 20
1.6884
 30
0.0
 10
-44.7461
 20
1.6884
 30
0.0
 10
-44.7461
 20
1.6884
 30
0.0
 10
-44.7461
 20
1.6884
 30
0.0
 10
-44.7461
 20
1.6884
 30
0.0
 10
-44.7461
 20
2.6622
 30
0.0
 10
-44.7461
 20
2.6622
 30
0.0
 10
-44.7461
 20
2.6622
 30
0.0
 10
-44.7461
 20
2.6622
 30
0.0
 10
-41.7317
 20
2.6622
 30
0.0
 10
-41.7317
 20
2.6622
 30
0.0
 10
-41.7317
 20
2.6622
 30
0.0
 10
-41.7317
 20
2.6622
 30
0.0
 10
-41.7317
 20
3.6436
 30
0.0
 10
-41.7317
 20
3.6436
 30
0.0
 10
-41.7317
 20
3.6436
 30
0.0
 10
-41.7317
 20
3.6436
 30
0.0
 10
-44.7461
 20
3.6436
 30
0.0
 10
-44.7461
 20
3.6436
 30
0.0
 10
-44.7461
 20
3.6436
 30
0.0
 10
-44.7461
 20
3.6436
 30
0.0
 10
-44.7461
 20
4.622
 30
0.0
 10
-44.7461
 20
4.622
 30
0.0
 10
-44.7461
 20
4.622
 30
0.0
 10
-44.7461
 20
4.622
 30
0.0
 10
-41.7317
 20
4.622
 30
0.0
 10
-41.7317
 20
4.622
 30
0.0
 10
-41.7317
 20
4.622
 30
0.0
 10
-41.7317
 20
4.622
 30
0.0
 10
-41.7317
 20
5.5865
 30
0.0
 10
-41.7317
 20
5.5865
 30
0.0
 10
-41.7317
 20
5.5865
 30
0.0
 10
-41.7317
 20
5.5865
 30
0.0
 10
-44.7461
 20
5.5865
 30
0.0
 10
-44.7461
 20
5.5865
 30
0.0
 10
-44.7461
 20
5.5865
 30
0.0
 10
-44.7461
 20
5.5865
 30
0.0
 10
-44.7461
 20
6.5267
 30
0.0
 10
-44.7461
 20
6.5267
 30
0.0
 10
-44.7461
 20
6.5267
 30
0.0
 10
-44.7461
 20
6.5267
 30
0.0
 10
-41.7317
 20
6.5267
 30
0.0
 10
-41.7317
 20
6.5267
 30
0.0
 10
-41.7317
 20
6.5267
 30
0.0
 10
-41.7317
 20
6.5267
 30
0.0
 10
-41.7317
 20
7.4319
 30
0.0
 10
-41.7317
 20
7.4319
 30
0.0
 10
-41.7317
 20
7.4319
 30
0.0
 10
-41.7317
 20
7.4319
 30
0.0
 10
-44.7461
 20
7.4319
 30
0.0
 10
-44.7461
 20
7.4319
 30
0.0
 10
-44.7461
 20
7.4319
 30
0.0
 10
-44.7461
 20
7.4319
 30
0.0
 10
-44.7461
 20
8.2928
 30
0.0
 10
-44.7461
 20
8.2928
 30
0.0
 10
-44.7461
 20
8.2928
 30
0.0
 10
-44.7461
 20
8.2928
 30
0.0
 10
-41.7317
 20
8.2928
 30
0.0
 10
-41.7317
 20
8.2928
 30
0.0
 10
-41.7317
 20
8.2928
 30
0.0
 10
-41.7317
 20
8.2928
 30
0.0
 10
-41.7317
 20
9.0996
 30
0.0
 10
-41.7317
 20
9.0996
 30
0.0
 10
-41.7317
 20
9.0996
 30
0.0
 10
-41.7317
 20
9.0996
 30
0.0
 10
-44.7461
 20
9.0996
 30
0.0
 10
-44.7461
 20
9.0996
 30
0.0
 10
-44.7461
 20
9.0996
 30
0.0
 10
-44.7461
 20
9.0996
 30
0.0
 10
-44.7461
 20
9.8437
 30
0.0
 10
-44.7461
 20
9.8437
 30
0.0
 10
-44.7461
 20
9.8437
 30
0.0
 10
-44.7461
 20
9.8437
 30
0.0
 10
-41.7317
 20
9.8437
 30
0.0
 10
-41.7317
 20
9.8437
 30
0.0
 10
-41.7317
 20
9.8437
 30
0.0
 10
-41.7317
 20
9.8437
 30
0.0
 10
-41.7317
 20
10.5165
 30
0.0
 10
-41.7317
 20
10.5165
 30
0.0
 10
-41.7317
 20
10.5165
 30
0.0
 10
-41.7317
 20
10.5165
 30
0.0
 10
-44.7461
 20
10.5165
 30
0.0
 10
-44.7461
 20
10.5165
 30
0.0
 10
-44.7461
 20
10.5165
 30
0.0
 10
-44.7461
 20
10.5165
 30
0.0
 10
-44.7461
 20
12.1891
 30
0.0
 10
-44.7461
 20
12.1891
 30
0.0
 10
-44.7461
 20
12.1891
 30
0.0
 10
-44.7461
 20
12.1891
 30
0.0
 10
-41.7317
 20
12.1891
 30
0.0
 10
-41.7317
 20
12.1891
 30
0.0
 10
-41.7317
 20
12.1891
 30
0.0
 10
-41.7317
 20
12.1891
 30
0.0
 10
-41.7317
 20
12.3228
 30
0.0
 10
-41.7317
 20
12.3228
 30
0.0
 10
-41.7317
 20
12.3228
 30
0.0
 10
-41.7317
 20
12.3228
 30
0.0
 10
-41.7317
 20
12.6544
 30
0.0
 10
-41.7317
 20
12.6544
 30
0.0
 10
-41.7317
 20
12.6544
 30
0.0
 10
-41.7317
 20
12.6544
 30
0.0
 10
-44.7461
 20
12.6544
 30
0.0
 10
-44.7461
 20
12.6544
 30
0.0
 10
-44.7461
 20
12.6544
 30
0.0
 10
-44.7461
 20
12.6544
 30
0.0
 10
-44.7461
 20
12.7135
 30
0.0
 10
-44.7461
 20
12.7135
 30
0.0
 10
-44.7461
 20
12.7135
 30
0.0
 10
-44.7461
 20
12.7135
 30
0.0
 10
-41.7317
 20
12.7135
 30
0.0
 10
-41.7317
 20
12.7135
 30
0.0
 10
-41.7317
 20
12.7135
 30
0.0
 10
-41.7317
 20
12.7135
 30
0.0
 10
-41.7317
 20
12.7354
 30
0.0
 10
-41.7317
 20
12.7354
 30
0.0
 10
-41.7317
 20
12.7354
 30
0.0
 10
-41.7317
 20
12.7354
 30
0.0
 10
-44.7461
 20
12.7354
 30
0.0
 10
-44.7461
 20
12.7354
 30
0.0
 10
-44.7461
 20
12.7354
 30
0.0
 10
-44.7461
 20
12.7354
 30
0.0
 10
-44.7461
 20
12.7395
 30
0.0
 10
-44.7461
 20
12.7395
 30
0.0
 10
-44.7461
 20
12.7395
 30
0.0
 10
-44.7461
 20
12.7395
 30
0.0
 10
-41.7317
 20
12.7395
 30
0.0
 10
-41.7317
 20
12.7395
 30
0.0
 10
-41.7317
 20
12.7395
 30
0.0
 10
-41.7317
 20
12.7395
 30
0.0
 10
-44.7461
 20
12.7395
 30
0.0
 10
-44.7461
 20
12.7395
 30
0.0
 10
-44.7461
 20
12.7395
 30
0.0
 10
-44.7461
 20
12.7395
 30
0.0
 10
-44.7461
 20
12.7354
 30
0.0
 10
-44.7461
 20
12.7354
 30
0.0
 10
-44.7461
 20
12.7354
 30
0.0
 10
-44.7461
 20
12.7354
 30
0.0
 10
-44.7461
 20
12.7135
 30
0.0
 10
-44.7461
 20
12.7135
 30
0.0
 10
-44.7461
 20
12.7135
 30
0.0
 10
-44.7461
 20
12.7135
 30
0.0
 10
-44.7461
 20
12.6544
 30
0.0
 10
-44.7461
 20
12.6544
 30
0.0
 10
-44.7461
 20
12.6544
 30
0.0
 10
-44.7461
 20
12.6544
 30
0.0
 10
-44.7461
 20
12.1891
 30
0.0
 10
-44.7461
 20
12.1891
 30
0.0
 10
-44.7461
 20
12.1891
 30
0.0
 10
-44.7461
 20
12.1891
 30
0.0
 10
-44.7461
 20
10.5165
 30
0.0
 10
-44.7461
 20
10.5165
 30
0.0
 10
-44.7461
 20
10.5165
 30
0.0
 10
-44.7461
 20
10.5165
 30
0.0
 10
-44.7461
 20
9.8437
 30
0.0
 10
-44.7461
 20
9.8437
 30
0.0
 10
-44.7461
 20
9.8437
 30
0.0
 10
-44.7461
 20
9.8437
 30
0.0
 10
-44.7461
 20
9.0996
 30
0.0
 10
-44.7461
 20
9.0996
 30
0.0
 10
-44.7461
 20
9.0996
 30
0.0
 10
-44.7461
 20
9.0996
 30
0.0
 10
-44.7461
 20
8.2928
 30
0.0
 10
-44.7461
 20
8.2928
 30
0.0
 10
-44.7461
 20
8.2928
 30
0.0
 10
-44.7461
 20
8.2928
 30
0.0
 10
-44.7461
 20
7.4319
 30
0.0
 10
-44.7461
 20
7.4319
 30
0.0
 10
-44.7461
 20
7.4319
 30
0.0
 10
-44.7461
 20
7.4319
 30
0.0
 10
-44.7461
 20
6.5267
 30
0.0
 10
-44.7461
 20
6.5267
 30
0.0
 10
-44.7461
 20
6.5267
 30
0.0
 10
-44.7461
 20
6.5267
 30
0.0
 10
-44.7461
 20
5.5865
 30
0.0
 10
-44.7461
 20
5.5865
 30
0.0
 10
-44.7461
 20
5.5865
 30
0.0
 10
-44.7461
 20
5.5865
 30
0.0
 10
-44.7461
 20
4.622
 30
0.0
 10
-44.7461
 20
4.622
 30
0.0
 10
-44.7461
 20
4.622
 30
0.0
 10
-44.7461
 20
4.622
 30
0.0
 10
-44.7461
 20
3.6436
 30
0.0
 10
-44.7461
 20
3.6436
 30
0.0
 10
-44.7461
 20
3.6436
 30
0.0
 10
-44.7461
 20
3.6436
 30
0.0
 10
-44.7461
 20
2.6622
 30
0.0
 10
-44.7461
 20
2.6622
 30
0.0
 10
-44.7461
 20
2.6622
 30
0.0
 10
-44.7461
 20
2.6622
 30
0.0
 10
-44.7461
 20
1.6884
 30
0.0
 10
-44.7461
 20
1.6884
 30
0.0
 10
-44.7461
 20
1.6884
 30
0.0
 10
-44.7461
 20
1.6884
 30
0.0
 10
-44.7461
 20
0.7329
 30
0.0
 10
-44.7461
 20
0.7329
 30
0.0
 10
-44.7461
 20
0.7329
 30
0.0
 10
-44.7461
 20
0.7329
 30
0.0
 10
-44.7461
 20
-0.1936
 30
0.0
 10
-44.7461
 20
-0.1936
 30
0.0
 10
-44.7461
 20
-0.1936
 30
0.0
 10
-44.7461
 20
-0.1936
 30
0.0
 10
-44.7461
 20
-1.0815
 30
0.0
 10
-44.7461
 20
-1.0815
 30
0.0
 10
-44.7461
 20
-1.0815
 30
0.0
 10
-44.7461
 20
-1.0815
 30
0.0
 10
-44.7461
 20
-1.9204
 30
0.0
 10
-44.7461
 20
-1.9204
 30
0.0
 10
-44.7461
 20
-1.9204
 30
0.0
 10
-44.7461
 20
-1.9204
 30
0.0
 10
-44.7461
 20
-2.7016
 30
0.0
 10
-44.7461
 20
-2.7016
 30
0.0
 10
-44.7461
 20
-2.7016
 30
0.0
 10
-44.7461
 20
-2.7016
 30
0.0
 10
-44.7461
 20
-3.4164
 30
0.0
 10
-44.7461
 20
-3.4164
 30
0.0
 10
-44.7461
 20
-3.4164
 30
0.0
 10
-44.7461
 20
-3.4164
 30
0.0
 10
-44.7461
 20
-4.0569
 30
0.0
 10
-44.7461
 20
-4.0569
 30
0.0
 10
-44.7461
 20
-4.0569
 30
0.0
 10
-44.7461
 20
-4.0569
 30
0.0
 10
-44.7461
 20
-4.616
 30
0.0
 10
-44.7461
 20
-4.616
 30
0.0
 10
-44.7461
 20
-4.616
 30
0.0
 10
-44.7461
 20
-4.616
 30
0.0
 10
-44.7461
 20
-5.088
 30
0.0
 10
-44.7461
 20
-5.088
 30
0.0
 10
-44.7461
 20
-5.088
 30
0.0
 10
-44.7461
 20
-5.088
 30
0.0
 10
-44.7461
 20
-5.6419
 30
0.0
 10
-44.7461
 20
-5.6419
 30
0.0
 10
-44.7461
 20
-5.6419
 30
0.0
 10
-44.7461
 20
-5.6419
 30
0.0
 10
-44.7461
 20
-5.9916
 30
0.0
 10
-44.7461
 20
-5.9916
 30
0.0
 10
-44.7461
 20
-5.9916
 30
0.0
 10
-44.7461
 20
-5.9916
 30
0.0
 10
-44.7461
 20
-6.0134
 30
0.0
 10
-44.7461
 20
-6.0134
 30
0.0
  0
SPLINE
  5
8F
330
1F
100
AcDbEntity
  8
VRSTVA_1
100
AcDbSpline
210
0.0
220
0.0
230
1.0
 70
    27
 71
     3
 72
    12
 73
     8
 74
     0
 42
0.0000000001
 43
0.0000000001
 40
0.0
 40
0.0
 40
0.0
 40
0.0
 40
0.3333333333333333
 40
0.3333333333333333
 40
0.3333333333333333
 40
0.3333333333333333
 40
1.0
 40
1.0
 40
1.0
 40
1.0
 10
-38.7174
 20
11.6976
 30
0.0
 10
-38.7174
 20
11.6976
 30
0.0
 10
-38.7174
 20
-4.9755
 30
0.0
 10
-38.7174
 20
-4.9755
 30
0.0
 10
-38.7174
 20
-4.9755
 30
0.0
 10
-38.7174
 20
-4.9755
 30
0.0
 10
-38.7174
 20
11.6976
 30
0.0
 10
-38.7174
 20
11.6976
 30
0.0
  0
SPLINE
  5
90
330
1F
100
AcDbEntity
  8
VRSTVA_1
100
AcDbSpline
210
0.0
220
0.0
230
1.0
 70
    11
 71
     3
 72
    20
 73
    16
 74
     0
 42
0.0000000001
 43
0.0000000001
 40
0.0
 40
0.0
 40
0.0
 40
0.0
 40
0.2
 40
0.2
 40
0.2
 40
0.2
 40
0.4
 40
0.4
 40
0.4
 40
0.4
 40
0.6
 40
0.6
 40
0.6
 40
0.6
 40
1.0
 40
1.0
 40
1.0
 40
1.0
 10
-44.7461
 20
-6.0176
 30
0.0
 10
-44.7461
 20
-6.0176
 30
0.0
 10
-41.7317
 20
-6.0176
 30
0.0
 10
-41.7317
 20
-6.0176
 30
0.0
 10
-41.7317
 20
-6.0176
 30
0.0
 10
-41.7317
 20
-6.0176
 30
0.0
 10
-41.7317
 20
-6.0134
 30
0.0
 10
-41.7317
 20
-6.0134
 30
0.0
 10
-41.7317
 20
-6.0134
 30
0.0
 10
-41.7317
 20
-6.0134
 30
0.0
 10
-41.7317
 20
-6.0176
 30
0.0
 10
-41.7317
 20
-6.0176
 30
0.0
 10
-41.7317
 20
-6.0176
 30
0.0
 10
-41.7317
 20
-6.0176
 30
0.0
 10
-44.7461
 20
-6.0176
 30
0.0
 10
-44.7461
 20
-6.0176
 30
0.0
  0
ENDSEC
  0
SECTION
  2
OBJECTS
  0
DICTIONARY
  5
C
330
0
100
AcDbDictionary
  3
ACAD_GROUP
350
D
  3
ACAD_LAYOUT
350
1A
  3
ACAD_MATERIAL
350
3B
  3
ACAD_MLEADERSTYLE
350
B3
  3
ACAD_MLINESTYLE
350
17
  3
ACAD_PLOTSETTINGS
350
19
  3
ACAD_VISUALSTYLE
350
2A
  3
ACDBHEADERROUNDTRIPXREC
350
91
  3
ACDBVARIABLEDICTIONARY
350
B1
  0
DICTIONARY
  5
D
102
{ACAD_REACTORS
330
C
102
}
330
C
100
AcDbDictionary
  0
DICTIONARY
  5
1A
102
{ACAD_REACTORS
330
C
102
}
330
C
100
AcDbDictionary
  0
DICTIONARY
  5
3B
102
{ACAD_REACTORS
330
C
102
}
330
C
100
AcDbDictionary
  3
BYBLOCK
350
3D
  3
BYLAYER
350
3C
  3
GLOBAL
350
3E
  0
DICTIONARY
  5
B3
102
{ACAD_REACTORS
330
C
102
}
330
C
100
AcDbDictionary
  0
DICTIONARY
  5
17
102
{ACAD_REACTORS
330
C
102
}
330
C
100
AcDbDictionary
  3
STANDARD
350
18
  0
DICTIONARY
  5
19
102
{ACAD_REACTORS
330
C
102
}
330
C
100
AcDbDictionary
  0
DICTIONARY
  5
2A
102
{ACAD_REACTORS
330
C
102
}
330
C
100
AcDbDictionary
  3
2DWIREFRAME
350
2F
  3
3D_HIDDEN
350
31
  3
3DWIREFRAME
350
30
  3
BASIC
350
32
  3
BRIGHTEN
350
36
  3
COLORCHANGE
350
3A
  3
CONCEPTUAL
350
34
  3
DIM
350
35
  3
FACEPATTERN
350
39
  3
FLAT
350
2B
  3
FLATWITHEDGES
350
2C
  3
GOURAUD
350
2D
  3
GOURAUDWITHEDGES
350
2E
  3
LINEPATTERN
350
38
  3
REALISTIC
350
33
  3
THICKEN
350
37
  0
DICTIONARY
  5
91
102
{ACAD_REACTORS
330
C
102
}
330
C
100
AcDbDictionary
  3
CEPSNTYPE
350
9A
  3
DIMSTYLEDATA
350
B0
  3
FINGERPRINTGUID
350
9B
  3
HYPERLINKBASE
350
94
  3
INSUNITS
350
99
  3
LAYOUTDICT
350
96
  3
LWETCUNION
350
98
  3
PLOTSETDICT
350
97
  3
PSVPSCALE
350
9D
  3
PUCSBASE
350
A0
  3
PUCSORGBACK
350
A6
  3
PUCSORGBOTTOM
350
A2
  3
PUCSORGFRONT
350
A5
  3
PUCSORGLEFT
350
A3
  3
PUCSORGRIGHT
350
A4
  3
PUCSORGTOP
350
A1
  3
PUCSORTHOREF
350
9E
  3
PUCSORTHOVIEW
350
9F
  3
STYLESHEET
350
95
  3
TSTACKALIGN
350
92
  3
TSTACKSIZE
350
93
  3
UCSBASE
350
A9
  3
UCSORGBACK
350
AF
  3
UCSORGBOTTOM
350
AB
  3
UCSORGFRONT
350
AE
  3
UCSORGLEFT
350
AC
  3
UCSORGRIGHT
350
AD
  3
UCSORGTOP
350
AA
  3
UCSORTHOREF
350
A7
  3
UCSORTHOVIEW
350
A8
  3
VERSIONGUID
350
9C
  0
DICTIONARY
  5
B1
102
{ACAD_REACTORS
330
C
102
}
330
C
100
AcDbDictionary
  3
DIMASSOC
350
B4
  3
HIDETEXT
350
B5
  0
MATERIAL
  5
3D
102
{ACAD_REACTORS
330
3B
102
}
102
{ACAD_XDICTIONARY
360
B8
102
}
330
3B
100
AcDbMaterial
  1
ByBlock
  0
MATERIAL
  5
3C
102
{ACAD_REACTORS
330
3B
102
}
102
{ACAD_XDICTIONARY
360
B6
102
}
330
3B
100
AcDbMaterial
  1
ByLayer
  0
MATERIAL
  5
3E
102
{ACAD_REACTORS
330
3B
102
}
102
{ACAD_XDICTIONARY
360
BA
102
}
330
3B
100
AcDbMaterial
  1
Global
  0
MLINESTYLE
  5
18
102
{ACAD_REACTORS
330
17
102
}
330
17
100
AcDbMlineStyle
  2
Standard
 70
     0
  3

 62
   256
 51
90.0
 52
90.0
 71
     2
 49
0.5
 62
   256
  6
BYLAYER
 49
-0.5
 62
   256
  6
BYLAYER
  0
ACAD_PROXY_OBJECT
  5
2F
102
{ACAD_REACTORS
330
2A
102
}
330
2A
100
AcDbProxyObject
 90
      499
 91
      501
 93
      436
310
42CC9915DA5C99599C985B595049028333333333333E3BF0000000000000FB0107901411070040501600405405064090741402480A0340
1001
ACAD
1000
AcDbSavedByObjectVersion
1070
     0
  0
ACAD_PROXY_OBJECT
  5
31
102
{ACAD_REACTORS
330
2A
102
}
330
2A
100
AcDbProxyObject
 90
      499
 91
      501
 93
      500
310
424CD108121A5919195B90640502408333333333333E3BF0000000000000FB01079024090700405020000000000001110200405405064090740C02480A0340
1001
ACAD
1000
AcDbSavedByObjectVersion
1070
     0
  0
ACAD_PROXY_OBJECT
  5
30
102
{ACAD_REACTORS
330
2A
102
}
330
2A
100
AcDbProxyObject
 90
      499
 91
      501
 93
      436
310
42CCD915DA5C99599C985B595059028333333333333E3BF0000000000000FB0107901411070040501600405405064090741402480A0340
1001
ACAD
1000
AcDbSavedByObjectVersion
1070
     0
  0
ACAD_PROXY_OBJECT
  5
32
102
{ACAD_REACTORS
330
2A
102
}
330
2A
100
AcDbProxyObject
 90
      499
 91
      501
 93
      388
310
4150985CDA58D07406404333333333333E3BF0000000000000FB0107A41107004050150841D405064090741402480A0350
1001
ACAD
1000
AcDbSavedByObjectVersion
1070
     0
  0
ACAD_PROXY_OBJECT
  5
36
102
{ACAD_REACTORS
330
2A
102
}
330
2A
100
AcDbProxyObject
 90
      499
 91
      501
 93
      428
310
42109C9A59DA1D195B90C409028333333333333E3BF0000000000000FB010790141107004050150841D405064090741402480A029950
1001
ACAD
1000
AcDbSavedByObjectVersion
1070
     0
  0
ACAD_PROXY_OBJECT
  5
3A
102
{ACAD_REACTORS
330
2A
102
}
330
2A
100
AcDbProxyObject
 90
      499
 91
      501
 93
      452
310
42D0DBDB1BDC90DA185B99D95104090240C333333333333E3BF0000000000000FB0108901411070040501508421405064090741402480A0350
1001
ACAD
1000
AcDbSavedByObjectVersion
1070
     0
  0
ACAD_PROXY_OBJECT
  5
34
102
{ACAD_REACTORS
330
2A
102
}
330
2A
100
AcDbProxyObject
 90
      499
 91
      501
 93
      500
310
4290DBDB98D95C1D1D585B10940D028333333333333E3BF0000000000000FB0107902409070040501000000000000111010841D405064090740C02480A0340
1001
ACAD
1000
AcDbSavedByObjectVersion
1070
     0
  0
ACAD_PROXY_OBJECT
  5
35
102
{ACAD_REACTORS
330
2A
102
}
330
2A
100
AcDbProxyObject
 90
      499
 91
      501
 93
      412
310
40D11A5B50B409028333333333333E3BF0000000000000FB010790141107004050150841D405064090741402480A02677FFFFFD0
1001
ACAD
1000
AcDbSavedByObjectVersion
1070
     0
  0
ACAD_PROXY_OBJECT
  5
39
102
{ACAD_REACTORS
330
2A
102
}
330
2A
100
AcDbProxyObject
 90
      499
 91
      501
 93
      444
310
42D19858D95C185D1D195C9B90F409028333333333333E3BF0000000000000FB010790141107004050150841D405064090741402480A0350
1001
ACAD
1000
AcDbSavedByObjectVersion
1070
     0
  0
ACAD_PROXY_OBJECT
  5
2B
102
{ACAD_REACTORS
330
2A
102
}
330
2A
100
AcDbProxyObject
 90
      499
 91
      501
 93
      388
310
41119B185D240901404333333333333E3BF0000000000000F9010740A41107004050150841D405064090741402480A1B50
1001
ACAD
1000
AcDbSavedByObjectVersion
1070
     0
  0
ACAD_PROXY_OBJECT
  5
2C
102
{ACAD_REACTORS
330
2A
102
}
330
2A
100
AcDbProxyObject
 90
      499
 91
      501
 93
      476
310
43519B185D15DA5D1A115919D95CD0140901404333333333333E3BF0000000000000F9010740901411070040501600405405064090741402480A1B50
1001
ACAD
1000
AcDbSavedByObjectVersion
1070
     0
  0
ACAD_PROXY_OBJECT
  5
2D
102
{ACAD_REACTORS
330
2A
102
}
330
2A
100
AcDbProxyObject
 90
      499
 91
      501
 93
      412
310
41D1DBDD5C985D5910240902404333333333333E3BF0000000000000F9010740A411070040501641D405064090741402480A1B50
1001
ACAD
1000
AcDbSavedByObjectVersion
1070
     0
  0
ACAD_PROXY_OBJECT
  5
2E
102
{ACAD_REACTORS
330
2A
102
}
330
2A
100
AcDbProxyObject
 90
      499
 91
      501
 93
      500
310
4411DBDD5C985D5915DA5D1A115919D95CD0340902404333333333333E3BF0000000000000F9010740901411070040501600405405064090741402480A1B50
1001
ACAD
1000
AcDbSavedByObjectVersion
1070
     0
  0
ACAD_PROXY_OBJECT
  5
38
102
{ACAD_REACTORS
330
2A
102
}
330
2A
100
AcDbProxyObject
 90
      499
 91
      501
 93
      444
310
42D31A5B995C185D1D195C9B90E409028333333333333E3BF0000000000000FB010790141107004050750841D405064090741402483A0350
1001
ACAD
1000
AcDbSavedByObjectVersion
1070
     0
  0
ACAD_PROXY_OBJECT
  5
33
102
{ACAD_REACTORS
330
2A
102
}
330
2A
100
AcDbProxyObject
 90
      499
 91
      501
 93
      420
310
425499585B1A5CDD1A58D08409028333333333333E3BF0000000000000FB01079019070040501508421405064090741402480A1B40
1001
ACAD
1000
AcDbSavedByObjectVersion
1070
     0
  0
ACAD_PROXY_OBJECT
  5
37
102
{ACAD_REACTORS
330
2A
102
}
330
2A
100
AcDbProxyObject
 90
      499
 91
      501
 93
      412
310
41D51A1A58DAD95B90D409028333333333333E3BF0000000000000FB010790141107004050150C41D405064090741402480A0350
1001
ACAD
1000
AcDbSavedByObjectVersion
1070
     0
  0
XRECORD
  5
9A
102
{ACAD_REACTORS
330
91
102
}
330
91
100
AcDbXrecord
 90
        0
  0
XRECORD
  5
B0
102
{ACAD_REACTORS
330
91
102
}
330
91
100
AcDbXrecord
1000
DSTYLE
1002
{
1070
   340
340
11
1002
}
  0
XRECORD
  5
9B
102
{ACAD_REACTORS
330
91
102
}
330
91
100
AcDbXrecord
  1
{11A07401-30CA-4EB5-8721-ACF634661312}
  0
XRECORD
  5
94
102
{ACAD_REACTORS
330
91
102
}
330
91
100
AcDbXrecord
  1

  0
XRECORD
  5
99
102
{ACAD_REACTORS
330
91
102
}
330
91
100
AcDbXrecord
 90
        4
  0
XRECORD
  5
96
102
{ACAD_REACTORS
330
91
102
}
330
91
100
AcDbXrecord
340
1A
  0
XRECORD
  5
98
102
{ACAD_REACTORS
330
91
102
}
330
91
100
AcDbXrecord
 90
    10781
  0
XRECORD
  5
97
102
{ACAD_REACTORS
330
91
102
}
330
91
100
AcDbXrecord
340
19
  0
XRECORD
  5
9D
102
{ACAD_REACTORS
330
91
102
}
330
91
100
AcDbXrecord
 40
0.0
  0
XRECORD
  5
A0
102
{ACAD_REACTORS
330
91
102
}
330
91
100
AcDbXrecord
340
0
  0
XRECORD
  5
A6
102
{ACAD_REACTORS
330
91
102
}
330
91
100
AcDbXrecord
 10
0.0
 20
0.0
 30
0.0
  0
XRECORD
  5
A2
102
{ACAD_REACTORS
330
91
102
}
330
91
100
AcDbXrecord
 10
0.0
 20
0.0
 30
0.0
  0
XRECORD
  5
A5
102
{ACAD_REACTORS
330
91
102
}
330
91
100
AcDbXrecord
 10
0.0
 20
0.0
 30
0.0
  0
XRECORD
  5
A3
102
{ACAD_REACTORS
330
91
102
}
330
91
100
AcDbXrecord
 10
0.0
 20
0.0
 30
0.0
  0
XRECORD
  5
A4
102
{ACAD_REACTORS
330
91
102
}
330
91
100
AcDbXrecord
 10
0.0
 20
0.0
 30
0.0
  0
XRECORD
  5
A1
102
{ACAD_REACTORS
330
91
102
}
330
91
100
AcDbXrecord
 10
0.0
 20
0.0
 30
0.0
  0
XRECORD
  5
9E
102
{ACAD_REACTORS
330
91
102
}
330
91
100
AcDbXrecord
340
0
  0
XRECORD
  5
9F
102
{ACAD_REACTORS
330
91
102
}
330
91
100
AcDbXrecord
 70
     0
  0
XRECORD
  5
95
102
{ACAD_REACTORS
330
91
102
}
330
91
100
AcDbXrecord
  1

  0
XRECORD
  5
92
102
{ACAD_REACTORS
330
91
102
}
330
91
100
AcDbXrecord
 90
        1
  0
XRECORD
  5
93
102
{ACAD_REACTORS
330
91
102
}
330
91
100
AcDbXrecord
 90
       70
  0
XRECORD
  5
A9
102
{ACAD_REACTORS
330
91
102
}
330
91
100
AcDbXrecord
340
0
  0
XRECORD
  5
AF
102
{ACAD_REACTORS
330
91
102
}
330
91
100
AcDbXrecord
 10
0.0
 20
0.0
 30
0.0
  0
XRECORD
  5
AB
102
{ACAD_REACTORS
330
91
102
}
330
91
100
AcDbXrecord
 10
0.0
 20
0.0
 30
0.0
  0
XRECORD
  5
AE
102
{ACAD_REACTORS
330
91
102
}
330
91
100
AcDbXrecord
 10
0.0
 20
0.0
 30
0.0
  0
XRECORD
  5
AC
102
{ACAD_REACTORS
330
91
102
}
330
91
100
AcDbXrecord
 10
0.0
 20
0.0
 30
0.0
  0
XRECORD
  5
AD
102
{ACAD_REACTORS
330
91
102
}
330
91
100
AcDbXrecord
 10
0.0
 20
0.0
 30
0.0
  0
XRECORD
  5
AA
102
{ACAD_REACTORS
330
91
102
}
330
91
100
AcDbXrecord
 10
0.0
 20
0.0
 30
0.0
  0
XRECORD
  5
A7
102
{ACAD_REACTORS
330
91
102
}
330
91
100
AcDbXrecord
340
0
  0
XRECORD
  5
A8
102
{ACAD_REACTORS
330
91
102
}
330
91
100
AcDbXrecord
 70
     0
  0
XRECORD
  5
9C
102
{ACAD_REACTORS
330
91
102
}
330
91
100
AcDbXrecord
  1
{FAEB1C32-E019-11D5-929B-00C0DF256EC4}
  0
DICTIONARYVAR
  5
B4
102
{ACAD_REACTORS
330
B1
102
}
330
B1
100
DictionaryVariables
280
     0
  1
2
  0
DICTIONARYVAR
  5
B5
102
{ACAD_REACTORS
330
B1
102
}
330
B1
100
DictionaryVariables
280
     0
  1
1
  0
DICTIONARY
  5
B8
330
3D
100
AcDbDictionary
280
     1
  3
ACAD_XREC_ROUNDTRIP
360
B9
  0
DICTIONARY
  5
B6
330
3C
100
AcDbDictionary
280
     1
  3
ACAD_XREC_ROUNDTRIP
360
B7
  0
DICTIONARY
  5
BA
330
3E
100
AcDbDictionary
280
     1
  3
ACAD_XREC_ROUNDTRIP
360
BB
  0
XRECORD
  5
B9
102
{ACAD_REACTORS
330
B8
102
}
330
B8
100
AcDbXrecord
102
MATERIAL
148
0.0
149
0.0
149
0.0
 93
        0
 94
      127
282
     0
 72
     1
 77
     1
171
     1
175
     1
179
     1
273
     0
  0
XRECORD
  5
B7
102
{ACAD_REACTORS
330
B6
102
}
330
B6
100
AcDbXrecord
102
MATERIAL
148
0.0
149
0.0
149
0.0
 93
        0
 94
      127
282
     0
 72
     1
 77
     1
171
     1
175
     1
179
     1
273
     0
  0
XRECORD
  5
BB
102
{ACAD_REACTORS
330
BA
102
}
330
BA
100
AcDbXrecord
102
MATERIAL
148
0.0
149
0.0
149
0.0
 93
        0
 94
      127
282
     0
 72
     1
 77
     1
171
     1
175
     1
179
     1
273
     0
  0
ENDSEC
  0
EOF
