  0
SECTION
  2
HEADER
  9
$ACADVER
  1
AC1014
  9
$ACADMAINTVER
 70
     9
  9
$DWGCODEPAGE
  3
ANSI_1250
  9
$INSBASE
 10
0.0
 20
0.0
 30
0.0
  9
$EXTMIN
 10
-37.2081
 20
-40.4361
 30
0.0
  9
$EXTMAX
 10
38.7961
 20
40.3658
 30
0.0
  9
$LIMMIN
 10
0.0
 20
0.0
  9
$LIMMAX
 10
12.0
 20
9.0
  9
$ORTHOMODE
 70
     0
  9
$REGENMODE
 70
     1
  9
$FILLMODE
 70
     1
  9
$QTEXTMODE
 70
     0
  9
$MIRRTEXT
 70
     1
  9
$DRAGMODE
 70
     2
  9
$LTSCALE
 40
1.0
  9
$OSMODE
 70
    37
  9
$ATTMODE
 70
     1
  9
$TEXTSIZE
 40
0.2
  9
$TRACEWID
 40
0.05
  9
$TEXTSTYLE
  7
STANDARD
  9
$CLAYER
  8
0
  9
$CELTYPE
  6
BYLAYER
  9
$CECOLOR
 62
   256
  9
$CELTSCALE
 40
1.0
  9
$DELOBJ
 70
     1
  9
$DISPSILH
 70
     0
  9
$DIMSCALE
 40
1.0
  9
$DIMASZ
 40
0.18
  9
$DIMEXO
 40
0.0625
  9
$DIMDLI
 40
0.38
  9
$DIMRND
 40
0.0
  9
$DIMDLE
 40
0.0
  9
$DIMEXE
 40
0.18
  9
$DIMTP
 40
0.0
  9
$DIMTM
 40
0.0
  9
$DIMTXT
 40
0.18
  9
$DIMCEN
 40
0.09
  9
$DIMTSZ
 40
0.0
  9
$DIMTOL
 70
     0
  9
$DIMLIM
 70
     0
  9
$DIMTIH
 70
     1
  9
$DIMTOH
 70
     1
  9
$DIMSE1
 70
     0
  9
$DIMSE2
 70
     0
  9
$DIMTAD
 70
     0
  9
$DIMZIN
 70
     0
  9
$DIMBLK
  1

  9
$DIMASO
 70
     1
  9
$DIMSHO
 70
     1
  9
$DIMPOST
  1

  9
$DIMAPOST
  1

  9
$DIMALT
 70
     0
  9
$DIMALTD
 70
     2
  9
$DIMALTF
 40
25.4
  9
$DIMLFAC
 40
1.0
  9
$DIMTOFL
 70
     0
  9
$DIMTVP
 40
0.0
  9
$DIMTIX
 70
     0
  9
$DIMSOXD
 70
     0
  9
$DIMSAH
 70
     0
  9
$DIMBLK1
  1

  9
$DIMBLK2
  1

  9
$DIMSTYLE
  2
STANDARD
  9
$DIMCLRD
 70
     0
  9
$DIMCLRE
 70
     0
  9
$DIMCLRT
 70
     0
  9
$DIMTFAC
 40
1.0
  9
$DIMGAP
 40
0.09
  9
$DIMJUST
 70
     0
  9
$DIMSD1
 70
     0
  9
$DIMSD2
 70
     0
  9
$DIMTOLJ
 70
     1
  9
$DIMTZIN
 70
     0
  9
$DIMALTZ
 70
     0
  9
$DIMALTTZ
 70
     0
  9
$DIMFIT
 70
     3
  9
$DIMUPT
 70
     0
  9
$DIMUNIT
 70
     2
  9
$DIMDEC
 70
     4
  9
$DIMTDEC
 70
     4
  9
$DIMALTU
 70
     2
  9
$DIMALTTD
 70
     2
  9
$DIMTXSTY
  7
STANDARD
  9
$DIMAUNIT
 70
     0
  9
$LUNITS
 70
     2
  9
$LUPREC
 70
     4
  9
$SKETCHINC
 40
0.1
  9
$FILLETRAD
 40
0.5
  9
$AUNITS
 70
     0
  9
$AUPREC
 70
     0
  9
$MENU
  1
.
  9
$ELEVATION
 40
0.0
  9
$PELEVATION
 40
0.0
  9
$THICKNESS
 40
0.0
  9
$LIMCHECK
 70
     0
  9
$CHAMFERA
 40
0.5
  9
$CHAMFERB
 40
0.5
  9
$CHAMFERC
 40
1.0
  9
$CHAMFERD
 40
0.0
  9
$SKPOLY
 70
     0
  9
$TDCREATE
 40
2456233.309980926
  9
$TDUPDATE
 40
2456233.309980937
  9
$TDINDWG
 40
0.0000000116
  9
$TDUSRTIMER
 40
0.0000000116
  9
$USRTIMER
 70
     1
  9
$ANGBASE
 50
0.0
  9
$ANGDIR
 70
     0
  9
$PDMODE
 70
     0
  9
$PDSIZE
 40
0.0
  9
$PLINEWID
 40
0.0
  9
$COORDS
 70
     1
  9
$SPLFRAME
 70
     0
  9
$SPLINETYPE
 70
     6
  9
$SPLINESEGS
 70
     8
  9
$ATTDIA
 70
     0
  9
$ATTREQ
 70
     1
  9
$HANDLING
 70
     1
  9
$HANDSEED
  5
16E
  9
$SURFTAB1
 70
     6
  9
$SURFTAB2
 70
     6
  9
$SURFTYPE
 70
     6
  9
$SURFU
 70
     6
  9
$SURFV
 70
     6
  9
$UCSNAME
  2

  9
$UCSORG
 10
0.0
 20
0.0
 30
0.0
  9
$UCSXDIR
 10
1.0
 20
0.0
 30
0.0
  9
$UCSYDIR
 10
0.0
 20
1.0
 30
0.0
  9
$PUCSNAME
  2

  9
$PUCSORG
 10
0.0
 20
0.0
 30
0.0
  9
$PUCSXDIR
 10
1.0
 20
0.0
 30
0.0
  9
$PUCSYDIR
 10
0.0
 20
1.0
 30
0.0
  9
$USERI1
 70
     0
  9
$USERI2
 70
     0
  9
$USERI3
 70
     0
  9
$USERI4
 70
     0
  9
$USERI5
 70
     0
  9
$USERR1
 40
0.0
  9
$USERR2
 40
0.0
  9
$USERR3
 40
0.0
  9
$USERR4
 40
0.0
  9
$USERR5
 40
0.0
  9
$WORLDVIEW
 70
     1
  9
$SHADEDGE
 70
     3
  9
$SHADEDIF
 70
    70
  9
$TILEMODE
 70
     1
  9
$MAXACTVP
 70
    64
  9
$PINSBASE
 10
0.0
 20
0.0
 30
0.0
  9
$PLIMCHECK
 70
     0
  9
$PEXTMIN
 10
1.000000000000000E+20
 20
1.000000000000000E+20
 30
1.000000000000000E+20
  9
$PEXTMAX
 10
-1.000000000000000E+20
 20
-1.000000000000000E+20
 30
-1.000000000000000E+20
  9
$PLIMMIN
 10
0.0
 20
0.0
  9
$PLIMMAX
 10
12.0
 20
9.0
  9
$UNITMODE
 70
     0
  9
$VISRETAIN
 70
     1
  9
$PLINEGEN
 70
     0
  9
$PSLTSCALE
 70
     1
  9
$TREEDEPTH
 70
  3020
  9
$PICKSTYLE
 70
     1
  9
$CMLSTYLE
  2
STANDARD
  9
$CMLJUST
 70
     0
  9
$CMLSCALE
 40
1.0
  9
$PROXYGRAPHICS
 70
     1
  9
$MEASUREMENT
 70
     0
  0
ENDSEC
  0
SECTION
  2
CLASSES
  0
CLASS
  1
ACDBDICTIONARYWDFLT
  2
AcDbDictionaryWithDefault
  3
ObjectDBX Classes
 90
        0
280
     0
281
     0
  0
CLASS
  1
VISUALSTYLE
  2
AcDbVisualStyle
  3
ObjectDBX Classes
 90
     4095
280
     0
281
     0
  0
CLASS
  1
MATERIAL
  2
AcDbMaterial
  3
ObjectDBX Classes
 90
     1153
280
     0
281
     0
  0
CLASS
  1
DICTIONARYVAR
  2
AcDbDictionaryVar
  3
ObjectDBX Classes
 90
        0
280
     0
281
     0
  0
CLASS
  1
XRECORD
  2
AcDbXrecord
  3
AutoCAD 2000
 90
        0
280
     0
281
     0
  0
CLASS
  1
LWPOLYLINE
  2
AcDbPolyline
  3
AutoCAD 2000
 90
        0
280
     0
281
     1
  0
CLASS
  1
HATCH
  2
AcDbHatch
  3
AutoCAD 2000
 90
        0
280
     0
281
     1
  0
CLASS
  1
ACDBPLACEHOLDER
  2
AcDbPlaceHolder
  3
ObjectDBX Classes
 90
        0
280
     0
281
     0
  0
CLASS
  1
LAYOUT
  2
AcDbLayout
  3
ObjectDBX Classes
 90
        0
280
     0
281
     0
  0
ENDSEC
  0
SECTION
  2
TABLES
  0
TABLE
  2
VPORT
  5
8
330
0
100
AcDbSymbolTable
 70
     1
  0
VPORT
  5
29
330
8
100
AcDbSymbolTableRecord
100
AcDbViewportTableRecord
  2
*ACTIVE
 70
     0
 10
0.0
 20
0.0
 11
1.0
 21
1.0
 12
10.42990654205607
 22
4.5
 13
0.0
 23
0.0
 14
0.5
 24
0.5
 15
0.5
 25
0.5
 16
0.0
 26
0.0
 36
1.0
 17
0.0
 27
0.0
 37
0.0
 40
9.0
 41
1.972972972850329
 42
50.0
 43
0.0
 44
0.0
 50
0.0
 51
0.0
 71
     0
 72
   100
 73
     1
 74
     3
 75
     0
 76
     0
 77
     0
 78
     0
  0
ENDTAB
  0
TABLE
  2
LTYPE
  5
5
330
0
100
AcDbSymbolTable
 70
     9
  0
LTYPE
  5
14
330
5
100
AcDbSymbolTableRecord
100
AcDbLinetypeTableRecord
  2
BYBLOCK
 70
     0
  3

 72
    65
 73
     0
 40
0.0
  0
LTYPE
  5
15
330
5
100
AcDbSymbolTableRecord
100
AcDbLinetypeTableRecord
  2
BYLAYER
 70
     0
  3

 72
    65
 73
     0
 40
0.0
  0
LTYPE
  5
16
330
5
100
AcDbSymbolTableRecord
100
AcDbLinetypeTableRecord
  2
CONTINUOUS
 70
     0
  3
Solid line
 72
    65
 73
     0
 40
0.0
  0
LTYPE
  5
55
330
5
100
AcDbSymbolTableRecord
100
AcDbLinetypeTableRecord
  2
NEW_LINE1
 70
     0
  3

 72
    65
 73
     4
 40
1.2
 49
0.5
 74
     4
 75
     0
340
0
 46
1.0
 50
0.0
 44
0.0
 45
0.0
 49
-0.3
 74
     4
 75
     0
340
0
 46
1.0
 50
0.0
 44
0.0
 45
0.0
 49
0.1
 74
     4
 75
     0
340
0
 46
1.0
 50
0.0
 44
0.0
 45
0.0
 49
-0.3
 74
     4
 75
     0
340
0
 46
1.0
 50
0.0
 44
0.0
 45
0.0
  0
LTYPE
  5
57
330
5
100
AcDbSymbolTableRecord
100
AcDbLinetypeTableRecord
  2
NEW_LINE2
 70
     0
  3

 72
    65
 73
     4
 40
1.2
 49
0.5
 74
     4
 75
     0
340
0
 46
1.0
 50
0.0
 44
0.0
 45
0.0
 49
-0.3
 74
     4
 75
     0
340
0
 46
1.0
 50
0.0
 44
0.0
 45
0.0
 49
0.1
 74
     4
 75
     0
340
0
 46
1.0
 50
0.0
 44
0.0
 45
0.0
 49
-0.3
 74
     4
 75
     0
340
0
 46
1.0
 50
0.0
 44
0.0
 45
0.0
  0
LTYPE
  5
77
330
5
100
AcDbSymbolTableRecord
100
AcDbLinetypeTableRecord
  2
NEW_LINE3
 70
     0
  3

 72
    65
 73
     4
 40
1.2
 49
0.5
 74
     4
 75
     0
340
0
 46
1.0
 50
0.0
 44
0.0
 45
0.0
 49
-0.3
 74
     4
 75
     0
340
0
 46
1.0
 50
0.0
 44
0.0
 45
0.0
 49
0.1
 74
     4
 75
     0
340
0
 46
1.0
 50
0.0
 44
0.0
 45
0.0
 49
-0.3
 74
     4
 75
     0
340
0
 46
1.0
 50
0.0
 44
0.0
 45
0.0
  0
LTYPE
  5
A4
330
5
100
AcDbSymbolTableRecord
100
AcDbLinetypeTableRecord
  2
NEW_LINE4
 70
     0
  3

 72
    65
 73
     4
 40
1.2
 49
0.5
 74
     4
 75
     0
340
0
 46
1.0
 50
0.0
 44
0.0
 45
0.0
 49
-0.3
 74
     4
 75
     0
340
0
 46
1.0
 50
0.0
 44
0.0
 45
0.0
 49
0.1
 74
     4
 75
     0
340
0
 46
1.0
 50
0.0
 44
0.0
 45
0.0
 49
-0.3
 74
     4
 75
     0
340
0
 46
1.0
 50
0.0
 44
0.0
 45
0.0
  0
LTYPE
  5
B8
330
5
100
AcDbSymbolTableRecord
100
AcDbLinetypeTableRecord
  2
NEW_LINE5
 70
     0
  3

 72
    65
 73
     4
 40
1.2
 49
0.5
 74
     4
 75
     0
340
0
 46
1.0
 50
0.0
 44
0.0
 45
0.0
 49
-0.3
 74
     4
 75
     0
340
0
 46
1.0
 50
0.0
 44
0.0
 45
0.0
 49
0.1
 74
     4
 75
     0
340
0
 46
1.0
 50
0.0
 44
0.0
 45
0.0
 49
-0.3
 74
     4
 75
     0
340
0
 46
1.0
 50
0.0
 44
0.0
 45
0.0
  0
LTYPE
  5
BA
330
5
100
AcDbSymbolTableRecord
100
AcDbLinetypeTableRecord
  2
NEW_LINE6
 70
     0
  3

 72
    65
 73
     4
 40
1.2
 49
0.5
 74
     4
 75
     0
340
0
 46
1.0
 50
0.0
 44
0.0
 45
0.0
 49
-0.3
 74
     4
 75
     0
340
0
 46
1.0
 50
0.0
 44
0.0
 45
0.0
 49
0.1
 74
     4
 75
     0
340
0
 46
1.0
 50
0.0
 44
0.0
 45
0.0
 49
-0.3
 74
     4
 75
     0
340
0
 46
1.0
 50
0.0
 44
0.0
 45
0.0
  0
LTYPE
  5
BD
330
5
100
AcDbSymbolTableRecord
100
AcDbLinetypeTableRecord
  2
NEW_LINE7
 70
     0
  3

 72
    65
 73
     4
 40
1.2
 49
0.5
 74
     4
 75
     0
340
0
 46
1.0
 50
0.0
 44
0.0
 45
0.0
 49
-0.3
 74
     4
 75
     0
340
0
 46
1.0
 50
0.0
 44
0.0
 45
0.0
 49
0.1
 74
     4
 75
     0
340
0
 46
1.0
 50
0.0
 44
0.0
 45
0.0
 49
-0.3
 74
     4
 75
     0
340
0
 46
1.0
 50
0.0
 44
0.0
 45
0.0
  0
LTYPE
  5
BF
330
5
100
AcDbSymbolTableRecord
100
AcDbLinetypeTableRecord
  2
NEW_LINE8
 70
     0
  3

 72
    65
 73
     4
 40
1.2
 49
0.5
 74
     4
 75
     0
340
0
 46
1.0
 50
0.0
 44
0.0
 45
0.0
 49
-0.3
 74
     4
 75
     0
340
0
 46
1.0
 50
0.0
 44
0.0
 45
0.0
 49
0.1
 74
     4
 75
     0
340
0
 46
1.0
 50
0.0
 44
0.0
 45
0.0
 49
-0.3
 74
     4
 75
     0
340
0
 46
1.0
 50
0.0
 44
0.0
 45
0.0
  0
ENDTAB
  0
TABLE
  2
LAYER
  5
2
330
0
100
AcDbSymbolTable
 70
     2
  0
LAYER
  5
10
330
2
100
AcDbSymbolTableRecord
100
AcDbLayerTableRecord
  2
0
 70
     0
 62
     7
  6
CONTINUOUS
  0
LAYER
  5
40
330
2
100
AcDbSymbolTableRecord
100
AcDbLayerTableRecord
  2
AXIS
 70
     0
 62
     7
  6
CONTINUOUS
  0
ENDTAB
  0
TABLE
  2
STYLE
  5
3
330
0
100
AcDbSymbolTable
 70
     1
  0
STYLE
  5
11
330
3
100
AcDbSymbolTableRecord
100
AcDbTextStyleTableRecord
  2
STANDARD
 70
     0
 40
0.0
 41
1.0
 50
0.0
 71
     0
 42
0.2
  3
txt
  4

  0
ENDTAB
  0
TABLE
  2
VIEW
  5
6
330
0
100
AcDbSymbolTable
 70
     0
  0
ENDTAB
  0
TABLE
  2
UCS
  5
7
330
0
100
AcDbSymbolTable
 70
     0
  0
ENDTAB
  0
TABLE
  2
APPID
  5
9
330
0
100
AcDbSymbolTable
 70
     2
  0
APPID
  5
12
330
9
100
AcDbSymbolTableRecord
100
AcDbRegAppTableRecord
  2
ACAD
 70
     0
  0
APPID
  5
3F
330
9
100
AcDbSymbolTableRecord
100
AcDbRegAppTableRecord
  2
ODA
 70
     0
  0
ENDTAB
  0
TABLE
  2
DIMSTYLE
  5
A
330
0
100
AcDbSymbolTable
 70
     1
  0
DIMSTYLE
105
27
330
A
100
AcDbSymbolTableRecord
100
AcDbDimStyleTableRecord
  2
STANDARD
 70
     0
  3

  4

  5

  6

  7

 40
1.0
 41
0.18
 42
0.0625
 43
0.38
 44
0.18
 45
0.0
 46
0.0
 47
0.0
 48
0.0
140
0.18
141
0.09
142
0.0
143
25.4
144
1.0
145
0.0
146
1.0
147
0.09
 71
     0
 72
     0
 73
     1
 74
     1
 75
     0
 76
     0
 77
     0
 78
     0
170
     0
171
     2
172
     0
173
     0
174
     0
175
     0
176
     0
177
     0
178
     0
270
     2
271
     4
272
     4
273
     2
274
     2
340
11
275
     0
280
     0
281
     0
282
     0
283
     1
284
     0
285
     0
286
     0
287
     3
288
     0
  0
ENDTAB
  0
TABLE
  2
BLOCK_RECORD
  5
1
330
0
100
AcDbSymbolTable
 70
     1
  0
BLOCK_RECORD
  5
1F
330
1
100
AcDbSymbolTableRecord
100
AcDbBlockTableRecord
  2
*MODEL_SPACE
  0
BLOCK_RECORD
  5
1B
330
1
100
AcDbSymbolTableRecord
100
AcDbBlockTableRecord
  2
*PAPER_SPACE
  0
ENDTAB
  0
ENDSEC
  0
SECTION
  2
BLOCKS
  0
BLOCK
  5
20
330
1F
100
AcDbEntity
  8
0
100
AcDbBlockBegin
  2
*MODEL_SPACE
 70
     0
 10
0.0
 20
0.0
 30
0.0
  3
*MODEL_SPACE
  1

  0
ENDBLK
  5
21
330
1F
100
AcDbEntity
  8
0
100
AcDbBlockEnd
  0
BLOCK
  5
1C
330
1B
100
AcDbEntity
 67
     1
  8
0
100
AcDbBlockBegin
  2
*PAPER_SPACE
 70
     0
 10
0.0
 20
0.0
 30
0.0
  3
*PAPER_SPACE
  1

  0
ENDBLK
  5
1D
330
1B
100
AcDbEntity
 67
     1
  8
0
100
AcDbBlockEnd
  0
ENDSEC
  0
SECTION
  2
ENTITIES
  0
SPLINE
  5
41
330
1F
100
AcDbEntity
  8
AXIS
 62
   250
100
AcDbSpline
210
0.0
220
0.0
230
1.0
 70
    24
 71
     3
 72
     8
 73
     4
 74
     0
 42
0.0000000001
 43
0.0000000001
 40
0.0
 40
0.0
 40
0.0
 40
0.0
 40
1.0
 40
1.0
 40
1.0
 40
1.0
 10
-32.5047
 20
-39.8462
 30
0.0
 10
-32.5047
 20
-39.8462
 30
0.0
 10
-34.2809
 20
-19.5485
 30
0.0
 10
-34.2809
 20
-19.5485
 30
0.0
  0
SPLINE
  5
42
330
1F
100
AcDbEntity
  8
AXIS
 62
   250
100
AcDbSpline
210
0.0
220
0.0
230
1.0
 70
    24
 71
     3
 72
     8
 73
     4
 74
     0
 42
0.0000000001
 43
0.0000000001
 40
0.0
 40
0.0
 40
0.0
 40
0.0
 40
1.0
 40
1.0
 40
1.0
 40
1.0
 10
-29.1323
 20
-19.8618
 30
0.0
 10
-29.1323
 20
-19.8618
 30
0.0
 10
-27.629
 20
-37.0441
 30
0.0
 10
-27.629
 20
-37.0441
 30
0.0
  0
SPLINE
  5
43
330
1F
100
AcDbEntity
  8
AXIS
 62
   250
100
AcDbSpline
210
0.0
220
0.0
230
1.0
 70
    24
 71
     3
 72
     8
 73
     4
 74
     0
 42
0.0000000001
 43
0.0000000001
 40
0.0
 40
0.0
 40
0.0
 40
0.0
 40
1.0
 40
1.0
 40
1.0
 40
1.0
 10
-18.8035
 20
-40.3655
 30
0.0
 10
-18.8035
 20
-40.3655
 30
0.0
 10
-22.2148
 20
-40.3655
 30
0.0
 10
-22.2148
 20
-40.3655
 30
0.0
  0
SPLINE
  5
44
330
1F
100
AcDbEntity
  8
AXIS
 62
   250
100
AcDbSpline
210
0.0
220
0.0
230
1.0
 70
    24
 71
     3
 72
     8
 73
     4
 74
     0
 42
0.0000000001
 43
0.0000000001
 40
0.0
 40
0.0
 40
0.0
 40
0.0
 40
1.0
 40
1.0
 40
1.0
 40
1.0
 10
-9.79
 20
-22.7853
 30
0.0
 10
-9.79
 20
-22.7853
 30
0.0
 10
-22.6681
 20
-22.7853
 30
0.0
 10
-22.6681
 20
-22.7853
 30
0.0
  0
SPLINE
  5
45
330
1F
100
AcDbEntity
  8
AXIS
 62
   250
100
AcDbSpline
210
0.0
220
0.0
230
1.0
 70
    24
 71
     3
 72
     8
 73
     4
 74
     0
 42
0.0000000001
 43
0.0000000001
 40
0.0
 40
0.0
 40
0.0
 40
0.0
 40
1.0
 40
1.0
 40
1.0
 40
1.0
 10
-22.0151
 20
-40.3655
 30
0.0
 10
-22.0151
 20
-40.3655
 30
0.0
 10
-22.0151
 20
-22.7823
 30
0.0
 10
-22.0151
 20
-22.7823
 30
0.0
  0
SPLINE
  5
46
330
1F
100
AcDbEntity
  8
AXIS
 62
   250
100
AcDbSpline
210
0.0
220
0.0
230
1.0
 70
    24
 71
     3
 72
     8
 73
     4
 74
     0
 42
0.0000000001
 43
0.0000000001
 40
0.0
 40
0.0
 40
0.0
 40
0.0
 40
1.0
 40
1.0
 40
1.0
 40
1.0
 10
13.2497
 20
26.8768
 30
0.0
 10
13.2497
 20
26.8768
 30
0.0
 10
-22.3273
 20
26.8768
 30
0.0
 10
-22.3273
 20
26.8768
 30
0.0
  0
SPLINE
  5
47
330
1F
100
AcDbEntity
  8
AXIS
 62
   250
100
AcDbSpline
210
0.0
220
0.0
230
1.0
 70
    24
 71
     3
 72
     8
 73
     4
 74
     0
 42
0.0000000001
 43
0.0000000001
 40
0.0
 40
0.0
 40
0.0
 40
0.0
 40
1.0
 40
1.0
 40
1.0
 40
1.0
 10
-21.9764
 20
-22.8318
 30
0.0
 10
-21.9764
 20
-22.8318
 30
0.0
 10
-21.9764
 20
26.175
 30
0.0
 10
-21.9764
 20
26.175
 30
0.0
  0
SPLINE
  5
48
330
1F
100
AcDbEntity
  8
AXIS
 62
   250
100
AcDbSpline
210
0.0
220
0.0
230
1.0
 70
    24
 71
     3
 72
     8
 73
     4
 74
     0
 42
0.0000000001
 43
0.0000000001
 40
0.0
 40
0.0
 40
0.0
 40
0.0
 40
1.0
 40
1.0
 40
1.0
 40
1.0
 10
26.0832
 20
32.8492
 30
0.0
 10
26.0832
 20
32.8492
 30
0.0
 10
18.0466
 20
33.7435
 30
0.0
 10
18.0466
 20
33.7435
 30
0.0
  0
SPLINE
  5
49
330
1F
100
AcDbEntity
  8
AXIS
 62
   250
100
AcDbSpline
210
0.0
220
0.0
230
1.0
 70
    24
 71
     3
 72
     8
 73
     4
 74
     0
 42
0.0000000001
 43
0.0000000001
 40
0.0
 40
0.0
 40
0.0
 40
0.0
 40
1.0
 40
1.0
 40
1.0
 40
1.0
 10
24.8853
 20
22.0856
 30
0.0
 10
24.8853
 20
22.0856
 30
0.0
 10
16.9281
 20
22.9711
 30
0.0
 10
16.9281
 20
22.9711
 30
0.0
  0
SPLINE
  5
4A
330
1F
100
AcDbEntity
  8
AXIS
 62
   250
100
AcDbSpline
210
0.0
220
0.0
230
1.0
 70
    24
 71
     3
 72
     8
 73
     4
 74
     0
 42
0.0000000001
 43
0.0000000001
 40
0.0
 40
0.0
 40
0.0
 40
0.0
 40
1.0
 40
1.0
 40
1.0
 40
1.0
 10
18.4774
 20
33.5808
 30
0.0
 10
18.4774
 20
33.5808
 30
0.0
 10
17.3109
 20
23.0992
 30
0.0
 10
17.3109
 20
23.0992
 30
0.0
  0
SPLINE
  5
4B
330
1F
100
AcDbEntity
  8
AXIS
 62
   250
100
AcDbSpline
210
0.0
220
0.0
230
1.0
 70
    24
 71
     3
 72
     8
 73
     4
 74
     0
 42
0.0000000001
 43
0.0000000001
 40
0.0
 40
0.0
 40
0.0
 40
0.0
 40
1.0
 40
1.0
 40
1.0
 40
1.0
 10
1.2077
 20
-8.137
 30
0.0
 10
1.2077
 20
-8.137
 30
0.0
 10
1.2077
 20
-3.3029
 30
0.0
 10
1.2077
 20
-3.3029
 30
0.0
  0
SPLINE
  5
4C
330
1F
100
AcDbEntity
  8
AXIS
 62
   250
100
AcDbSpline
210
0.0
220
0.0
230
1.0
 70
    24
 71
     3
 72
     8
 73
     4
 74
     0
 42
0.0000000001
 43
0.0000000001
 40
0.0
 40
0.0
 40
0.0
 40
0.0
 40
1.0
 40
1.0
 40
1.0
 40
1.0
 10
-8.6768
 20
-8.1077
 30
0.0
 10
-8.6768
 20
-8.1077
 30
0.0
 10
-8.6768
 20
-3.2475
 30
0.0
 10
-8.6768
 20
-3.2475
 30
0.0
  0
SPLINE
  5
4D
330
1F
100
AcDbEntity
  8
AXIS
 62
   250
100
AcDbSpline
210
0.0
220
0.0
230
1.0
 70
    24
 71
     3
 72
     8
 73
     4
 74
     0
 42
0.0000000001
 43
0.0000000001
 40
0.0
 40
0.0
 40
0.0
 40
0.0
 40
1.0
 40
1.0
 40
1.0
 40
1.0
 10
-12.6207
 20
-3.7715
 30
0.0
 10
-12.6207
 20
-3.7715
 30
0.0
 10
5.8552
 20
-3.7715
 30
0.0
 10
5.8552
 20
-3.7715
 30
0.0
  0
SPLINE
  5
4E
330
1F
100
AcDbEntity
  8
AXIS
 62
   250
100
AcDbSpline
210
0.0
220
0.0
230
1.0
 70
     8
 71
     3
 72
    60
 73
    56
 74
     0
 42
0.0000000001
 43
0.0000000001
 40
0.0
 40
0.0
 40
0.0
 40
0.0
 40
0.0666666666666667
 40
0.0666666666666667
 40
0.0666666666666667
 40
0.0666666666666667
 40
0.1333333333333333
 40
0.1333333333333333
 40
0.1333333333333333
 40
0.1333333333333333
 40
0.2
 40
0.2
 40
0.2
 40
0.2
 40
0.2666666666666667
 40
0.2666666666666667
 40
0.2666666666666667
 40
0.2666666666666667
 40
0.3333333333333333
 40
0.3333333333333333
 40
0.3333333333333333
 40
0.3333333333333333
 40
0.4
 40
0.4
 40
0.4
 40
0.4
 40
0.4666666666666667
 40
0.4666666666666667
 40
0.4666666666666667
 40
0.4666666666666667
 40
0.5333333333333333
 40
0.5333333333333333
 40
0.5333333333333333
 40
0.5333333333333333
 40
0.6
 40
0.6
 40
0.6
 40
0.6
 40
0.6666666666666666
 40
0.6666666666666666
 40
0.6666666666666666
 40
0.6666666666666666
 40
0.7333333333333333
 40
0.7333333333333333
 40
0.7333333333333333
 40
0.7333333333333333
 40
0.8
 40
0.8
 40
0.8
 40
0.8
 40
0.8666666666666667
 40
0.8666666666666667
 40
0.8666666666666667
 40
0.8666666666666667
 40
1.0
 40
1.0
 40
1.0
 40
1.0
 10
-7.0922
 20
-22.7524
 30
0.0
 10
-7.0922
 20
-22.7524
 30
0.0
 10
-7.0693
 20
-21.964
 30
0.0
 10
-7.0693
 20
-21.964
 30
0.0
 10
-7.0693
 20
-21.964
 30
0.0
 10
-7.0693
 20
-21.964
 30
0.0
 10
-7.1075
 20
-21.8262
 30
0.0
 10
-7.1075
 20
-21.8262
 30
0.0
 10
-7.1075
 20
-21.8262
 30
0.0
 10
-7.1075
 20
-21.8262
 30
0.0
 10
-7.2068
 20
-21.719
 30
0.0
 10
-7.2068
 20
-21.719
 30
0.0
 10
-7.2068
 20
-21.719
 30
0.0
 10
-7.2068
 20
-21.719
 30
0.0
 10
-8.1234
 20
-21.3517
 30
0.0
 10
-8.1234
 20
-21.3517
 30
0.0
 10
-8.1234
 20
-21.3517
 30
0.0
 10
-8.1234
 20
-21.3517
 30
0.0
 10
-8.1846
 20
-21.122
 30
0.0
 10
-8.1846
 20
-21.122
 30
0.0
 10
-8.1846
 20
-21.122
 30
0.0
 10
-8.1846
 20
-21.122
 30
0.0
 10
-8.1815
 20
-21.0572
 30
0.0
 10
-8.1815
 20
-21.0572
 30
0.0
 10
-8.1815
 20
-21.0572
 30
0.0
 10
-8.1815
 20
-21.0572
 30
0.0
 10
0.9021
 20
-21.0572
 30
0.0
 10
0.9021
 20
-21.0572
 30
0.0
 10
0.9021
 20
-21.0572
 30
0.0
 10
0.9021
 20
-21.0572
 30
0.0
 10
0.9253
 20
-21.1192
 30
0.0
 10
0.9253
 20
-21.1192
 30
0.0
 10
0.9253
 20
-21.1192
 30
0.0
 10
0.9253
 20
-21.1192
 30
0.0
 10
0.8282
 20
-21.3463
 30
0.0
 10
0.8282
 20
-21.3463
 30
0.0
 10
0.8282
 20
-21.3463
 30
0.0
 10
0.8282
 20
-21.3463
 30
0.0
 10
-0.0459
 20
-21.7112
 30
0.0
 10
-0.0459
 20
-21.7112
 30
0.0
 10
-0.0459
 20
-21.7112
 30
0.0
 10
-0.0459
 20
-21.7112
 30
0.0
 10
-0.1511
 20
-21.7963
 30
0.0
 10
-0.1511
 20
-21.7963
 30
0.0
 10
-0.1511
 20
-21.7963
 30
0.0
 10
-0.1511
 20
-21.7963
 30
0.0
 10
-0.1795
 20
-21.8531
 30
0.0
 10
-0.1795
 20
-21.8531
 30
0.0
 10
-0.1795
 20
-21.8531
 30
0.0
 10
-0.1795
 20
-21.8531
 30
0.0
 10
-0.2078
 20
-21.9302
 30
0.0
 10
-0.2078
 20
-21.9302
 30
0.0
 10
-0.2078
 20
-21.9302
 30
0.0
 10
-0.2078
 20
-21.9302
 30
0.0
 10
-0.1864
 20
-22.7646
 30
0.0
 10
-0.1864
 20
-22.7646
 30
0.0
  0
SPLINE
  5
4F
330
1F
100
AcDbEntity
  8
AXIS
 62
   250
100
AcDbSpline
210
0.0
220
0.0
230
1.0
 70
     8
 71
     3
 72
    24
 73
    20
 74
     0
 42
0.0000000001
 43
0.0000000001
 40
0.0
 40
0.0
 40
0.0
 40
0.0
 40
0.1666666666666667
 40
0.1666666666666667
 40
0.1666666666666667
 40
0.1666666666666667
 40
0.3333333333333333
 40
0.3333333333333333
 40
0.3333333333333333
 40
0.3333333333333333
 40
0.5
 40
0.5
 40
0.5
 40
0.5
 40
0.6666666666666666
 40
0.6666666666666666
 40
0.6666666666666666
 40
0.6666666666666666
 40
1.0
 40
1.0
 40
1.0
 40
1.0
 10
-8.838
 20
-23.5986
 30
0.0
 10
-8.838
 20
-23.5986
 30
0.0
 10
-9.2382
 20
-23.5986
 30
0.0
 10
-9.2382
 20
-23.5986
 30
0.0
 10
-9.2382
 20
-23.5986
 30
0.0
 10
-9.2382
 20
-23.5986
 30
0.0
 10
-9.2567
 20
-22.7718
 30
0.0
 10
-9.2567
 20
-22.7718
 30
0.0
 10
-9.2567
 20
-22.7718
 30
0.0
 10
-9.2567
 20
-22.7718
 30
0.0
 10
1.9644
 20
-22.7544
 30
0.0
 10
1.9644
 20
-22.7544
 30
0.0
 10
1.9644
 20
-22.7544
 30
0.0
 10
1.9644
 20
-22.7544
 30
0.0
 10
1.9644
 20
-23.5925
 30
0.0
 10
1.9644
 20
-23.5925
 30
0.0
 10
1.9644
 20
-23.5925
 30
0.0
 10
1.9644
 20
-23.5925
 30
0.0
 10
-4.8136
 20
-23.6273
 30
0.0
 10
-4.8136
 20
-23.6273
 30
0.0
  0
SPLINE
  5
50
330
1F
100
AcDbEntity
  8
AXIS
 62
   250
100
AcDbSpline
210
0.0
220
0.0
230
1.0
 70
    24
 71
     3
 72
     8
 73
     4
 74
     0
 42
0.0000000001
 43
0.0000000001
 40
0.0
 40
0.0
 40
0.0
 40
0.0
 40
1.0
 40
1.0
 40
1.0
 40
1.0
 10
-0.1747
 20
-21.8315
 30
0.0
 10
-0.1747
 20
-21.8315
 30
0.0
 10
-7.1098
 20
-21.8315
 30
0.0
 10
-7.1098
 20
-21.8315
 30
0.0
  0
SPLINE
  5
51
330
1F
100
AcDbEntity
  8
AXIS
 62
   250
100
AcDbSpline
210
0.0
220
0.0
230
1.0
 70
    11
 71
     3
 72
    32
 73
    28
 74
     0
 42
0.0000000001
 43
0.0000000001
 40
0.0
 40
0.0
 40
0.0
 40
0.0
 40
0.125
 40
0.125
 40
0.125
 40
0.125
 40
0.25
 40
0.25
 40
0.25
 40
0.25
 40
0.375
 40
0.375
 40
0.375
 40
0.375
 40
0.5
 40
0.5
 40
0.5
 40
0.5
 40
0.625
 40
0.625
 40
0.625
 40
0.625
 40
0.75
 40
0.75
 40
0.75
 40
0.75
 40
1.0
 40
1.0
 40
1.0
 40
1.0
 10
-3.8858
 20
-23.9608
 30
0.0
 10
-3.8858
 20
-23.9608
 30
0.0
 10
-3.9012
 20
-29.6162
 30
0.0
 10
-3.9012
 20
-29.6162
 30
0.0
 10
-3.9012
 20
-29.6162
 30
0.0
 10
-3.9012
 20
-29.6162
 30
0.0
 10
-5.8482
 20
-30.3888
 30
0.0
 10
-5.8482
 20
-30.3888
 30
0.0
 10
-5.8482
 20
-30.3888
 30
0.0
 10
-5.8482
 20
-30.3888
 30
0.0
 10
-7.2569
 20
-30.365
 30
0.0
 10
-7.2569
 20
-30.365
 30
0.0
 10
-7.2569
 20
-30.365
 30
0.0
 10
-9.228
 20
-30.365
 30
0.0
 10
-10.8259
 20
-28.767
 30
0.0
 10
-10.8259
 20
-26.7959
 30
0.0
 10
-10.8259
 20
-26.7959
 30
0.0
 10
-10.8259
 20
-24.8248
 30
0.0
 10
-9.228
 20
-23.2269
 30
0.0
 10
-7.2569
 20
-23.2269
 30
0.0
 10
-7.2569
 20
-23.2269
 30
0.0
 10
-7.2569
 20
-23.2269
 30
0.0
 10
-5.8573
 20
-23.2269
 30
0.0
 10
-5.8573
 20
-23.2269
 30
0.0
 10
-5.8573
 20
-23.2269
 30
0.0
 10
-5.8573
 20
-23.2269
 30
0.0
 10
-3.8858
 20
-23.9608
 30
0.0
 10
-3.8858
 20
-23.9608
 30
0.0
  0
SPLINE
  5
52
330
1F
100
AcDbEntity
  8
AXIS
 62
   250
100
AcDbSpline
210
0.0
220
0.0
230
1.0
 70
     8
 71
     3
 72
    44
 73
    40
 74
     0
 42
0.0000000001
 43
0.0000000001
 40
0.0
 40
0.0
 40
0.0
 40
0.0
 40
0.0909090909090909
 40
0.0909090909090909
 40
0.0909090909090909
 40
0.0909090909090909
 40
0.1818181818181818
 40
0.1818181818181818
 40
0.1818181818181818
 40
0.1818181818181818
 40
0.2727272727272727
 40
0.2727272727272727
 40
0.2727272727272727
 40
0.2727272727272727
 40
0.3636363636363636
 40
0.3636363636363636
 40
0.3636363636363636
 40
0.3636363636363636
 40
0.4545454545454545
 40
0.4545454545454545
 40
0.4545454545454545
 40
0.4545454545454545
 40
0.5454545454545454
 40
0.5454545454545454
 40
0.5454545454545454
 40
0.5454545454545454
 40
0.6363636363636364
 40
0.6363636363636364
 40
0.6363636363636364
 40
0.6363636363636364
 40
0.7272727272727273
 40
0.7272727272727273
 40
0.7272727272727273
 40
0.7272727272727273
 40
0.8181818181818182
 40
0.8181818181818182
 40
0.8181818181818182
 40
0.8181818181818182
 40
1.0
 40
1.0
 40
1.0
 40
1.0
 10
-7.835
 20
-29.9494
 30
0.0
 10
-7.6179
 20
-29.9877
 30
0.0
 10
-7.3759
 20
-30.0011
 30
0.0
 10
-7.1556
 20
-29.9941
 30
0.0
 10
-7.1556
 20
-29.9941
 30
0.0
 10
-6.9353
 20
-29.9871
 30
0.0
 10
-6.6312
 20
-29.9246
 30
0.0
 10
-6.6312
 20
-29.9246
 30
0.0
 10
-6.6312
 20
-29.9246
 30
0.0
 10
-6.6312
 20
-29.9246
 30
0.0
 10
-6.6312
 20
-29.3145
 30
0.0
 10
-6.6312
 20
-29.3145
 30
0.0
 10
-6.6312
 20
-29.3145
 30
0.0
 10
-6.6312
 20
-29.3145
 30
0.0
 10
-7.8973
 20
-29.3117
 30
0.0
 10
-7.8973
 20
-29.3117
 30
0.0
 10
-7.8973
 20
-29.3117
 30
0.0
 10
-7.8973
 20
-29.3117
 30
0.0
 10
-7.8888
 20
-29.9275
 30
0.0
 10
-7.8888
 20
-29.9275
 30
0.0
 10
-7.8888
 20
-29.9275
 30
0.0
 10
-7.8888
 20
-29.9275
 30
0.0
 10
-7.846
 20
-29.9503
 30
0.0
 10
-7.846
 20
-29.9503
 30
0.0
 10
-7.846
 20
-29.9503
 30
0.0
 10
-7.846
 20
-29.9503
 30
0.0
 10
-7.7493
 20
-30.1698
 30
0.0
 10
-7.7493
 20
-30.1698
 30
0.0
 10
-7.7493
 20
-30.1698
 30
0.0
 10
-7.7493
 20
-30.1698
 30
0.0
 10
-7.405
 20
-30.2126
 30
0.0
 10
-7.405
 20
-30.2126
 30
0.0
 10
-7.405
 20
-30.2126
 30
0.0
 10
-7.405
 20
-30.2126
 30
0.0
 10
-7.1718
 20
-30.2097
 30
0.0
 10
-7.1718
 20
-30.2097
 30
0.0
 10
-7.1718
 20
-30.2097
 30
0.0
 10
-7.1718
 20
-30.2097
 30
0.0
 10
-7.1641
 20
-30.0031
 30
0.0
 10
-7.1641
 20
-30.0031
 30
0.0
  0
SPLINE
  5
53
330
1F
100
AcDbEntity
  8
AXIS
 62
   250
100
AcDbSpline
210
0.0
220
0.0
230
1.0
 70
     8
 71
     3
 72
    44
 73
    40
 74
     0
 42
0.0000000001
 43
0.0000000001
 40
0.0
 40
0.0
 40
0.0
 40
0.0
 40
0.0909090909090909
 40
0.0909090909090909
 40
0.0909090909090909
 40
0.0909090909090909
 40
0.1818181818181818
 40
0.1818181818181818
 40
0.1818181818181818
 40
0.1818181818181818
 40
0.2727272727272727
 40
0.2727272727272727
 40
0.2727272727272727
 40
0.2727272727272727
 40
0.3636363636363636
 40
0.3636363636363636
 40
0.3636363636363636
 40
0.3636363636363636
 40
0.4545454545454545
 40
0.4545454545454545
 40
0.4545454545454545
 40
0.4545454545454545
 40
0.5454545454545454
 40
0.5454545454545454
 40
0.5454545454545454
 40
0.5454545454545454
 40
0.6363636363636364
 40
0.6363636363636364
 40
0.6363636363636364
 40
0.6363636363636364
 40
0.7272727272727273
 40
0.7272727272727273
 40
0.7272727272727273
 40
0.7272727272727273
 40
0.8181818181818182
 40
0.8181818181818182
 40
0.8181818181818182
 40
0.8181818181818182
 40
1.0
 40
1.0
 40
1.0
 40
1.0
 10
-7.835
 20
-23.6452
 30
0.0
 10
-7.6179
 20
-23.607
 30
0.0
 10
-7.3759
 20
-23.5936
 30
0.0
 10
-7.1556
 20
-23.6006
 30
0.0
 10
-7.1556
 20
-23.6006
 30
0.0
 10
-6.9353
 20
-23.6075
 30
0.0
 10
-6.6312
 20
-23.67
 30
0.0
 10
-6.6312
 20
-23.67
 30
0.0
 10
-6.6312
 20
-23.67
 30
0.0
 10
-6.6312
 20
-23.67
 30
0.0
 10
-6.6312
 20
-24.2801
 30
0.0
 10
-6.6312
 20
-24.2801
 30
0.0
 10
-6.6312
 20
-24.2801
 30
0.0
 10
-6.6312
 20
-24.2801
 30
0.0
 10
-7.8973
 20
-24.2829
 30
0.0
 10
-7.8973
 20
-24.2829
 30
0.0
 10
-7.8973
 20
-24.2829
 30
0.0
 10
-7.8973
 20
-24.2829
 30
0.0
 10
-7.8888
 20
-23.6671
 30
0.0
 10
-7.8888
 20
-23.6671
 30
0.0
 10
-7.8888
 20
-23.6671
 30
0.0
 10
-7.8888
 20
-23.6671
 30
0.0
 10
-7.846
 20
-23.6443
 30
0.0
 10
-7.846
 20
-23.6443
 30
0.0
 10
-7.846
 20
-23.6443
 30
0.0
 10
-7.846
 20
-23.6443
 30
0.0
 10
-7.7493
 20
-23.4249
 30
0.0
 10
-7.7493
 20
-23.4249
 30
0.0
 10
-7.7493
 20
-23.4249
 30
0.0
 10
-7.7493
 20
-23.4249
 30
0.0
 10
-7.405
 20
-23.3821
 30
0.0
 10
-7.405
 20
-23.3821
 30
0.0
 10
-7.405
 20
-23.3821
 30
0.0
 10
-7.405
 20
-23.3821
 30
0.0
 10
-7.1718
 20
-23.385
 30
0.0
 10
-7.1718
 20
-23.385
 30
0.0
 10
-7.1718
 20
-23.385
 30
0.0
 10
-7.1718
 20
-23.385
 30
0.0
 10
-7.1641
 20
-23.5915
 30
0.0
 10
-7.1641
 20
-23.5915
 30
0.0
  0
SPLINE
  5
54
330
1F
100
AcDbEntity
  8
AXIS
  6
NEW_LINE1
 62
   250
100
AcDbSpline
210
0.0
220
0.0
230
1.0
 70
    24
 71
     3
 72
     8
 73
     4
 74
     0
 42
0.0000000001
 43
0.0000000001
 40
0.0
 40
0.0
 40
0.0
 40
0.0
 40
1.0
 40
1.0
 40
1.0
 40
1.0
 10
-37.202
 20
-31.6349
 30
0.0
 10
-37.202
 20
-31.6349
 30
0.0
 10
-16.0849
 20
-29.7874
 30
0.0
 10
-16.0849
 20
-29.7874
 30
0.0
  0
SPLINE
  5
56
330
1F
100
AcDbEntity
  8
AXIS
  6
NEW_LINE2
 62
   250
100
AcDbSpline
210
0.0
220
0.0
230
1.0
 70
    24
 71
     3
 72
     8
 73
     4
 74
     0
 42
0.0000000001
 43
0.0000000001
 40
0.0
 40
0.0
 40
0.0
 40
0.0
 40
1.0
 40
1.0
 40
1.0
 40
1.0
 10
-16.289
 20
-29.1725
 30
0.0
 10
-16.289
 20
-29.1725
 30
0.0
 10
-16.289
 20
-37.3432
 30
0.0
 10
-16.289
 20
-37.3432
 30
0.0
  0
SPLINE
  5
58
330
1F
100
AcDbEntity
  8
AXIS
 62
   250
100
AcDbSpline
210
0.0
220
0.0
230
1.0
 70
     8
 71
     3
 72
    60
 73
    56
 74
     0
 42
0.0000000001
 43
0.0000000001
 40
0.0
 40
0.0
 40
0.0
 40
0.0
 40
0.0666666666666667
 40
0.0666666666666667
 40
0.0666666666666667
 40
0.0666666666666667
 40
0.1333333333333333
 40
0.1333333333333333
 40
0.1333333333333333
 40
0.1333333333333333
 40
0.2
 40
0.2
 40
0.2
 40
0.2
 40
0.2666666666666667
 40
0.2666666666666667
 40
0.2666666666666667
 40
0.2666666666666667
 40
0.3333333333333333
 40
0.3333333333333333
 40
0.3333333333333333
 40
0.3333333333333333
 40
0.4
 40
0.4
 40
0.4
 40
0.4
 40
0.4666666666666667
 40
0.4666666666666667
 40
0.4666666666666667
 40
0.4666666666666667
 40
0.5333333333333333
 40
0.5333333333333333
 40
0.5333333333333333
 40
0.5333333333333333
 40
0.6
 40
0.6
 40
0.6
 40
0.6
 40
0.6666666666666666
 40
0.6666666666666666
 40
0.6666666666666666
 40
0.6666666666666666
 40
0.7333333333333333
 40
0.7333333333333333
 40
0.7333333333333333
 40
0.7333333333333333
 40
0.8
 40
0.8
 40
0.8
 40
0.8
 40
0.8666666666666667
 40
0.8666666666666667
 40
0.8666666666666667
 40
0.8666666666666667
 40
1.0
 40
1.0
 40
1.0
 40
1.0
 10
-4.1369
 20
-33.2187
 30
0.0
 10
-4.1369
 20
-33.2187
 30
0.0
 10
-0.1673
 20
-33.2094
 30
0.0
 10
-0.1673
 20
-33.2094
 30
0.0
 10
-0.1673
 20
-33.2094
 30
0.0
 10
-0.1673
 20
-33.2094
 30
0.0
 10
-0.0842
 20
-33.2094
 30
0.0
 10
-0.0842
 20
-33.2094
 30
0.0
 10
-0.0842
 20
-33.2094
 30
0.0
 10
-0.0842
 20
-33.2094
 30
0.0
 10
0.0081
 20
-33.1447
 30
0.0
 10
0.0081
 20
-33.1447
 30
0.0
 10
0.0081
 20
-33.1447
 30
0.0
 10
0.0081
 20
-33.1447
 30
0.0
 10
0.0912
 20
-33.0151
 30
0.0
 10
0.0912
 20
-33.0151
 30
0.0
 10
0.0912
 20
-33.0151
 30
0.0
 10
0.0912
 20
-33.0151
 30
0.0
 10
0.0818
 20
-32.6451
 30
0.0
 10
0.0818
 20
-32.6451
 30
0.0
 10
0.0818
 20
-32.6451
 30
0.0
 10
0.0818
 20
-32.6451
 30
0.0
 10
0.1835
 20
-32.6544
 30
0.0
 10
0.1835
 20
-32.6544
 30
0.0
 10
0.1835
 20
-32.6544
 30
0.0
 10
0.1835
 20
-32.6544
 30
0.0
 10
0.1835
 20
-30.6285
 30
0.0
 10
0.1835
 20
-30.6285
 30
0.0
 10
0.1835
 20
-30.6285
 30
0.0
 10
0.1835
 20
-30.6285
 30
0.0
 10
-2.5661
 20
-30.633
 30
0.0
 10
-2.5661
 20
-30.633
 30
0.0
 10
-2.5661
 20
-30.633
 30
0.0
 10
-2.5661
 20
-30.633
 30
0.0
 10
-7.5275
 20
-30.6196
 30
0.0
 10
-7.5275
 20
-30.6196
 30
0.0
 10
-7.5275
 20
-30.6196
 30
0.0
 10
-7.5275
 20
-30.6196
 30
0.0
 10
-7.5342
 20
-32.6378
 30
0.0
 10
-7.5342
 20
-32.6378
 30
0.0
 10
-7.5342
 20
-32.6378
 30
0.0
 10
-7.5342
 20
-32.6378
 30
0.0
 10
-7.4671
 20
-32.631
 30
0.0
 10
-7.4671
 20
-32.631
 30
0.0
 10
-7.4671
 20
-32.631
 30
0.0
 10
-7.4671
 20
-32.631
 30
0.0
 10
-7.4588
 20
-32.9435
 30
0.0
 10
-7.4588
 20
-32.9435
 30
0.0
 10
-7.4588
 20
-32.9435
 30
0.0
 10
-7.4588
 20
-33.0982
 30
0.0
 10
-7.3335
 20
-33.2235
 30
0.0
 10
-7.1789
 20
-33.2235
 30
0.0
 10
-7.1789
 20
-33.2235
 30
0.0
 10
-7.1789
 20
-33.2235
 30
0.0
 10
-4.0541
 20
-33.2154
 30
0.0
 10
-4.0541
 20
-33.2154
 30
0.0
  0
SPLINE
  5
59
330
1F
100
AcDbEntity
  8
AXIS
 62
   250
100
AcDbSpline
210
0.0
220
0.0
230
1.0
 70
     8
 71
     3
 72
   128
 73
   124
 74
     0
 42
0.0000000001
 43
0.0000000001
 40
0.0
 40
0.0
 40
0.0
 40
0.0
 40
0.03125
 40
0.03125
 40
0.03125
 40
0.03125
 40
0.0625
 40
0.0625
 40
0.0625
 40
0.0625
 40
0.09375
 40
0.09375
 40
0.09375
 40
0.09375
 40
0.125
 40
0.125
 40
0.125
 40
0.125
 40
0.15625
 40
0.15625
 40
0.15625
 40
0.15625
 40
0.1875
 40
0.1875
 40
0.1875
 40
0.1875
 40
0.21875
 40
0.21875
 40
0.21875
 40
0.21875
 40
0.25
 40
0.25
 40
0.25
 40
0.25
 40
0.28125
 40
0.28125
 40
0.28125
 40
0.28125
 40
0.3125
 40
0.3125
 40
0.3125
 40
0.3125
 40
0.34375
 40
0.34375
 40
0.34375
 40
0.34375
 40
0.375
 40
0.375
 40
0.375
 40
0.375
 40
0.40625
 40
0.40625
 40
0.40625
 40
0.40625
 40
0.4375
 40
0.4375
 40
0.4375
 40
0.4375
 40
0.46875
 40
0.46875
 40
0.46875
 40
0.46875
 40
0.5
 40
0.5
 40
0.5
 40
0.5
 40
0.53125
 40
0.53125
 40
0.53125
 40
0.53125
 40
0.5625
 40
0.5625
 40
0.5625
 40
0.5625
 40
0.59375
 40
0.59375
 40
0.59375
 40
0.59375
 40
0.625
 40
0.625
 40
0.625
 40
0.625
 40
0.65625
 40
0.65625
 40
0.65625
 40
0.65625
 40
0.6875
 40
0.6875
 40
0.6875
 40
0.6875
 40
0.71875
 40
0.71875
 40
0.71875
 40
0.71875
 40
0.75
 40
0.75
 40
0.75
 40
0.75
 40
0.78125
 40
0.78125
 40
0.78125
 40
0.78125
 40
0.8125
 40
0.8125
 40
0.8125
 40
0.8125
 40
0.84375
 40
0.84375
 40
0.84375
 40
0.84375
 40
0.875
 40
0.875
 40
0.875
 40
0.875
 40
0.90625
 40
0.90625
 40
0.90625
 40
0.90625
 40
0.9375
 40
0.9375
 40
0.9375
 40
0.9375
 40
1.0
 40
1.0
 40
1.0
 40
1.0
 10
-7.4591
 20
-31.0589
 30
0.0
 10
-7.4591
 20
-31.0589
 30
0.0
 10
-6.5909
 20
-31.0589
 30
0.0
 10
-6.5909
 20
-31.0589
 30
0.0
 10
-6.5909
 20
-31.0589
 30
0.0
 10
-6.5909
 20
-31.0589
 30
0.0
 10
-6.5922
 20
-32.3137
 30
0.0
 10
-6.5922
 20
-32.3137
 30
0.0
 10
-6.5922
 20
-32.3137
 30
0.0
 10
-6.5922
 20
-32.3137
 30
0.0
 10
-6.586
 20
-32.3862
 30
0.0
 10
-6.586
 20
-32.3862
 30
0.0
 10
-6.586
 20
-32.3862
 30
0.0
 10
-6.586
 20
-32.3862
 30
0.0
 10
-6.5675
 20
-32.4536
 30
0.0
 10
-6.5675
 20
-32.4536
 30
0.0
 10
-6.5675
 20
-32.4536
 30
0.0
 10
-6.5675
 20
-32.4536
 30
0.0
 10
-6.5379
 20
-32.5117
 30
0.0
 10
-6.5379
 20
-32.5117
 30
0.0
 10
-6.5379
 20
-32.5117
 30
0.0
 10
-6.5379
 20
-32.5117
 30
0.0
 10
-6.4986
 20
-32.5563
 30
0.0
 10
-6.4986
 20
-32.5563
 30
0.0
 10
-6.4986
 20
-32.5563
 30
0.0
 10
-6.4986
 20
-32.5563
 30
0.0
 10
-6.4522
 20
-32.5842
 30
0.0
 10
-6.4522
 20
-32.5842
 30
0.0
 10
-6.4522
 20
-32.5842
 30
0.0
 10
-6.4522
 20
-32.5842
 30
0.0
 10
-6.4015
 20
-32.5936
 30
0.0
 10
-6.4015
 20
-32.5936
 30
0.0
 10
-6.4015
 20
-32.5936
 30
0.0
 10
-6.4015
 20
-32.5936
 30
0.0
 10
-6.2678
 20
-32.5228
 30
0.0
 10
-6.2678
 20
-32.5228
 30
0.0
 10
-6.2678
 20
-32.5228
 30
0.0
 10
-6.2678
 20
-32.5228
 30
0.0
 10
-6.2174
 20
-32.3915
 30
0.0
 10
-6.2174
 20
-32.3915
 30
0.0
 10
-6.2174
 20
-32.3915
 30
0.0
 10
-6.2174
 20
-32.3915
 30
0.0
 10
-6.1871
 20
-32.2704
 30
0.0
 10
-6.1871
 20
-32.2704
 30
0.0
 10
-6.1871
 20
-32.2704
 30
0.0
 10
-6.1871
 20
-32.2704
 30
0.0
 10
-6.1871
 20
-31.0488
 30
0.0
 10
-6.1871
 20
-31.0488
 30
0.0
 10
-6.1871
 20
-31.0488
 30
0.0
 10
-6.1871
 20
-31.0488
 30
0.0
 10
-3.9459
 20
-31.069
 30
0.0
 10
-3.9459
 20
-31.069
 30
0.0
 10
-3.9459
 20
-31.069
 30
0.0
 10
-3.9459
 20
-31.069
 30
0.0
 10
-3.9459
 20
-32.3511
 30
0.0
 10
-3.9459
 20
-32.3511
 30
0.0
 10
-3.9459
 20
-32.3511
 30
0.0
 10
-3.9459
 20
-32.3511
 30
0.0
 10
-3.8954
 20
-32.4723
 30
0.0
 10
-3.8954
 20
-32.4723
 30
0.0
 10
-3.8954
 20
-32.4723
 30
0.0
 10
-3.8954
 20
-32.4723
 30
0.0
 10
-3.8146
 20
-32.5429
 30
0.0
 10
-3.8146
 20
-32.5429
 30
0.0
 10
-3.8146
 20
-32.5429
 30
0.0
 10
-3.8146
 20
-32.5429
 30
0.0
 10
-3.7238
 20
-32.5631
 30
0.0
 10
-3.7238
 20
-32.5631
 30
0.0
 10
-3.7238
 20
-32.5631
 30
0.0
 10
-3.7238
 20
-32.5631
 30
0.0
 10
-3.6026
 20
-32.5631
 30
0.0
 10
-3.6026
 20
-32.5631
 30
0.0
 10
-3.6026
 20
-32.5631
 30
0.0
 10
-3.6026
 20
-32.5631
 30
0.0
 10
-3.5218
 20
-32.5228
 30
0.0
 10
-3.5218
 20
-32.5228
 30
0.0
 10
-3.5218
 20
-32.5228
 30
0.0
 10
-3.5218
 20
-32.5228
 30
0.0
 10
-3.431
 20
-32.4117
 30
0.0
 10
-3.431
 20
-32.4117
 30
0.0
 10
-3.431
 20
-32.4117
 30
0.0
 10
-3.431
 20
-32.4117
 30
0.0
 10
-3.4007
 20
-32.2704
 30
0.0
 10
-3.4007
 20
-32.2704
 30
0.0
 10
-3.4007
 20
-32.2704
 30
0.0
 10
-3.4007
 20
-32.2704
 30
0.0
 10
-3.4007
 20
-31.0589
 30
0.0
 10
-3.4007
 20
-31.0589
 30
0.0
 10
-3.4007
 20
-31.0589
 30
0.0
 10
-3.4007
 20
-31.0589
 30
0.0
 10
-1.1494
 20
-31.0589
 30
0.0
 10
-1.1494
 20
-31.0589
 30
0.0
 10
-1.1494
 20
-31.0589
 30
0.0
 10
-1.1494
 20
-31.0589
 30
0.0
 10
-1.1494
 20
-32.3511
 30
0.0
 10
-1.1494
 20
-32.3511
 30
0.0
 10
-1.1494
 20
-32.3511
 30
0.0
 10
-1.1494
 20
-32.3511
 30
0.0
 10
-1.0888
 20
-32.5026
 30
0.0
 10
-1.0888
 20
-32.5026
 30
0.0
 10
-1.0888
 20
-32.5026
 30
0.0
 10
-1.0888
 20
-32.5026
 30
0.0
 10
-0.9878
 20
-32.553
 30
0.0
 10
-0.9878
 20
-32.553
 30
0.0
 10
-0.9878
 20
-32.553
 30
0.0
 10
-0.9878
 20
-32.553
 30
0.0
 10
-0.8869
 20
-32.553
 30
0.0
 10
-0.8869
 20
-32.553
 30
0.0
 10
-0.8869
 20
-32.553
 30
0.0
 10
-0.8869
 20
-32.553
 30
0.0
 10
-0.796
 20
-32.4925
 30
0.0
 10
-0.796
 20
-32.4925
 30
0.0
 10
-0.796
 20
-32.4925
 30
0.0
 10
-0.796
 20
-32.4925
 30
0.0
 10
-0.7455
 20
-32.341
 30
0.0
 10
-0.7455
 20
-32.341
 30
0.0
 10
-0.7455
 20
-32.341
 30
0.0
 10
-0.7455
 20
-32.341
 30
0.0
 10
-0.7758
 20
-31.0084
 30
0.0
 10
-0.7758
 20
-31.0084
 30
0.0
 10
-0.7758
 20
-31.0084
 30
0.0
 10
-0.7758
 20
-31.0084
 30
0.0
 10
0.1328
 20
-31.0387
 30
0.0
 10
0.1328
 20
-31.0387
 30
0.0
  0
SPLINE
  5
5A
330
1F
100
AcDbEntity
  8
AXIS
 62
   250
100
AcDbSpline
210
0.0
220
0.0
230
1.0
 70
     8
 71
     3
 72
    60
 73
    56
 74
     0
 42
0.0000000001
 43
0.0000000001
 40
0.0
 40
0.0
 40
0.0
 40
0.0
 40
0.0666666666666667
 40
0.0666666666666667
 40
0.0666666666666667
 40
0.0666666666666667
 40
0.1333333333333333
 40
0.1333333333333333
 40
0.1333333333333333
 40
0.1333333333333333
 40
0.2
 40
0.2
 40
0.2
 40
0.2
 40
0.2666666666666667
 40
0.2666666666666667
 40
0.2666666666666667
 40
0.2666666666666667
 40
0.3333333333333333
 40
0.3333333333333333
 40
0.3333333333333333
 40
0.3333333333333333
 40
0.4
 40
0.4
 40
0.4
 40
0.4
 40
0.4666666666666667
 40
0.4666666666666667
 40
0.4666666666666667
 40
0.4666666666666667
 40
0.5333333333333333
 40
0.5333333333333333
 40
0.5333333333333333
 40
0.5333333333333333
 40
0.6
 40
0.6
 40
0.6
 40
0.6
 40
0.6666666666666666
 40
0.6666666666666666
 40
0.6666666666666666
 40
0.6666666666666666
 40
0.7333333333333333
 40
0.7333333333333333
 40
0.7333333333333333
 40
0.7333333333333333
 40
0.8
 40
0.8
 40
0.8
 40
0.8
 40
0.8666666666666667
 40
0.8666666666666667
 40
0.8666666666666667
 40
0.8666666666666667
 40
1.0
 40
1.0
 40
1.0
 40
1.0
 10
-15.8431
 20
-32.5806
 30
0.0
 10
-15.8431
 20
-32.5806
 30
0.0
 10
-19.8127
 20
-32.5899
 30
0.0
 10
-19.8127
 20
-32.5899
 30
0.0
 10
-19.8127
 20
-32.5899
 30
0.0
 10
-19.8127
 20
-32.5899
 30
0.0
 10
-19.8958
 20
-32.5899
 30
0.0
 10
-19.8958
 20
-32.5899
 30
0.0
 10
-19.8958
 20
-32.5899
 30
0.0
 10
-19.8958
 20
-32.5899
 30
0.0
 10
-19.9881
 20
-32.6545
 30
0.0
 10
-19.9881
 20
-32.6545
 30
0.0
 10
-19.9881
 20
-32.6545
 30
0.0
 10
-19.9881
 20
-32.6545
 30
0.0
 10
-20.0712
 20
-32.7841
 30
0.0
 10
-20.0712
 20
-32.7841
 30
0.0
 10
-20.0712
 20
-32.7841
 30
0.0
 10
-20.0712
 20
-32.7841
 30
0.0
 10
-20.0619
 20
-33.1541
 30
0.0
 10
-20.0619
 20
-33.1541
 30
0.0
 10
-20.0619
 20
-33.1541
 30
0.0
 10
-20.0619
 20
-33.1541
 30
0.0
 10
-20.1635
 20
-33.1448
 30
0.0
 10
-20.1635
 20
-33.1448
 30
0.0
 10
-20.1635
 20
-33.1448
 30
0.0
 10
-20.1635
 20
-33.1448
 30
0.0
 10
-20.1635
 20
-35.1707
 30
0.0
 10
-20.1635
 20
-35.1707
 30
0.0
 10
-20.1635
 20
-35.1707
 30
0.0
 10
-20.1635
 20
-35.1707
 30
0.0
 10
-17.4139
 20
-35.1662
 30
0.0
 10
-17.4139
 20
-35.1662
 30
0.0
 10
-17.4139
 20
-35.1662
 30
0.0
 10
-17.4139
 20
-35.1662
 30
0.0
 10
-12.4526
 20
-35.1797
 30
0.0
 10
-12.4526
 20
-35.1797
 30
0.0
 10
-12.4526
 20
-35.1797
 30
0.0
 10
-12.4526
 20
-35.1797
 30
0.0
 10
-12.4458
 20
-33.1614
 30
0.0
 10
-12.4458
 20
-33.1614
 30
0.0
 10
-12.4458
 20
-33.1614
 30
0.0
 10
-12.4458
 20
-33.1614
 30
0.0
 10
-12.5129
 20
-33.1682
 30
0.0
 10
-12.5129
 20
-33.1682
 30
0.0
 10
-12.5129
 20
-33.1682
 30
0.0
 10
-12.5129
 20
-33.1682
 30
0.0
 10
-12.5212
 20
-32.8557
 30
0.0
 10
-12.5212
 20
-32.8557
 30
0.0
 10
-12.5212
 20
-32.8557
 30
0.0
 10
-12.5212
 20
-32.701
 30
0.0
 10
-12.6465
 20
-32.5758
 30
0.0
 10
-12.8011
 20
-32.5758
 30
0.0
 10
-12.8011
 20
-32.5758
 30
0.0
 10
-12.8011
 20
-32.5758
 30
0.0
 10
-15.9259
 20
-32.5839
 30
0.0
 10
-15.9259
 20
-32.5839
 30
0.0
  0
SPLINE
  5
5B
330
1F
100
AcDbEntity
  8
AXIS
 62
   250
100
AcDbSpline
210
0.0
220
0.0
230
1.0
 70
     8
 71
     3
 72
   128
 73
   124
 74
     0
 42
0.0000000001
 43
0.0000000001
 40
0.0
 40
0.0
 40
0.0
 40
0.0
 40
0.03125
 40
0.03125
 40
0.03125
 40
0.03125
 40
0.0625
 40
0.0625
 40
0.0625
 40
0.0625
 40
0.09375
 40
0.09375
 40
0.09375
 40
0.09375
 40
0.125
 40
0.125
 40
0.125
 40
0.125
 40
0.15625
 40
0.15625
 40
0.15625
 40
0.15625
 40
0.1875
 40
0.1875
 40
0.1875
 40
0.1875
 40
0.21875
 40
0.21875
 40
0.21875
 40
0.21875
 40
0.25
 40
0.25
 40
0.25
 40
0.25
 40
0.28125
 40
0.28125
 40
0.28125
 40
0.28125
 40
0.3125
 40
0.3125
 40
0.3125
 40
0.3125
 40
0.34375
 40
0.34375
 40
0.34375
 40
0.34375
 40
0.375
 40
0.375
 40
0.375
 40
0.375
 40
0.40625
 40
0.40625
 40
0.40625
 40
0.40625
 40
0.4375
 40
0.4375
 40
0.4375
 40
0.4375
 40
0.46875
 40
0.46875
 40
0.46875
 40
0.46875
 40
0.5
 40
0.5
 40
0.5
 40
0.5
 40
0.53125
 40
0.53125
 40
0.53125
 40
0.53125
 40
0.5625
 40
0.5625
 40
0.5625
 40
0.5625
 40
0.59375
 40
0.59375
 40
0.59375
 40
0.59375
 40
0.625
 40
0.625
 40
0.625
 40
0.625
 40
0.65625
 40
0.65625
 40
0.65625
 40
0.65625
 40
0.6875
 40
0.6875
 40
0.6875
 40
0.6875
 40
0.71875
 40
0.71875
 40
0.71875
 40
0.71875
 40
0.75
 40
0.75
 40
0.75
 40
0.75
 40
0.78125
 40
0.78125
 40
0.78125
 40
0.78125
 40
0.8125
 40
0.8125
 40
0.8125
 40
0.8125
 40
0.84375
 40
0.84375
 40
0.84375
 40
0.84375
 40
0.875
 40
0.875
 40
0.875
 40
0.875
 40
0.90625
 40
0.90625
 40
0.90625
 40
0.90625
 40
0.9375
 40
0.9375
 40
0.9375
 40
0.9375
 40
1.0
 40
1.0
 40
1.0
 40
1.0
 10
-12.5209
 20
-34.7403
 30
0.0
 10
-12.5209
 20
-34.7403
 30
0.0
 10
-13.3891
 20
-34.7403
 30
0.0
 10
-13.3891
 20
-34.7403
 30
0.0
 10
-13.3891
 20
-34.7403
 30
0.0
 10
-13.3891
 20
-34.7403
 30
0.0
 10
-13.3878
 20
-33.4855
 30
0.0
 10
-13.3878
 20
-33.4855
 30
0.0
 10
-13.3878
 20
-33.4855
 30
0.0
 10
-13.3878
 20
-33.4855
 30
0.0
 10
-13.394
 20
-33.4131
 30
0.0
 10
-13.394
 20
-33.4131
 30
0.0
 10
-13.394
 20
-33.4131
 30
0.0
 10
-13.394
 20
-33.4131
 30
0.0
 10
-13.4125
 20
-33.3456
 30
0.0
 10
-13.4125
 20
-33.3456
 30
0.0
 10
-13.4125
 20
-33.3456
 30
0.0
 10
-13.4125
 20
-33.3456
 30
0.0
 10
-13.4422
 20
-33.2876
 30
0.0
 10
-13.4422
 20
-33.2876
 30
0.0
 10
-13.4422
 20
-33.2876
 30
0.0
 10
-13.4422
 20
-33.2876
 30
0.0
 10
-13.4814
 20
-33.243
 30
0.0
 10
-13.4814
 20
-33.243
 30
0.0
 10
-13.4814
 20
-33.243
 30
0.0
 10
-13.4814
 20
-33.243
 30
0.0
 10
-13.5278
 20
-33.215
 30
0.0
 10
-13.5278
 20
-33.215
 30
0.0
 10
-13.5278
 20
-33.215
 30
0.0
 10
-13.5278
 20
-33.215
 30
0.0
 10
-13.5785
 20
-33.2056
 30
0.0
 10
-13.5785
 20
-33.2056
 30
0.0
 10
-13.5785
 20
-33.2056
 30
0.0
 10
-13.5785
 20
-33.2056
 30
0.0
 10
-13.7122
 20
-33.2765
 30
0.0
 10
-13.7122
 20
-33.2765
 30
0.0
 10
-13.7122
 20
-33.2765
 30
0.0
 10
-13.7122
 20
-33.2765
 30
0.0
 10
-13.7627
 20
-33.4077
 30
0.0
 10
-13.7627
 20
-33.4077
 30
0.0
 10
-13.7627
 20
-33.4077
 30
0.0
 10
-13.7627
 20
-33.4077
 30
0.0
 10
-13.793
 20
-33.5289
 30
0.0
 10
-13.793
 20
-33.5289
 30
0.0
 10
-13.793
 20
-33.5289
 30
0.0
 10
-13.793
 20
-33.5289
 30
0.0
 10
-13.793
 20
-34.7504
 30
0.0
 10
-13.793
 20
-34.7504
 30
0.0
 10
-13.793
 20
-34.7504
 30
0.0
 10
-13.793
 20
-34.7504
 30
0.0
 10
-16.0342
 20
-34.7303
 30
0.0
 10
-16.0342
 20
-34.7303
 30
0.0
 10
-16.0342
 20
-34.7303
 30
0.0
 10
-16.0342
 20
-34.7303
 30
0.0
 10
-16.0342
 20
-33.4481
 30
0.0
 10
-16.0342
 20
-33.4481
 30
0.0
 10
-16.0342
 20
-33.4481
 30
0.0
 10
-16.0342
 20
-33.4481
 30
0.0
 10
-16.0847
 20
-33.327
 30
0.0
 10
-16.0847
 20
-33.327
 30
0.0
 10
-16.0847
 20
-33.327
 30
0.0
 10
-16.0847
 20
-33.327
 30
0.0
 10
-16.1654
 20
-33.2563
 30
0.0
 10
-16.1654
 20
-33.2563
 30
0.0
 10
-16.1654
 20
-33.2563
 30
0.0
 10
-16.1654
 20
-33.2563
 30
0.0
 10
-16.2563
 20
-33.2361
 30
0.0
 10
-16.2563
 20
-33.2361
 30
0.0
 10
-16.2563
 20
-33.2361
 30
0.0
 10
-16.2563
 20
-33.2361
 30
0.0
 10
-16.3774
 20
-33.2361
 30
0.0
 10
-16.3774
 20
-33.2361
 30
0.0
 10
-16.3774
 20
-33.2361
 30
0.0
 10
-16.3774
 20
-33.2361
 30
0.0
 10
-16.4582
 20
-33.2765
 30
0.0
 10
-16.4582
 20
-33.2765
 30
0.0
 10
-16.4582
 20
-33.2765
 30
0.0
 10
-16.4582
 20
-33.2765
 30
0.0
 10
-16.5491
 20
-33.3875
 30
0.0
 10
-16.5491
 20
-33.3875
 30
0.0
 10
-16.5491
 20
-33.3875
 30
0.0
 10
-16.5491
 20
-33.3875
 30
0.0
 10
-16.5793
 20
-33.5289
 30
0.0
 10
-16.5793
 20
-33.5289
 30
0.0
 10
-16.5793
 20
-33.5289
 30
0.0
 10
-16.5793
 20
-33.5289
 30
0.0
 10
-16.5793
 20
-34.7403
 30
0.0
 10
-16.5793
 20
-34.7403
 30
0.0
 10
-16.5793
 20
-34.7403
 30
0.0
 10
-16.5793
 20
-34.7403
 30
0.0
 10
-18.8307
 20
-34.7403
 30
0.0
 10
-18.8307
 20
-34.7403
 30
0.0
 10
-18.8307
 20
-34.7403
 30
0.0
 10
-18.8307
 20
-34.7403
 30
0.0
 10
-18.8307
 20
-33.4481
 30
0.0
 10
-18.8307
 20
-33.4481
 30
0.0
 10
-18.8307
 20
-33.4481
 30
0.0
 10
-18.8307
 20
-33.4481
 30
0.0
 10
-18.8912
 20
-33.2967
 30
0.0
 10
-18.8912
 20
-33.2967
 30
0.0
 10
-18.8912
 20
-33.2967
 30
0.0
 10
-18.8912
 20
-33.2967
 30
0.0
 10
-18.9922
 20
-33.2462
 30
0.0
 10
-18.9922
 20
-33.2462
 30
0.0
 10
-18.9922
 20
-33.2462
 30
0.0
 10
-18.9922
 20
-33.2462
 30
0.0
 10
-19.0931
 20
-33.2462
 30
0.0
 10
-19.0931
 20
-33.2462
 30
0.0
 10
-19.0931
 20
-33.2462
 30
0.0
 10
-19.0931
 20
-33.2462
 30
0.0
 10
-19.184
 20
-33.3068
 30
0.0
 10
-19.184
 20
-33.3068
 30
0.0
 10
-19.184
 20
-33.3068
 30
0.0
 10
-19.184
 20
-33.3068
 30
0.0
 10
-19.2345
 20
-33.4582
 30
0.0
 10
-19.2345
 20
-33.4582
 30
0.0
 10
-19.2345
 20
-33.4582
 30
0.0
 10
-19.2345
 20
-33.4582
 30
0.0
 10
-19.2042
 20
-34.7908
 30
0.0
 10
-19.2042
 20
-34.7908
 30
0.0
 10
-19.2042
 20
-34.7908
 30
0.0
 10
-19.2042
 20
-34.7908
 30
0.0
 10
-20.1128
 20
-34.7605
 30
0.0
 10
-20.1128
 20
-34.7605
 30
0.0
  0
SPLINE
  5
5C
330
1F
100
AcDbEntity
  8
AXIS
 62
   250
100
AcDbSpline
210
0.0
220
0.0
230
1.0
 70
     8
 71
     3
 72
    32
 73
    28
 74
     0
 42
0.0000000001
 43
0.0000000001
 40
0.0
 40
0.0
 40
0.0
 40
0.0
 40
0.125
 40
0.125
 40
0.125
 40
0.125
 40
0.25
 40
0.25
 40
0.25
 40
0.25
 40
0.375
 40
0.375
 40
0.375
 40
0.375
 40
0.5
 40
0.5
 40
0.5
 40
0.5
 40
0.625
 40
0.625
 40
0.625
 40
0.625
 40
0.75
 40
0.75
 40
0.75
 40
0.75
 40
1.0
 40
1.0
 40
1.0
 40
1.0
 10
-28.8492
 20
-33.6978
 30
0.0
 10
-28.8492
 20
-33.6978
 30
0.0
 10
-21.6426
 20
-33.1424
 30
0.0
 10
-21.6426
 20
-33.1424
 30
0.0
 10
-21.6426
 20
-33.1424
 30
0.0
 10
-21.6426
 20
-33.1424
 30
0.0
 10
-20.0905
 20
-31.2403
 30
0.0
 10
-20.0905
 20
-31.2403
 30
0.0
 10
-20.0905
 20
-31.2403
 30
0.0
 10
-19.9712
 20
-31.098
 30
0.0
 10
-19.8004
 20
-31.0091
 30
0.0
 10
-19.6155
 20
-30.993
 30
0.0
 10
-19.6155
 20
-30.993
 30
0.0
 10
-19.6155
 20
-30.993
 30
0.0
 10
-19.0752
 20
-30.9526
 30
0.0
 10
-19.0752
 20
-30.9526
 30
0.0
 10
-19.0752
 20
-30.9526
 30
0.0
 10
-19.0752
 20
-30.9526
 30
0.0
 10
-17.1667
 20
-30.8102
 30
0.0
 10
-17.1667
 20
-30.8102
 30
0.0
 10
-17.1667
 20
-30.8102
 30
0.0
 10
-17.1667
 20
-30.8102
 30
0.0
 10
-16.2358
 20
-29.7875
 30
0.0
 10
-16.2358
 20
-29.7875
 30
0.0
 10
-16.2358
 20
-29.7875
 30
0.0
 10
-16.2358
 20
-29.7875
 30
0.0
 10
-13.5144
 20
-29.7875
 30
0.0
 10
-13.5144
 20
-29.7875
 30
0.0
  0
SPLINE
  5
5D
330
1F
100
AcDbEntity
  8
AXIS
 62
   250
100
AcDbSpline
210
0.0
220
0.0
230
1.0
 70
     8
 71
     3
 72
    24
 73
    20
 74
     0
 42
0.0000000001
 43
0.0000000001
 40
0.0
 40
0.0
 40
0.0
 40
0.0
 40
0.1666666666666667
 40
0.1666666666666667
 40
0.1666666666666667
 40
0.1666666666666667
 40
0.3333333333333333
 40
0.3333333333333333
 40
0.3333333333333333
 40
0.3333333333333333
 40
0.5
 40
0.5
 40
0.5
 40
0.5
 40
0.6666666666666666
 40
0.6666666666666666
 40
0.6666666666666666
 40
0.6666666666666666
 40
1.0
 40
1.0
 40
1.0
 40
1.0
 10
-29.8786
 20
-27.4724
 30
0.0
 10
-29.8786
 20
-27.4724
 30
0.0
 10
-36.5046
 20
-28.0521
 30
0.0
 10
-36.5046
 20
-28.0521
 30
0.0
 10
-36.5046
 20
-28.0521
 30
0.0
 10
-36.5046
 20
-28.0521
 30
0.0
 10
-36.9206
 20
-28.2349
 30
0.0
 10
-36.9206
 20
-28.2349
 30
0.0
 10
-36.9206
 20
-28.2349
 30
0.0
 10
-36.9206
 20
-28.2349
 30
0.0
 10
-36.3167
 20
-34.9841
 30
0.0
 10
-36.3167
 20
-34.9841
 30
0.0
 10
-36.3167
 20
-34.9841
 30
0.0
 10
-36.3167
 20
-34.9841
 30
0.0
 10
-35.8572
 20
-35.0499
 30
0.0
 10
-35.8572
 20
-35.0499
 30
0.0
 10
-35.8572
 20
-35.0499
 30
0.0
 10
-35.8572
 20
-35.0499
 30
0.0
 10
-29.3056
 20
-34.4447
 30
0.0
 10
-29.3056
 20
-34.4447
 30
0.0
  0
SPLINE
  5
5E
330
1F
100
AcDbEntity
  8
AXIS
 62
   250
100
AcDbSpline
210
0.0
220
0.0
230
1.0
 70
     8
 71
     3
 72
    20
 73
    16
 74
     0
 42
0.0000000001
 43
0.0000000001
 40
0.0
 40
0.0
 40
0.0
 40
0.0
 40
0.2
 40
0.2
 40
0.2
 40
0.2
 40
0.4
 40
0.4
 40
0.4
 40
0.4
 40
0.6
 40
0.6
 40
0.6
 40
0.6
 40
1.0
 40
1.0
 40
1.0
 40
1.0
 10
-29.3177
 20
-28.1332
 30
0.0
 10
-29.3177
 20
-28.1332
 30
0.0
 10
-16.52
 20
-27.0061
 30
0.0
 10
-16.52
 20
-27.0061
 30
0.0
 10
-16.52
 20
-27.0061
 30
0.0
 10
-15.7382
 20
-26.9377
 30
0.0
 10
-14.9636
 20
-27.2006
 30
0.0
 10
-14.385
 20
-27.7308
 30
0.0
 10
-14.385
 20
-27.7308
 30
0.0
 10
-13.8064
 20
-28.261
 30
0.0
 10
-13.4769
 20
-29.0098
 30
0.0
 10
-13.4769
 20
-29.7946
 30
0.0
 10
-13.4769
 20
-29.7946
 30
0.0
 10
-13.4769
 20
-29.7946
 30
0.0
 10
-13.4751
 20
-32.5843
 30
0.0
 10
-13.4751
 20
-32.5843
 30
0.0
  0
SPLINE
  5
5F
330
1F
100
AcDbEntity
  8
AXIS
 62
   250
100
AcDbSpline
210
0.0
220
0.0
230
1.0
 70
    27
 71
     3
 72
    20
 73
    16
 74
     0
 42
0.0000000001
 43
0.0000000001
 40
0.0
 40
0.0
 40
0.0
 40
0.0
 40
0.2
 40
0.2
 40
0.2
 40
0.2
 40
0.4
 40
0.4
 40
0.4
 40
0.4
 40
0.6
 40
0.6
 40
0.6
 40
0.6
 40
1.0
 40
1.0
 40
1.0
 40
1.0
 10
-19.0752
 20
-32.5237
 30
0.0
 10
-19.0752
 20
-32.5237
 30
0.0
 10
-19.0752
 20
-31.2153
 30
0.0
 10
-19.0752
 20
-31.2153
 30
0.0
 10
-19.0752
 20
-31.2153
 30
0.0
 10
-19.0752
 20
-31.2153
 30
0.0
 10
-19.0752
 20
-30.9526
 30
0.0
 10
-19.0752
 20
-30.9526
 30
0.0
 10
-19.0752
 20
-30.9526
 30
0.0
 10
-19.0752
 20
-30.9526
 30
0.0
 10
-19.0752
 20
-30.9457
 30
0.0
 10
-19.0752
 20
-30.9457
 30
0.0
 10
-19.0752
 20
-30.9457
 30
0.0
 10
-19.0752
 20
-30.9457
 30
0.0
 10
-19.0752
 20
-32.5237
 30
0.0
 10
-19.0752
 20
-32.5237
 30
0.0
  0
SPLINE
  5
60
330
1F
100
AcDbEntity
  8
AXIS
 62
   250
100
AcDbSpline
210
0.0
220
0.0
230
1.0
 70
    27
 71
     3
 72
    12
 73
     8
 74
     0
 42
0.0000000001
 43
0.0000000001
 40
0.0
 40
0.0
 40
0.0
 40
0.0
 40
0.3333333333333333
 40
0.3333333333333333
 40
0.3333333333333333
 40
0.3333333333333333
 40
1.0
 40
1.0
 40
1.0
 40
1.0
 10
-35.8947
 20
-35.0232
 30
0.0
 10
-35.8947
 20
-35.0232
 30
0.0
 10
-36.5046
 20
-28.0521
 30
0.0
 10
-36.5046
 20
-28.0521
 30
0.0
 10
-36.5046
 20
-28.0521
 30
0.0
 10
-36.5046
 20
-28.0521
 30
0.0
 10
-35.8947
 20
-35.0232
 30
0.0
 10
-35.8947
 20
-35.0232
 30
0.0
  0
SPLINE
  5
61
330
1F
100
AcDbEntity
  8
AXIS
 62
   250
100
AcDbSpline
210
0.0
220
0.0
230
1.0
 70
    11
 71
     3
 72
    36
 73
    32
 74
     0
 42
0.0000000001
 43
0.0000000001
 40
0.0
 40
0.0
 40
0.0
 40
0.0
 40
0.1111111111111111
 40
0.1111111111111111
 40
0.1111111111111111
 40
0.1111111111111111
 40
0.2222222222222222
 40
0.2222222222222222
 40
0.2222222222222222
 40
0.2222222222222222
 40
0.3333333333333333
 40
0.3333333333333333
 40
0.3333333333333333
 40
0.3333333333333333
 40
0.4444444444444444
 40
0.4444444444444444
 40
0.4444444444444444
 40
0.4444444444444444
 40
0.5555555555555556
 40
0.5555555555555556
 40
0.5555555555555556
 40
0.5555555555555556
 40
0.6666666666666666
 40
0.6666666666666666
 40
0.6666666666666666
 40
0.6666666666666666
 40
0.7777777777777778
 40
0.7777777777777778
 40
0.7777777777777778
 40
0.7777777777777778
 40
1.0
 40
1.0
 40
1.0
 40
1.0
 10
-29.2468
 20
-34.6945
 30
0.0
 10
-29.2468
 20
-34.6945
 30
0.0
 10
-29.9005
 20
-27.2214
 30
0.0
 10
-29.9005
 20
-27.2214
 30
0.0
 10
-29.9005
 20
-27.2214
 30
0.0
 10
-29.9005
 20
-27.2214
 30
0.0
 10
-29.6995
 20
-27.2088
 30
0.0
 10
-29.6995
 20
-27.2088
 30
0.0
 10
-29.6995
 20
-27.2088
 30
0.0
 10
-29.6995
 20
-27.2088
 30
0.0
 10
-29.3188
 20
-28.1428
 30
0.0
 10
-29.3188
 20
-28.1428
 30
0.0
 10
-29.3188
 20
-28.1428
 30
0.0
 10
-29.3188
 20
-28.1428
 30
0.0
 10
-28.8492
 20
-33.6978
 30
0.0
 10
-28.8492
 20
-33.6978
 30
0.0
 10
-28.8492
 20
-33.6978
 30
0.0
 10
-28.8492
 20
-33.6978
 30
0.0
 10
-28.849
 20
-33.6985
 30
0.0
 10
-28.849
 20
-33.6985
 30
0.0
 10
-28.849
 20
-33.6985
 30
0.0
 10
-28.849
 20
-33.6985
 30
0.0
 10
-28.8461
 20
-33.7342
 30
0.0
 10
-28.8461
 20
-33.7342
 30
0.0
 10
-28.8461
 20
-33.7342
 30
0.0
 10
-28.8461
 20
-33.7342
 30
0.0
 10
-29.043
 20
-34.6683
 30
0.0
 10
-29.043
 20
-34.6683
 30
0.0
 10
-29.043
 20
-34.6683
 30
0.0
 10
-29.043
 20
-34.6683
 30
0.0
 10
-29.2468
 20
-34.6945
 30
0.0
 10
-29.2468
 20
-34.6945
 30
0.0
  0
SPLINE
  5
62
330
1F
100
AcDbEntity
  8
AXIS
 62
   250
100
AcDbSpline
210
0.0
220
0.0
230
1.0
 70
     8
 71
     3
 72
    48
 73
    44
 74
     0
 42
0.0000000001
 43
0.0000000001
 40
0.0
 40
0.0
 40
0.0
 40
0.0
 40
0.0833333333333333
 40
0.0833333333333333
 40
0.0833333333333333
 40
0.0833333333333333
 40
0.1666666666666667
 40
0.1666666666666667
 40
0.1666666666666667
 40
0.1666666666666667
 40
0.25
 40
0.25
 40
0.25
 40
0.25
 40
0.3333333333333333
 40
0.3333333333333333
 40
0.3333333333333333
 40
0.3333333333333333
 40
0.4166666666666667
 40
0.4166666666666667
 40
0.4166666666666667
 40
0.4166666666666667
 40
0.5
 40
0.5
 40
0.5
 40
0.5
 40
0.5833333333333334
 40
0.5833333333333334
 40
0.5833333333333334
 40
0.5833333333333334
 40
0.6666666666666666
 40
0.6666666666666666
 40
0.6666666666666666
 40
0.6666666666666666
 40
0.75
 40
0.75
 40
0.75
 40
0.75
 40
0.8333333333333334
 40
0.8333333333333334
 40
0.8333333333333334
 40
0.8333333333333334
 40
1.0
 40
1.0
 40
1.0
 40
1.0
 10
-19.643
 20
-37.892
 30
0.0
 10
-19.643
 20
-37.892
 30
0.0
 10
-19.6414
 20
-38.136
 30
0.0
 10
-19.6414
 20
-38.136
 30
0.0
 10
-19.6414
 20
-38.136
 30
0.0
 10
-19.6414
 20
-39.2953
 30
0.0
 10
-18.7015
 20
-40.2352
 30
0.0
 10
-17.542
 20
-40.2352
 30
0.0
 10
-17.542
 20
-40.2352
 30
0.0
 10
-17.542
 20
-40.2352
 30
0.0
 10
-7.7007
 20
-40.2391
 30
0.0
 10
-7.7007
 20
-40.2391
 30
0.0
 10
-7.7007
 20
-40.2391
 30
0.0
 10
-7.7007
 20
-40.2391
 30
0.0
 10
-1.9689
 20
-40.244
 30
0.0
 10
-1.9689
 20
-40.244
 30
0.0
 10
-1.9689
 20
-40.244
 30
0.0
 10
-1.9689
 20
-40.244
 30
0.0
 10
-1.5375
 20
-40.1361
 30
0.0
 10
-1.5375
 20
-40.1361
 30
0.0
 10
-1.5375
 20
-40.1361
 30
0.0
 10
-1.5375
 20
-40.1361
 30
0.0
 10
-0.9805
 20
-39.9204
 30
0.0
 10
-0.9805
 20
-39.9204
 30
0.0
 10
-0.9805
 20
-39.9204
 30
0.0
 10
-0.9805
 20
-39.9204
 30
0.0
 10
-0.5491
 20
-39.5071
 30
0.0
 10
-0.5491
 20
-39.5071
 30
0.0
 10
-0.5491
 20
-39.5071
 30
0.0
 10
-0.5491
 20
-39.5071
 30
0.0
 10
-0.2975
 20
-39.1837
 30
0.0
 10
-0.2975
 20
-39.1837
 30
0.0
 10
-0.2975
 20
-39.1837
 30
0.0
 10
-0.2975
 20
-39.1837
 30
0.0
 10
-0.1177
 20
-38.6804
 30
0.0
 10
-0.1177
 20
-38.6804
 30
0.0
 10
-0.1177
 20
-38.6804
 30
0.0
 10
-0.1177
 20
-38.6804
 30
0.0
 10
-0.0458
 20
-38.3389
 30
0.0
 10
-0.0458
 20
-38.3389
 30
0.0
 10
-0.0458
 20
-38.3389
 30
0.0
 10
-0.0458
 20
-38.3389
 30
0.0
 10
-0.0639
 20
-37.9077
 30
0.0
 10
-0.0639
 20
-37.9077
 30
0.0
  0
SPLINE
  5
63
330
1F
100
AcDbEntity
  8
AXIS
 62
   250
100
AcDbSpline
210
0.0
220
0.0
230
1.0
 70
     8
 71
     3
 72
    64
 73
    60
 74
     0
 42
0.0000000001
 43
0.0000000001
 40
0.0
 40
0.0
 40
0.0
 40
0.0
 40
0.0625
 40
0.0625
 40
0.0625
 40
0.0625
 40
0.125
 40
0.125
 40
0.125
 40
0.125
 40
0.1875
 40
0.1875
 40
0.1875
 40
0.1875
 40
0.25
 40
0.25
 40
0.25
 40
0.25
 40
0.3125
 40
0.3125
 40
0.3125
 40
0.3125
 40
0.375
 40
0.375
 40
0.375
 40
0.375
 40
0.4375
 40
0.4375
 40
0.4375
 40
0.4375
 40
0.5
 40
0.5
 40
0.5
 40
0.5
 40
0.5625
 40
0.5625
 40
0.5625
 40
0.5625
 40
0.625
 40
0.625
 40
0.625
 40
0.625
 40
0.6875
 40
0.6875
 40
0.6875
 40
0.6875
 40
0.75
 40
0.75
 40
0.75
 40
0.75
 40
0.8125
 40
0.8125
 40
0.8125
 40
0.8125
 40
0.875
 40
0.875
 40
0.875
 40
0.875
 40
1.0
 40
1.0
 40
1.0
 40
1.0
 10
-19.7743
 20
-37.2417
 30
0.0
 10
-19.7649
 20
-36.9831
 30
0.0
 10
-19.6662
 20
-36.7357
 30
0.0
 10
-19.495
 20
-36.5416
 30
0.0
 10
-19.495
 20
-36.5416
 30
0.0
 10
-19.495
 20
-36.5416
 30
0.0
 10
-19.3201
 20
-36.2452
 30
0.0
 10
-19.3201
 20
-36.2452
 30
0.0
 10
-19.3201
 20
-36.2452
 30
0.0
 10
-19.3201
 20
-36.2452
 30
0.0
 10
-19.3201
 20
-36.0655
 30
0.0
 10
-19.3201
 20
-36.0655
 30
0.0
 10
-19.3201
 20
-36.0655
 30
0.0
 10
-19.3201
 20
-36.0655
 30
0.0
 10
-19.3111
 20
-35.3375
 30
0.0
 10
-19.3111
 20
-35.3375
 30
0.0
 10
-19.3111
 20
-35.3375
 30
0.0
 10
-19.3111
 20
-35.3375
 30
0.0
 10
-19.5177
 20
-35.1399
 30
0.0
 10
-19.5177
 20
-35.1399
 30
0.0
 10
-19.5177
 20
-35.1399
 30
0.0
 10
-19.5177
 20
-35.1399
 30
0.0
 10
-19.302
 20
-35.3375
 30
0.0
 10
-19.302
 20
-35.3375
 30
0.0
 10
-19.302
 20
-35.3375
 30
0.0
 10
-19.302
 20
-35.3375
 30
0.0
 10
-13.2274
 20
-35.3375
 30
0.0
 10
-13.2274
 20
-35.3375
 30
0.0
 10
-13.2274
 20
-35.3375
 30
0.0
 10
-13.2274
 20
-35.3375
 30
0.0
 10
-12.9847
 20
-35.1399
 30
0.0
 10
-12.9847
 20
-35.1399
 30
0.0
 10
-12.9847
 20
-35.1399
 30
0.0
 10
-12.9847
 20
-35.1399
 30
0.0
 10
-13.2453
 20
-35.3554
 30
0.0
 10
-13.2453
 20
-35.3554
 30
0.0
 10
-13.2453
 20
-35.3554
 30
0.0
 10
-13.2453
 20
-35.3554
 30
0.0
 10
-13.2184
 20
-35.7059
 30
0.0
 10
-13.2184
 20
-35.7059
 30
0.0
 10
-13.2184
 20
-35.7059
 30
0.0
 10
-13.2184
 20
-35.7059
 30
0.0
 10
-13.1196
 20
-35.8858
 30
0.0
 10
-13.1196
 20
-35.8858
 30
0.0
 10
-13.1196
 20
-35.8858
 30
0.0
 10
-13.1196
 20
-35.8858
 30
0.0
 10
-13.0207
 20
-35.9397
 30
0.0
 10
-13.0207
 20
-35.9397
 30
0.0
 10
-13.0207
 20
-35.9397
 30
0.0
 10
-13.0207
 20
-35.9397
 30
0.0
 10
-12.832
 20
-36.1013
 30
0.0
 10
-12.832
 20
-36.1013
 30
0.0
 10
-12.832
 20
-36.1013
 30
0.0
 10
-12.832
 20
-36.1013
 30
0.0
 10
-12.6163
 20
-36.1553
 30
0.0
 10
-12.6163
 20
-36.1553
 30
0.0
 10
-12.6163
 20
-36.1553
 30
0.0
 10
-12.6163
 20
-36.1553
 30
0.0
 10
-12.3287
 20
-36.1643
 30
0.0
 10
-12.3287
 20
-36.1643
 30
0.0
  0
SPLINE
  5
64
330
1F
100
AcDbEntity
  8
AXIS
 62
   250
100
AcDbSpline
210
0.0
220
0.0
230
1.0
 70
     8
 71
     3
 72
    12
 73
     8
 74
     0
 42
0.0000000001
 43
0.0000000001
 40
0.0
 40
0.0
 40
0.0
 40
0.0
 40
0.3333333333333333
 40
0.3333333333333333
 40
0.3333333333333333
 40
0.3333333333333333
 40
1.0
 40
1.0
 40
1.0
 40
1.0
 10
-7.2138
 20
-36.1625
 30
0.0
 10
-6.8274
 20
-36.1625
 30
0.0
 10
-6.5142
 20
-35.8493
 30
0.0
 10
-6.5142
 20
-35.4627
 30
0.0
 10
-6.5142
 20
-35.4627
 30
0.0
 10
-6.5142
 20
-35.4627
 30
0.0
 10
-6.5235
 20
-33.1977
 30
0.0
 10
-6.5235
 20
-33.1977
 30
0.0
  0
SPLINE
  5
65
330
1F
100
AcDbEntity
  8
AXIS
 62
   250
100
AcDbSpline
210
0.0
220
0.0
230
1.0
 70
     8
 71
     3
 72
    60
 73
    56
 74
     0
 42
0.0000000001
 43
0.0000000001
 40
0.0
 40
0.0
 40
0.0
 40
0.0
 40
0.0666666666666667
 40
0.0666666666666667
 40
0.0666666666666667
 40
0.0666666666666667
 40
0.1333333333333333
 40
0.1333333333333333
 40
0.1333333333333333
 40
0.1333333333333333
 40
0.2
 40
0.2
 40
0.2
 40
0.2
 40
0.2666666666666667
 40
0.2666666666666667
 40
0.2666666666666667
 40
0.2666666666666667
 40
0.3333333333333333
 40
0.3333333333333333
 40
0.3333333333333333
 40
0.3333333333333333
 40
0.4
 40
0.4
 40
0.4
 40
0.4
 40
0.4666666666666667
 40
0.4666666666666667
 40
0.4666666666666667
 40
0.4666666666666667
 40
0.5333333333333333
 40
0.5333333333333333
 40
0.5333333333333333
 40
0.5333333333333333
 40
0.6
 40
0.6
 40
0.6
 40
0.6
 40
0.6666666666666666
 40
0.6666666666666666
 40
0.6666666666666666
 40
0.6666666666666666
 40
0.7333333333333333
 40
0.7333333333333333
 40
0.7333333333333333
 40
0.7333333333333333
 40
0.8
 40
0.8
 40
0.8
 40
0.8
 40
0.8666666666666667
 40
0.8666666666666667
 40
0.8666666666666667
 40
0.8666666666666667
 40
1.0
 40
1.0
 40
1.0
 40
1.0
 10
-0.5565
 20
-36.415
 30
0.0
 10
-0.5565
 20
-36.415
 30
0.0
 10
-3.6801
 20
-36.4169
 30
0.0
 10
-3.6801
 20
-36.4169
 30
0.0
 10
-3.6801
 20
-36.4169
 30
0.0
 10
-3.6801
 20
-36.4169
 30
0.0
 10
-4.1198
 20
-36.4033
 30
0.0
 10
-4.1198
 20
-36.4033
 30
0.0
 10
-4.1198
 20
-36.4033
 30
0.0
 10
-4.1198
 20
-36.4033
 30
0.0
 10
-4.621
 20
-36.3579
 30
0.0
 10
-4.621
 20
-36.3579
 30
0.0
 10
-4.621
 20
-36.3579
 30
0.0
 10
-4.621
 20
-36.3579
 30
0.0
 10
-5.1339
 20
-36.2895
 30
0.0
 10
-5.1339
 20
-36.2895
 30
0.0
 10
-5.1339
 20
-36.2895
 30
0.0
 10
-5.1339
 20
-36.2895
 30
0.0
 10
-5.599
 20
-36.2228
 30
0.0
 10
-5.599
 20
-36.2228
 30
0.0
 10
-5.599
 20
-36.2228
 30
0.0
 10
-5.599
 20
-36.2228
 30
0.0
 10
-5.9816
 20
-36.1782
 30
0.0
 10
-5.9816
 20
-36.1782
 30
0.0
 10
-5.9816
 20
-36.1782
 30
0.0
 10
-5.9816
 20
-36.1782
 30
0.0
 10
-6.2931
 20
-36.1625
 30
0.0
 10
-6.2931
 20
-36.1625
 30
0.0
 10
-6.2931
 20
-36.1625
 30
0.0
 10
-6.2931
 20
-36.1625
 30
0.0
 10
-12.9551
 20
-36.1614
 30
0.0
 10
-12.9551
 20
-36.1614
 30
0.0
 10
-12.9551
 20
-36.1614
 30
0.0
 10
-12.9551
 20
-36.1614
 30
0.0
 10
-13.42
 20
-36.1473
 30
0.0
 10
-13.42
 20
-36.1473
 30
0.0
 10
-13.42
 20
-36.1473
 30
0.0
 10
-13.42
 20
-36.1473
 30
0.0
 10
-13.8006
 20
-36.2036
 30
0.0
 10
-13.8006
 20
-36.2036
 30
0.0
 10
-13.8006
 20
-36.2036
 30
0.0
 10
-13.8006
 20
-36.2036
 30
0.0
 10
-14.7164
 20
-36.3587
 30
0.0
 10
-14.7164
 20
-36.3587
 30
0.0
 10
-14.7164
 20
-36.3587
 30
0.0
 10
-14.7164
 20
-36.3587
 30
0.0
 10
-15.6463
 20
-36.5277
 30
0.0
 10
-15.6463
 20
-36.5277
 30
0.0
 10
-15.6463
 20
-36.5277
 30
0.0
 10
-15.6463
 20
-36.5277
 30
0.0
 10
-16.4916
 20
-36.5418
 30
0.0
 10
-16.4916
 20
-36.5418
 30
0.0
 10
-16.4916
 20
-36.5418
 30
0.0
 10
-16.4916
 20
-36.5418
 30
0.0
 10
-19.4911
 20
-36.5291
 30
0.0
 10
-19.4911
 20
-36.5291
 30
0.0
  0
SPLINE
  5
66
330
1F
100
AcDbEntity
  8
AXIS
 62
   250
100
AcDbSpline
210
0.0
220
0.0
230
1.0
 70
     8
 71
     3
 72
    24
 73
    20
 74
     0
 42
0.0000000001
 43
0.0000000001
 40
0.0
 40
0.0
 40
0.0
 40
0.0
 40
0.1666666666666667
 40
0.1666666666666667
 40
0.1666666666666667
 40
0.1666666666666667
 40
0.3333333333333333
 40
0.3333333333333333
 40
0.3333333333333333
 40
0.3333333333333333
 40
0.5
 40
0.5
 40
0.5
 40
0.5
 40
0.6666666666666666
 40
0.6666666666666666
 40
0.6666666666666666
 40
0.6666666666666666
 40
1.0
 40
1.0
 40
1.0
 40
1.0
 10
-0.8435
 20
-33.222
 30
0.0
 10
-0.8435
 20
-33.222
 30
0.0
 10
-0.8459
 20
-35.876
 30
0.0
 10
-0.8459
 20
-35.876
 30
0.0
 10
-0.8459
 20
-35.876
 30
0.0
 10
-0.8459
 20
-36.0855
 30
0.0
 10
-0.7522
 20
-36.284
 30
0.0
 10
-0.5902
 20
-36.4169
 30
0.0
 10
-0.5902
 20
-36.4169
 30
0.0
 10
-0.5902
 20
-36.4169
 30
0.0
 10
-0.3459
 20
-36.6636
 30
0.0
 10
-0.3459
 20
-36.6636
 30
0.0
 10
-0.3459
 20
-36.6636
 30
0.0
 10
-0.3459
 20
-36.6636
 30
0.0
 10
-0.1883
 20
-36.9799
 30
0.0
 10
-0.1883
 20
-36.9799
 30
0.0
 10
-0.1883
 20
-36.9799
 30
0.0
 10
-0.1883
 20
-36.9799
 30
0.0
 10
-0.1759
 20
-37.2838
 30
0.0
 10
-0.1759
 20
-37.2838
 30
0.0
  0
SPLINE
  5
67
330
1F
100
AcDbEntity
  8
AXIS
 62
   250
100
AcDbSpline
210
0.0
220
0.0
230
1.0
 70
    11
 71
     3
 72
    40
 73
    36
 74
     0
 42
0.0000000001
 43
0.0000000001
 40
0.0
 40
0.0
 40
0.0
 40
0.0
 40
0.1
 40
0.1
 40
0.1
 40
0.1
 40
0.2
 40
0.2
 40
0.2
 40
0.2
 40
0.3
 40
0.3
 40
0.3
 40
0.3
 40
0.4
 40
0.4
 40
0.4
 40
0.4
 40
0.5
 40
0.5
 40
0.5
 40
0.5
 40
0.6
 40
0.6
 40
0.6
 40
0.6
 40
0.7
 40
0.7
 40
0.7
 40
0.7
 40
0.8
 40
0.8
 40
0.8
 40
0.8
 40
1.0
 40
1.0
 40
1.0
 40
1.0
 10
-19.9641
 20
-37.2966
 30
0.0
 10
-19.9641
 20
-37.2966
 30
0.0
 10
0.0244
 20
-37.2966
 30
0.0
 10
0.0244
 20
-37.2966
 30
0.0
 10
0.0244
 20
-37.2966
 30
0.0
 10
0.0728
 20
-37.2966
 30
0.0
 10
0.1125
 20
-37.3361
 30
0.0
 10
0.1125
 20
-37.3847
 30
0.0
 10
0.1125
 20
-37.3847
 30
0.0
 10
0.1125
 20
-37.3847
 30
0.0
 10
0.1125
 20
-37.7793
 30
0.0
 10
0.1125
 20
-37.7793
 30
0.0
 10
0.1125
 20
-37.7793
 30
0.0
 10
0.1125
 20
-37.8279
 30
0.0
 10
0.0728
 20
-37.8674
 30
0.0
 10
0.0244
 20
-37.8674
 30
0.0
 10
0.0244
 20
-37.8674
 30
0.0
 10
0.0244
 20
-37.8674
 30
0.0
 10
-19.9925
 20
-37.8674
 30
0.0
 10
-19.9925
 20
-37.8674
 30
0.0
 10
-19.9925
 20
-37.8674
 30
0.0
 10
-20.041
 20
-37.8674
 30
0.0
 10
-20.0806
 20
-37.8279
 30
0.0
 10
-20.0806
 20
-37.7793
 30
0.0
 10
-20.0806
 20
-37.7793
 30
0.0
 10
-20.0806
 20
-37.7793
 30
0.0
 10
-20.0806
 20
-37.3847
 30
0.0
 10
-20.0806
 20
-37.3847
 30
0.0
 10
-20.0806
 20
-37.3847
 30
0.0
 10
-20.0806
 20
-37.3361
 30
0.0
 10
-20.041
 20
-37.2966
 30
0.0
 10
-19.9925
 20
-37.2966
 30
0.0
 10
-19.9925
 20
-37.2966
 30
0.0
 10
-19.9925
 20
-37.2966
 30
0.0
 10
-19.9641
 20
-37.2966
 30
0.0
 10
-19.9641
 20
-37.2966
 30
0.0
  0
SPLINE
  5
68
330
1F
100
AcDbEntity
  8
AXIS
 62
   250
100
AcDbSpline
210
0.0
220
0.0
230
1.0
 70
    24
 71
     3
 72
     8
 73
     4
 74
     0
 42
0.0000000001
 43
0.0000000001
 40
0.0
 40
0.0
 40
0.0
 40
0.0
 40
1.0
 40
1.0
 40
1.0
 40
1.0
 10
0.7426
 20
-29.4393
 30
0.0
 10
0.7426
 20
-29.4393
 30
0.0
 10
0.7426
 20
-25.3097
 30
0.0
 10
0.7426
 20
-25.3097
 30
0.0
  0
SPLINE
  5
69
330
1F
100
AcDbEntity
  8
AXIS
 62
   250
100
AcDbSpline
210
0.0
220
0.0
230
1.0
 70
     8
 71
     3
 72
    24
 73
    20
 74
     0
 42
0.0000000001
 43
0.0000000001
 40
0.0
 40
0.0
 40
0.0
 40
0.0
 40
0.1666666666666667
 40
0.1666666666666667
 40
0.1666666666666667
 40
0.1666666666666667
 40
0.3333333333333333
 40
0.3333333333333333
 40
0.3333333333333333
 40
0.3333333333333333
 40
0.5
 40
0.5
 40
0.5
 40
0.5
 40
0.6666666666666666
 40
0.6666666666666666
 40
0.6666666666666666
 40
0.6666666666666666
 40
1.0
 40
1.0
 40
1.0
 40
1.0
 10
-0.2033
 20
-25.2501
 30
0.0
 10
-0.2033
 20
-25.2501
 30
0.0
 10
0.7085
 20
-25.2717
 30
0.0
 10
0.7085
 20
-25.2717
 30
0.0
 10
0.7085
 20
-25.2717
 30
0.0
 10
0.7085
 20
-25.2717
 30
0.0
 10
1.8338
 20
-24.6624
 30
0.0
 10
1.8338
 20
-24.6624
 30
0.0
 10
1.8338
 20
-24.6624
 30
0.0
 10
1.8338
 20
-24.6624
 30
0.0
 10
3.0297
 20
-24.6826
 30
0.0
 10
3.0297
 20
-24.6826
 30
0.0
 10
3.0297
 20
-24.6826
 30
0.0
 10
3.0297
 20
-24.6826
 30
0.0
 10
3.1311
 20
-24.4593
 30
0.0
 10
3.1311
 20
-24.4593
 30
0.0
 10
3.1311
 20
-24.4593
 30
0.0
 10
3.1311
 20
-24.4593
 30
0.0
 10
3.4352
 20
-24.4491
 30
0.0
 10
3.4352
 20
-24.4491
 30
0.0
  0
SPLINE
  5
6A
330
1F
100
AcDbEntity
  8
AXIS
 62
   250
100
AcDbSpline
210
0.0
220
0.0
230
1.0
 70
    24
 71
     3
 72
     8
 73
     4
 74
     0
 42
0.0000000001
 43
0.0000000001
 40
0.0
 40
0.0
 40
0.0
 40
0.0
 40
1.0
 40
1.0
 40
1.0
 40
1.0
 10
-1.1348
 20
-26.4411
 30
0.0
 10
-1.1348
 20
-26.4411
 30
0.0
 10
-3.8978
 20
-26.4411
 30
0.0
 10
-3.8978
 20
-26.4411
 30
0.0
  0
SPLINE
  5
6B
330
1F
100
AcDbEntity
  8
AXIS
 62
   250
100
AcDbSpline
210
0.0
220
0.0
230
1.0
 70
    24
 71
     3
 72
     8
 73
     4
 74
     0
 42
0.0000000001
 43
0.0000000001
 40
0.0
 40
0.0
 40
0.0
 40
0.0
 40
1.0
 40
1.0
 40
1.0
 40
1.0
 10
0.0372
 20
-24.5398
 30
0.0
 10
0.0372
 20
-24.5398
 30
0.0
 10
0.2445
 20
-23.8187
 30
0.0
 10
0.2445
 20
-23.8187
 30
0.0
  0
SPLINE
  5
6C
330
1F
100
AcDbEntity
  8
AXIS
 62
   250
100
AcDbSpline
210
0.0
220
0.0
230
1.0
 70
     8
 71
     3
 72
    12
 73
     8
 74
     0
 42
0.0000000001
 43
0.0000000001
 40
0.0
 40
0.0
 40
0.0
 40
0.0
 40
0.3333333333333333
 40
0.3333333333333333
 40
0.3333333333333333
 40
0.3333333333333333
 40
1.0
 40
1.0
 40
1.0
 40
1.0
 10
-3.993
 20
-23.8187
 30
0.0
 10
-3.993
 20
-23.8187
 30
0.0
 10
0.2445
 20
-23.8187
 30
0.0
 10
0.2445
 20
-23.8187
 30
0.0
 10
0.2445
 20
-23.8187
 30
0.0
 10
0.2445
 20
-23.8187
 30
0.0
 10
1.5047
 20
-23.5926
 30
0.0
 10
1.5047
 20
-23.5926
 30
0.0
  0
SPLINE
  5
6D
330
1F
100
AcDbEntity
  8
AXIS
 62
   250
100
AcDbSpline
210
0.0
220
0.0
230
1.0
 70
     8
 71
     3
 72
    88
 73
    84
 74
     0
 42
0.0000000001
 43
0.0000000001
 40
0.0
 40
0.0
 40
0.0
 40
0.0
 40
0.0454545454545455
 40
0.0454545454545455
 40
0.0454545454545455
 40
0.0454545454545455
 40
0.0909090909090909
 40
0.0909090909090909
 40
0.0909090909090909
 40
0.0909090909090909
 40
0.1363636363636364
 40
0.1363636363636364
 40
0.1363636363636364
 40
0.1363636363636364
 40
0.1818181818181818
 40
0.1818181818181818
 40
0.1818181818181818
 40
0.1818181818181818
 40
0.2272727272727273
 40
0.2272727272727273
 40
0.2272727272727273
 40
0.2272727272727273
 40
0.2727272727272727
 40
0.2727272727272727
 40
0.2727272727272727
 40
0.2727272727272727
 40
0.3181818181818182
 40
0.3181818181818182
 40
0.3181818181818182
 40
0.3181818181818182
 40
0.3636363636363636
 40
0.3636363636363636
 40
0.3636363636363636
 40
0.3636363636363636
 40
0.4090909090909091
 40
0.4090909090909091
 40
0.4090909090909091
 40
0.4090909090909091
 40
0.4545454545454545
 40
0.4545454545454545
 40
0.4545454545454545
 40
0.4545454545454545
 40
0.5
 40
0.5
 40
0.5
 40
0.5
 40
0.5454545454545454
 40
0.5454545454545454
 40
0.5454545454545454
 40
0.5454545454545454
 40
0.5909090909090909
 40
0.5909090909090909
 40
0.5909090909090909
 40
0.5909090909090909
 40
0.6363636363636364
 40
0.6363636363636364
 40
0.6363636363636364
 40
0.6363636363636364
 40
0.6818181818181818
 40
0.6818181818181818
 40
0.6818181818181818
 40
0.6818181818181818
 40
0.7272727272727273
 40
0.7272727272727273
 40
0.7272727272727273
 40
0.7272727272727273
 40
0.7727272727272727
 40
0.7727272727272727
 40
0.7727272727272727
 40
0.7727272727272727
 40
0.8181818181818182
 40
0.8181818181818182
 40
0.8181818181818182
 40
0.8181818181818182
 40
0.8636363636363636
 40
0.8636363636363636
 40
0.8636363636363636
 40
0.8636363636363636
 40
0.9090909090909091
 40
0.9090909090909091
 40
0.9090909090909091
 40
0.9090909090909091
 40
1.0
 40
1.0
 40
1.0
 40
1.0
 10
0.2733
 20
-23.8296
 30
0.0
 10
0.2733
 20
-23.8296
 30
0.0
 10
-0.2425
 20
-25.3457
 30
0.0
 10
-0.2425
 20
-25.3457
 30
0.0
 10
-0.2425
 20
-25.3457
 30
0.0
 10
-0.2425
 20
-25.3457
 30
0.0
 10
-0.3217
 20
-25.436
 30
0.0
 10
-0.3217
 20
-25.436
 30
0.0
 10
-0.3217
 20
-25.436
 30
0.0
 10
-0.3217
 20
-25.436
 30
0.0
 10
-0.424
 20
-25.5537
 30
0.0
 10
-0.424
 20
-25.5537
 30
0.0
 10
-0.424
 20
-25.5537
 30
0.0
 10
-0.424
 20
-25.5537
 30
0.0
 10
-0.5447
 20
-25.6951
 30
0.0
 10
-0.5447
 20
-25.6951
 30
0.0
 10
-0.5447
 20
-25.6951
 30
0.0
 10
-0.5447
 20
-25.6951
 30
0.0
 10
-0.6816
 20
-25.8589
 30
0.0
 10
-0.6816
 20
-25.8589
 30
0.0
 10
-0.6816
 20
-25.8589
 30
0.0
 10
-0.6816
 20
-25.8589
 30
0.0
 10
-0.8309
 20
-26.0426
 30
0.0
 10
-0.8309
 20
-26.0426
 30
0.0
 10
-0.8309
 20
-26.0426
 30
0.0
 10
-0.8309
 20
-26.0426
 30
0.0
 10
-0.986
 20
-26.2412
 30
0.0
 10
-0.986
 20
-26.2412
 30
0.0
 10
-0.986
 20
-26.2412
 30
0.0
 10
-0.986
 20
-26.2412
 30
0.0
 10
-1.1348
 20
-26.4411
 30
0.0
 10
-1.1348
 20
-26.4411
 30
0.0
 10
-1.1348
 20
-26.4411
 30
0.0
 10
-1.1348
 20
-26.4411
 30
0.0
 10
-1.254
 20
-26.8139
 30
0.0
 10
-1.254
 20
-26.8139
 30
0.0
 10
-1.254
 20
-26.8139
 30
0.0
 10
-1.254
 20
-26.8139
 30
0.0
 10
-1.3332
 20
-27.2112
 30
0.0
 10
-1.3332
 20
-27.2112
 30
0.0
 10
-1.3332
 20
-27.2112
 30
0.0
 10
-1.3332
 20
-27.2112
 30
0.0
 10
-1.3332
 20
-27.497
 30
0.0
 10
-1.3332
 20
-27.497
 30
0.0
 10
-1.3332
 20
-27.497
 30
0.0
 10
-1.3332
 20
-27.497
 30
0.0
 10
-1.2858
 20
-27.8465
 30
0.0
 10
-1.2858
 20
-27.8465
 30
0.0
 10
-1.2858
 20
-27.8465
 30
0.0
 10
-1.2858
 20
-27.8465
 30
0.0
 10
-1.1747
 20
-28.2119
 30
0.0
 10
-1.1747
 20
-28.2119
 30
0.0
 10
-1.1747
 20
-28.2119
 30
0.0
 10
-1.1747
 20
-28.2119
 30
0.0
 10
-0.9686
 20
-28.6408
 30
0.0
 10
-0.9686
 20
-28.6408
 30
0.0
 10
-0.9686
 20
-28.6408
 30
0.0
 10
-0.9686
 20
-28.6408
 30
0.0
 10
-0.7467
 20
-29.0536
 30
0.0
 10
-0.7467
 20
-29.0536
 30
0.0
 10
-0.7467
 20
-29.0536
 30
0.0
 10
-0.7467
 20
-29.0536
 30
0.0
 10
-0.4772
 20
-29.4667
 30
0.0
 10
-0.4772
 20
-29.4667
 30
0.0
 10
-0.4772
 20
-29.4667
 30
0.0
 10
-0.4772
 20
-29.4667
 30
0.0
 10
0.7335
 20
-29.4308
 30
0.0
 10
0.7335
 20
-29.4308
 30
0.0
 10
0.7335
 20
-29.4308
 30
0.0
 10
0.7335
 20
-29.4308
 30
0.0
 10
1.8588
 20
-30.0401
 30
0.0
 10
1.8588
 20
-30.0401
 30
0.0
 10
1.8588
 20
-30.0401
 30
0.0
 10
1.8588
 20
-30.0401
 30
0.0
 10
3.0547
 20
-30.0199
 30
0.0
 10
3.0547
 20
-30.0199
 30
0.0
 10
3.0547
 20
-30.0199
 30
0.0
 10
3.0547
 20
-30.0199
 30
0.0
 10
3.1561
 20
-30.2432
 30
0.0
 10
3.1561
 20
-30.2432
 30
0.0
 10
3.1561
 20
-30.2432
 30
0.0
 10
3.1561
 20
-30.2432
 30
0.0
 10
3.4602
 20
-30.2534
 30
0.0
 10
3.4602
 20
-30.2534
 30
0.0
  0
SPLINE
  5
6E
330
1F
100
AcDbEntity
  8
AXIS
 62
   250
100
AcDbSpline
210
0.0
220
0.0
230
1.0
 70
    24
 71
     3
 72
     8
 73
     4
 74
     0
 42
0.0000000001
 43
0.0000000001
 40
0.0
 40
0.0
 40
0.0
 40
0.0
 40
1.0
 40
1.0
 40
1.0
 40
1.0
 10
-0.3982
 20
-30.6138
 30
0.0
 10
-0.3982
 20
-30.6138
 30
0.0
 10
-0.3982
 20
-30.1348
 30
0.0
 10
-0.3982
 20
-30.1348
 30
0.0
  0
SPLINE
  5
6F
330
1F
100
AcDbEntity
  8
AXIS
 62
   250
100
AcDbSpline
210
0.0
220
0.0
230
1.0
 70
    24
 71
     3
 72
     8
 73
     4
 74
     0
 42
0.0000000001
 43
0.0000000001
 40
0.0
 40
0.0
 40
0.0
 40
0.0
 40
1.0
 40
1.0
 40
1.0
 40
1.0
 10
-0.5094
 20
-29.8565
 30
0.0
 10
-0.5094
 20
-29.8565
 30
0.0
 10
-0.5094
 20
-29.4393
 30
0.0
 10
-0.5094
 20
-29.4393
 30
0.0
  0
SPLINE
  5
70
330
1F
100
AcDbEntity
  8
AXIS
 62
   250
100
AcDbSpline
210
0.0
220
0.0
230
1.0
 70
    24
 71
     3
 72
     8
 73
     4
 74
     0
 42
0.0000000001
 43
0.0000000001
 40
0.0
 40
0.0
 40
0.0
 40
0.0
 40
1.0
 40
1.0
 40
1.0
 40
1.0
 10
-6.8812
 20
-30.6138
 30
0.0
 10
-6.8812
 20
-30.6138
 30
0.0
 10
-6.8812
 20
-30.365
 30
0.0
 10
-6.8812
 20
-30.365
 30
0.0
  0
SPLINE
  5
71
330
1F
100
AcDbEntity
  8
AXIS
 62
   250
100
AcDbSpline
210
0.0
220
0.0
230
1.0
 70
     8
 71
     3
 72
    16
 73
    12
 74
     0
 42
0.0000000001
 43
0.0000000001
 40
0.0
 40
0.0
 40
0.0
 40
0.0
 40
0.25
 40
0.25
 40
0.25
 40
0.25
 40
0.5
 40
0.5
 40
0.5
 40
0.5
 40
1.0
 40
1.0
 40
1.0
 40
1.0
 10
-5.213
 20
-30.1348
 30
0.0
 10
-5.213
 20
-30.1348
 30
0.0
 10
-0.1617
 20
-30.1348
 30
0.0
 10
-0.1617
 20
-30.1348
 30
0.0
 10
-0.1617
 20
-30.1348
 30
0.0
 10
-0.1617
 20
-30.1348
 30
0.0
 10
-0.1443
 20
-29.8479
 30
0.0
 10
-0.1443
 20
-29.8479
 30
0.0
 10
-0.1443
 20
-29.8479
 30
0.0
 10
-0.1443
 20
-29.8479
 30
0.0
 10
-4.3927
 20
-29.8637
 30
0.0
 10
-4.3927
 20
-29.8637
 30
0.0
  0
SPLINE
  5
72
330
1F
100
AcDbEntity
  8
AXIS
 62
   250
100
AcDbSpline
210
0.0
220
0.0
230
1.0
 70
    24
 71
     3
 72
     8
 73
     4
 74
     0
 42
0.0000000001
 43
0.0000000001
 40
0.0
 40
0.0
 40
0.0
 40
0.0
 40
1.0
 40
1.0
 40
1.0
 40
1.0
 10
3.0382
 20
-24.6413
 30
0.0
 10
3.0382
 20
-24.6413
 30
0.0
 10
3.0382
 20
-30.0305
 30
0.0
 10
3.0382
 20
-30.0305
 30
0.0
  0
SPLINE
  5
73
330
1F
100
AcDbEntity
  8
AXIS
 62
   250
100
AcDbSpline
210
0.0
220
0.0
230
1.0
 70
    24
 71
     3
 72
     8
 73
     4
 74
     0
 42
0.0000000001
 43
0.0000000001
 40
0.0
 40
0.0
 40
0.0
 40
0.0
 40
1.0
 40
1.0
 40
1.0
 40
1.0
 10
1.8556
 20
-24.7552
 30
0.0
 10
1.8556
 20
-24.7552
 30
0.0
 10
1.8556
 20
-30.0305
 30
0.0
 10
1.8556
 20
-30.0305
 30
0.0
  0
SPLINE
  5
74
330
1F
100
AcDbEntity
  8
AXIS
 62
   250
100
AcDbSpline
210
0.0
220
0.0
230
1.0
 70
    11
 71
     3
 72
    68
 73
    64
 74
     0
 42
0.0000000001
 43
0.0000000001
 40
0.0
 40
0.0
 40
0.0
 40
0.0
 40
0.0588235294117647
 40
0.0588235294117647
 40
0.0588235294117647
 40
0.0588235294117647
 40
0.1176470588235294
 40
0.1176470588235294
 40
0.1176470588235294
 40
0.1176470588235294
 40
0.1764705882352941
 40
0.1764705882352941
 40
0.1764705882352941
 40
0.1764705882352941
 40
0.2352941176470588
 40
0.2352941176470588
 40
0.2352941176470588
 40
0.2352941176470588
 40
0.2941176470588235
 40
0.2941176470588235
 40
0.2941176470588235
 40
0.2941176470588235
 40
0.3529411764705883
 40
0.3529411764705883
 40
0.3529411764705883
 40
0.3529411764705883
 40
0.4117647058823529
 40
0.4117647058823529
 40
0.4117647058823529
 40
0.4117647058823529
 40
0.4705882352941176
 40
0.4705882352941176
 40
0.4705882352941176
 40
0.4705882352941176
 40
0.5294117647058824
 40
0.5294117647058824
 40
0.5294117647058824
 40
0.5294117647058824
 40
0.5882352941176471
 40
0.5882352941176471
 40
0.5882352941176471
 40
0.5882352941176471
 40
0.6470588235294118
 40
0.6470588235294118
 40
0.6470588235294118
 40
0.6470588235294118
 40
0.7058823529411765
 40
0.7058823529411765
 40
0.7058823529411765
 40
0.7058823529411765
 40
0.7647058823529411
 40
0.7647058823529411
 40
0.7647058823529411
 40
0.7647058823529411
 40
0.8235294117647058
 40
0.8235294117647058
 40
0.8235294117647058
 40
0.8235294117647058
 40
0.8823529411764706
 40
0.8823529411764706
 40
0.8823529411764706
 40
0.8823529411764706
 40
1.0
 40
1.0
 40
1.0
 40
1.0
 10
3.4616
 20
-23.9233
 30
0.0
 10
3.4616
 20
-23.9233
 30
0.0
 10
3.4616
 20
-25.3097
 30
0.0
 10
3.4616
 20
-25.3097
 30
0.0
 10
3.4616
 20
-25.3097
 30
0.0
 10
3.4616
 20
-25.3097
 30
0.0
 10
3.4616
 20
-30.7816
 30
0.0
 10
3.4616
 20
-30.7816
 30
0.0
 10
3.4616
 20
-30.7816
 30
0.0
 10
3.4616
 20
-30.7816
 30
0.0
 10
5.1385
 20
-30.7845
 30
0.0
 10
5.1385
 20
-30.7845
 30
0.0
 10
5.1385
 20
-30.7845
 30
0.0
 10
5.1385
 20
-30.7845
 30
0.0
 10
5.141
 20
-30.7115
 30
0.0
 10
5.141
 20
-30.7115
 30
0.0
 10
5.141
 20
-30.7115
 30
0.0
 10
5.2956
 20
-30.7115
 30
0.0
 10
5.4211
 20
-30.5862
 30
0.0
 10
5.4211
 20
-30.4316
 30
0.0
 10
5.4211
 20
-30.4316
 30
0.0
 10
5.4211
 20
-30.277
 30
0.0
 10
5.4165
 20
-25.3112
 30
0.0
 10
5.4165
 20
-25.3112
 30
0.0
 10
5.4165
 20
-25.3112
 30
0.0
 10
5.4165
 20
-25.3112
 30
0.0
 10
5.427
 20
-24.2873
 30
0.0
 10
5.427
 20
-24.2873
 30
0.0
 10
5.427
 20
-24.2873
 30
0.0
 10
5.427
 20
-24.2873
 30
0.0
 10
5.4228
 20
-24.2451
 30
0.0
 10
5.4228
 20
-24.2451
 30
0.0
 10
5.4228
 20
-24.2451
 30
0.0
 10
5.4228
 20
-24.2451
 30
0.0
 10
5.3975
 20
-24.1819
 30
0.0
 10
5.3975
 20
-24.1819
 30
0.0
 10
5.3975
 20
-24.1819
 30
0.0
 10
5.3975
 20
-24.1819
 30
0.0
 10
5.3722
 20
-24.1185
 30
0.0
 10
5.3722
 20
-24.1185
 30
0.0
 10
5.3722
 20
-24.1185
 30
0.0
 10
5.3722
 20
-24.1185
 30
0.0
 10
5.3427
 20
-24.089
 30
0.0
 10
5.3427
 20
-24.089
 30
0.0
 10
5.3427
 20
-24.089
 30
0.0
 10
5.3427
 20
-24.089
 30
0.0
 10
5.2754
 20
-24.0424
 30
0.0
 10
5.2754
 20
-24.0424
 30
0.0
 10
5.2754
 20
-24.0424
 30
0.0
 10
5.2754
 20
-24.0424
 30
0.0
 10
5.2164
 20
-24.0129
 30
0.0
 10
5.2164
 20
-24.0129
 30
0.0
 10
5.2164
 20
-24.0129
 30
0.0
 10
5.2164
 20
-24.0129
 30
0.0
 10
5.1363
 20
-24.0044
 30
0.0
 10
5.1363
 20
-24.0044
 30
0.0
 10
5.1363
 20
-24.0044
 30
0.0
 10
5.1363
 20
-24.0044
 30
0.0
 10
5.1363
 20
-23.9199
 30
0.0
 10
5.1363
 20
-23.9199
 30
0.0
 10
5.1363
 20
-23.9199
 30
0.0
 10
5.1363
 20
-23.9199
 30
0.0
 10
3.4616
 20
-23.9233
 30
0.0
 10
3.4616
 20
-23.9233
 30
0.0
  0
SPLINE
  5
75
330
1F
100
AcDbEntity
  8
AXIS
 62
   250
100
AcDbSpline
210
0.0
220
0.0
230
1.0
 70
     8
 71
     3
 72
   116
 73
   112
 74
     0
 42
0.0000000001
 43
0.0000000001
 40
0.0
 40
0.0
 40
0.0
 40
0.0
 40
0.0344827586206897
 40
0.0344827586206897
 40
0.0344827586206897
 40
0.0344827586206897
 40
0.0689655172413793
 40
0.0689655172413793
 40
0.0689655172413793
 40
0.0689655172413793
 40
0.103448275862069
 40
0.103448275862069
 40
0.103448275862069
 40
0.103448275862069
 40
0.1379310344827586
 40
0.1379310344827586
 40
0.1379310344827586
 40
0.1379310344827586
 40
0.1724137931034483
 40
0.1724137931034483
 40
0.1724137931034483
 40
0.1724137931034483
 40
0.2068965517241379
 40
0.2068965517241379
 40
0.2068965517241379
 40
0.2068965517241379
 40
0.2413793103448276
 40
0.2413793103448276
 40
0.2413793103448276
 40
0.2413793103448276
 40
0.2758620689655172
 40
0.2758620689655172
 40
0.2758620689655172
 40
0.2758620689655172
 40
0.3103448275862069
 40
0.3103448275862069
 40
0.3103448275862069
 40
0.3103448275862069
 40
0.3448275862068966
 40
0.3448275862068966
 40
0.3448275862068966
 40
0.3448275862068966
 40
0.3793103448275862
 40
0.3793103448275862
 40
0.3793103448275862
 40
0.3793103448275862
 40
0.4137931034482759
 40
0.4137931034482759
 40
0.4137931034482759
 40
0.4137931034482759
 40
0.4482758620689655
 40
0.4482758620689655
 40
0.4482758620689655
 40
0.4482758620689655
 40
0.4827586206896552
 40
0.4827586206896552
 40
0.4827586206896552
 40
0.4827586206896552
 40
0.5172413793103449
 40
0.5172413793103449
 40
0.5172413793103449
 40
0.5172413793103449
 40
0.5517241379310345
 40
0.5517241379310345
 40
0.5517241379310345
 40
0.5517241379310345
 40
0.5862068965517241
 40
0.5862068965517241
 40
0.5862068965517241
 40
0.5862068965517241
 40
0.6206896551724138
 40
0.6206896551724138
 40
0.6206896551724138
 40
0.6206896551724138
 40
0.6551724137931034
 40
0.6551724137931034
 40
0.6551724137931034
 40
0.6551724137931034
 40
0.6896551724137931
 40
0.6896551724137931
 40
0.6896551724137931
 40
0.6896551724137931
 40
0.7241379310344828
 40
0.7241379310344828
 40
0.7241379310344828
 40
0.7241379310344828
 40
0.7586206896551724
 40
0.7586206896551724
 40
0.7586206896551724
 40
0.7586206896551724
 40
0.7931034482758621
 40
0.7931034482758621
 40
0.7931034482758621
 40
0.7931034482758621
 40
0.8275862068965517
 40
0.8275862068965517
 40
0.8275862068965517
 40
0.8275862068965517
 40
0.8620689655172413
 40
0.8620689655172413
 40
0.8620689655172413
 40
0.8620689655172413
 40
0.896551724137931
 40
0.896551724137931
 40
0.896551724137931
 40
0.896551724137931
 40
0.9310344827586207
 40
0.9310344827586207
 40
0.9310344827586207
 40
0.9310344827586207
 40
1.0
 40
1.0
 40
1.0
 40
1.0
 10
3.8815
 20
-23.9347
 30
0.0
 10
3.8815
 20
-23.9347
 30
0.0
 10
3.8899
 20
-24.6278
 30
0.0
 10
3.8899
 20
-24.6278
 30
0.0
 10
3.8899
 20
-24.6278
 30
0.0
 10
3.8899
 20
-24.6278
 30
0.0
 10
4.8285
 20
-24.6513
 30
0.0
 10
4.8285
 20
-24.6513
 30
0.0
 10
4.8285
 20
-24.6513
 30
0.0
 10
4.8285
 20
-24.6513
 30
0.0
 10
4.9332
 20
-24.6756
 30
0.0
 10
4.9332
 20
-24.6756
 30
0.0
 10
4.9332
 20
-24.6756
 30
0.0
 10
4.9332
 20
-24.6756
 30
0.0
 10
5.0219
 20
-24.7158
 30
0.0
 10
5.0219
 20
-24.7158
 30
0.0
 10
5.0219
 20
-24.7158
 30
0.0
 10
5.0219
 20
-24.7158
 30
0.0
 10
5.0704
 20
-24.7805
 30
0.0
 10
5.0704
 20
-24.7805
 30
0.0
 10
5.0704
 20
-24.7805
 30
0.0
 10
5.0704
 20
-24.7805
 30
0.0
 10
5.0704
 20
-24.845
 30
0.0
 10
5.0704
 20
-24.845
 30
0.0
 10
5.0704
 20
-24.845
 30
0.0
 10
5.0704
 20
-24.845
 30
0.0
 10
5.0542
 20
-24.9416
 30
0.0
 10
5.0542
 20
-24.9416
 30
0.0
 10
5.0542
 20
-24.9416
 30
0.0
 10
5.0542
 20
-24.9416
 30
0.0
 10
4.9817
 20
-24.998
 30
0.0
 10
4.9817
 20
-24.998
 30
0.0
 10
4.9817
 20
-24.998
 30
0.0
 10
4.9817
 20
-24.998
 30
0.0
 10
4.8768
 20
-25.0384
 30
0.0
 10
4.8768
 20
-25.0384
 30
0.0
 10
4.8768
 20
-25.0384
 30
0.0
 10
4.8768
 20
-25.0384
 30
0.0
 10
4.7961
 20
-25.0384
 30
0.0
 10
4.7961
 20
-25.0384
 30
0.0
 10
4.7961
 20
-25.0384
 30
0.0
 10
4.7961
 20
-25.0384
 30
0.0
 10
3.8738
 20
-25.0384
 30
0.0
 10
3.8738
 20
-25.0384
 30
0.0
 10
3.8738
 20
-25.0384
 30
0.0
 10
3.8738
 20
-25.0384
 30
0.0
 10
3.8723
 20
-27.0741
 30
0.0
 10
3.8723
 20
-27.0741
 30
0.0
 10
3.8723
 20
-27.0741
 30
0.0
 10
3.8723
 20
-27.0741
 30
0.0
 10
4.7065
 20
-27.0725
 30
0.0
 10
4.8611
 20
-27.0725
 30
0.0
 10
4.8611
 20
-27.0725
 30
0.0
 10
5.0157
 20
-27.0725
 30
0.0
 10
5.141
 20
-27.1978
 30
0.0
 10
5.141
 20
-27.3524
 30
0.0
 10
5.141
 20
-27.3524
 30
0.0
 10
5.141
 20
-27.507
 30
0.0
 10
5.0157
 20
-27.6323
 30
0.0
 10
4.8611
 20
-27.6323
 30
0.0
 10
4.8611
 20
-27.6323
 30
0.0
 10
4.7065
 20
-27.6323
 30
0.0
 10
3.8804
 20
-27.6384
 30
0.0
 10
3.8804
 20
-27.6384
 30
0.0
 10
3.8804
 20
-27.6384
 30
0.0
 10
3.8804
 20
-27.6384
 30
0.0
 10
3.8885
 20
-29.5572
 30
0.0
 10
3.8885
 20
-29.5572
 30
0.0
 10
3.8885
 20
-29.5572
 30
0.0
 10
3.8885
 20
-29.5572
 30
0.0
 10
4.8882
 20
-29.5732
 30
0.0
 10
4.8882
 20
-29.5732
 30
0.0
 10
4.8882
 20
-29.5732
 30
0.0
 10
4.8882
 20
-29.5732
 30
0.0
 10
4.9929
 20
-29.5974
 30
0.0
 10
4.9929
 20
-29.5974
 30
0.0
 10
4.9929
 20
-29.5974
 30
0.0
 10
4.9929
 20
-29.5974
 30
0.0
 10
5.0816
 20
-29.6376
 30
0.0
 10
5.0816
 20
-29.6376
 30
0.0
 10
5.0816
 20
-29.6376
 30
0.0
 10
5.0816
 20
-29.6376
 30
0.0
 10
5.1301
 20
-29.7023
 30
0.0
 10
5.1301
 20
-29.7023
 30
0.0
 10
5.1301
 20
-29.7023
 30
0.0
 10
5.1301
 20
-29.7023
 30
0.0
 10
5.1301
 20
-29.7668
 30
0.0
 10
5.1301
 20
-29.7668
 30
0.0
 10
5.1301
 20
-29.7668
 30
0.0
 10
5.1301
 20
-29.7668
 30
0.0
 10
5.114
 20
-29.8634
 30
0.0
 10
5.114
 20
-29.8634
 30
0.0
 10
5.114
 20
-29.8634
 30
0.0
 10
5.114
 20
-29.8634
 30
0.0
 10
5.0414
 20
-29.9198
 30
0.0
 10
5.0414
 20
-29.9198
 30
0.0
 10
5.0414
 20
-29.9198
 30
0.0
 10
5.0414
 20
-29.9198
 30
0.0
 10
4.9365
 20
-29.9602
 30
0.0
 10
4.9365
 20
-29.9602
 30
0.0
 10
4.9365
 20
-29.9602
 30
0.0
 10
4.9365
 20
-29.9602
 30
0.0
 10
4.8559
 20
-29.9602
 30
0.0
 10
4.8559
 20
-29.9602
 30
0.0
 10
4.8559
 20
-29.9602
 30
0.0
 10
4.8559
 20
-29.9602
 30
0.0
 10
3.8723
 20
-29.9602
 30
0.0
 10
3.8723
 20
-29.9602
 30
0.0
 10
3.8723
 20
-29.9602
 30
0.0
 10
3.8723
 20
-29.9602
 30
0.0
 10
3.8804
 20
-30.7584
 30
0.0
 10
3.8804
 20
-30.7584
 30
0.0
  0
SPLINE
  5
76
330
1F
100
AcDbEntity
  8
AXIS
  6
NEW_LINE3
 62
   250
100
AcDbSpline
210
0.0
220
0.0
230
1.0
 70
    24
 71
     3
 72
     8
 73
     4
 74
     0
 42
0.0000000001
 43
0.0000000001
 40
0.0
 40
0.0
 40
0.0
 40
0.0
 40
1.0
 40
1.0
 40
1.0
 40
1.0
 10
-3.6775
 20
-4.7577
 30
0.0
 10
-3.6775
 20
-4.7577
 30
0.0
 10
-3.6775
 20
-37.037
 30
0.0
 10
-3.6775
 20
-37.037
 30
0.0
  0
SPLINE
  5
78
330
1F
100
AcDbEntity
  8
AXIS
 62
   250
100
AcDbSpline
210
0.0
220
0.0
230
1.0
 70
     8
 71
     3
 72
    60
 73
    56
 74
     0
 42
0.0000000001
 43
0.0000000001
 40
0.0
 40
0.0
 40
0.0
 40
0.0
 40
0.0666666666666667
 40
0.0666666666666667
 40
0.0666666666666667
 40
0.0666666666666667
 40
0.1333333333333333
 40
0.1333333333333333
 40
0.1333333333333333
 40
0.1333333333333333
 40
0.2
 40
0.2
 40
0.2
 40
0.2
 40
0.2666666666666667
 40
0.2666666666666667
 40
0.2666666666666667
 40
0.2666666666666667
 40
0.3333333333333333
 40
0.3333333333333333
 40
0.3333333333333333
 40
0.3333333333333333
 40
0.4
 40
0.4
 40
0.4
 40
0.4
 40
0.4666666666666667
 40
0.4666666666666667
 40
0.4666666666666667
 40
0.4666666666666667
 40
0.5333333333333333
 40
0.5333333333333333
 40
0.5333333333333333
 40
0.5333333333333333
 40
0.6
 40
0.6
 40
0.6
 40
0.6
 40
0.6666666666666666
 40
0.6666666666666666
 40
0.6666666666666666
 40
0.6666666666666666
 40
0.7333333333333333
 40
0.7333333333333333
 40
0.7333333333333333
 40
0.7333333333333333
 40
0.8
 40
0.8
 40
0.8
 40
0.8
 40
0.8666666666666667
 40
0.8666666666666667
 40
0.8666666666666667
 40
0.8666666666666667
 40
1.0
 40
1.0
 40
1.0
 40
1.0
 10
5.435
 20
-29.6331
 30
0.0
 10
5.435
 20
-29.6331
 30
0.0
 10
23.4268
 20
-29.639
 30
0.0
 10
23.4268
 20
-29.639
 30
0.0
 10
23.4268
 20
-29.639
 30
0.0
 10
23.4268
 20
-29.639
 30
0.0
 10
23.9592
 20
-29.6395
 30
0.0
 10
23.9592
 20
-29.6395
 30
0.0
 10
23.9592
 20
-29.6395
 30
0.0
 10
23.9592
 20
-29.6395
 30
0.0
 10
24.4916
 20
-29.5917
 30
0.0
 10
24.4916
 20
-29.5917
 30
0.0
 10
24.4916
 20
-29.5917
 30
0.0
 10
24.4916
 20
-29.5917
 30
0.0
 10
25.0195
 20
-29.4957
 30
0.0
 10
25.0195
 20
-29.4957
 30
0.0
 10
25.0195
 20
-29.4957
 30
0.0
 10
25.0195
 20
-29.4957
 30
0.0
 10
25.5386
 20
-29.3514
 30
0.0
 10
25.5386
 20
-29.3514
 30
0.0
 10
25.5386
 20
-29.3514
 30
0.0
 10
25.5386
 20
-29.3514
 30
0.0
 10
26.5329
 20
-28.9218
 30
0.0
 10
26.5329
 20
-28.9218
 30
0.0
 10
26.5329
 20
-28.9218
 30
0.0
 10
26.5329
 20
-28.9218
 30
0.0
 10
27.4396
 20
-28.3128
 30
0.0
 10
27.4396
 20
-28.3128
 30
0.0
 10
27.4396
 20
-28.3128
 30
0.0
 10
27.4396
 20
-28.3128
 30
0.0
 10
28.2256
 20
-27.5417
 30
0.0
 10
28.2256
 20
-27.5417
 30
0.0
 10
28.2256
 20
-27.5417
 30
0.0
 10
28.2256
 20
-27.5417
 30
0.0
 10
28.8636
 20
-26.6328
 30
0.0
 10
28.8636
 20
-26.6328
 30
0.0
 10
28.8636
 20
-26.6328
 30
0.0
 10
28.8636
 20
-26.6328
 30
0.0
 10
29.1199
 20
-26.1356
 30
0.0
 10
29.1199
 20
-26.1356
 30
0.0
 10
29.1199
 20
-26.1356
 30
0.0
 10
29.1199
 20
-26.1356
 30
0.0
 10
29.3312
 20
-25.6149
 30
0.0
 10
29.3312
 20
-25.6149
 30
0.0
 10
29.3312
 20
-25.6149
 30
0.0
 10
29.3312
 20
-25.6149
 30
0.0
 10
29.4958
 20
-25.0749
 30
0.0
 10
29.4958
 20
-25.0749
 30
0.0
 10
29.4958
 20
-25.0749
 30
0.0
 10
29.4958
 20
-25.0749
 30
0.0
 10
29.6121
 20
-24.5196
 30
0.0
 10
29.6121
 20
-24.5196
 30
0.0
 10
29.6121
 20
-24.5196
 30
0.0
 10
29.6121
 20
-24.5196
 30
0.0
 10
33.0732
 20
6.2193
 30
0.0
 10
33.0732
 20
6.2193
 30
0.0
  0
SPLINE
  5
79
330
1F
100
AcDbEntity
  8
AXIS
 62
   250
100
AcDbSpline
210
0.0
220
0.0
230
1.0
 70
    24
 71
     3
 72
     8
 73
     4
 74
     0
 42
0.0000000001
 43
0.0000000001
 40
0.0
 40
0.0
 40
0.0
 40
0.0
 40
1.0
 40
1.0
 40
1.0
 40
1.0
 10
5.4248
 20
-25.0824
 30
0.0
 10
5.4248
 20
-25.0824
 30
0.0
 10
19.0879
 20
-25.0824
 30
0.0
 10
19.0879
 20
-25.0824
 30
0.0
  0
SPLINE
  5
7A
330
1F
100
AcDbEntity
  8
AXIS
 62
   250
100
AcDbSpline
210
0.0
220
0.0
230
1.0
 70
     8
 71
     3
 72
    60
 73
    56
 74
     0
 42
0.0000000001
 43
0.0000000001
 40
0.0
 40
0.0
 40
0.0
 40
0.0
 40
0.0666666666666667
 40
0.0666666666666667
 40
0.0666666666666667
 40
0.0666666666666667
 40
0.1333333333333333
 40
0.1333333333333333
 40
0.1333333333333333
 40
0.1333333333333333
 40
0.2
 40
0.2
 40
0.2
 40
0.2
 40
0.2666666666666667
 40
0.2666666666666667
 40
0.2666666666666667
 40
0.2666666666666667
 40
0.3333333333333333
 40
0.3333333333333333
 40
0.3333333333333333
 40
0.3333333333333333
 40
0.4
 40
0.4
 40
0.4
 40
0.4
 40
0.4666666666666667
 40
0.4666666666666667
 40
0.4666666666666667
 40
0.4666666666666667
 40
0.5333333333333333
 40
0.5333333333333333
 40
0.5333333333333333
 40
0.5333333333333333
 40
0.6
 40
0.6
 40
0.6
 40
0.6
 40
0.6666666666666666
 40
0.6666666666666666
 40
0.6666666666666666
 40
0.6666666666666666
 40
0.7333333333333333
 40
0.7333333333333333
 40
0.7333333333333333
 40
0.7333333333333333
 40
0.8
 40
0.8
 40
0.8
 40
0.8
 40
0.8666666666666667
 40
0.8666666666666667
 40
0.8666666666666667
 40
0.8666666666666667
 40
1.0
 40
1.0
 40
1.0
 40
1.0
 10
20.4635
 20
-25.0803
 30
0.0
 10
20.4635
 20
-25.0803
 30
0.0
 10
23.4268
 20
-25.0824
 30
0.0
 10
23.4268
 20
-25.0824
 30
0.0
 10
23.4268
 20
-25.0824
 30
0.0
 10
23.4268
 20
-25.0824
 30
0.0
 10
23.5393
 20
-25.0526
 30
0.0
 10
23.5393
 20
-25.0526
 30
0.0
 10
23.5393
 20
-25.0526
 30
0.0
 10
23.5393
 20
-25.0526
 30
0.0
 10
23.6463
 20
-25.0122
 30
0.0
 10
23.6463
 20
-25.0122
 30
0.0
 10
23.6463
 20
-25.0122
 30
0.0
 10
23.6463
 20
-25.0122
 30
0.0
 10
23.7467
 20
-24.9624
 30
0.0
 10
23.7467
 20
-24.9624
 30
0.0
 10
23.7467
 20
-24.9624
 30
0.0
 10
23.7467
 20
-24.9624
 30
0.0
 10
23.8399
 20
-24.9042
 30
0.0
 10
23.8399
 20
-24.9042
 30
0.0
 10
23.8399
 20
-24.9042
 30
0.0
 10
23.8399
 20
-24.9042
 30
0.0
 10
24.002
 20
-24.7667
 30
0.0
 10
24.002
 20
-24.7667
 30
0.0
 10
24.002
 20
-24.7667
 30
0.0
 10
24.002
 20
-24.7667
 30
0.0
 10
24.1295
 20
-24.6087
 30
0.0
 10
24.1295
 20
-24.6087
 30
0.0
 10
24.1295
 20
-24.6087
 30
0.0
 10
24.1295
 20
-24.6087
 30
0.0
 10
24.2213
 20
-24.438
 30
0.0
 10
24.2213
 20
-24.438
 30
0.0
 10
24.2213
 20
-24.438
 30
0.0
 10
24.2213
 20
-24.438
 30
0.0
 10
24.2764
 20
-24.2615
 30
0.0
 10
24.2764
 20
-24.2615
 30
0.0
 10
24.2764
 20
-24.2615
 30
0.0
 10
24.2764
 20
-24.2615
 30
0.0
 10
24.2898
 20
-24.173
 30
0.0
 10
24.2898
 20
-24.173
 30
0.0
 10
24.2898
 20
-24.173
 30
0.0
 10
24.2898
 20
-24.173
 30
0.0
 10
24.2938
 20
-24.0857
 30
0.0
 10
24.2938
 20
-24.0857
 30
0.0
 10
24.2938
 20
-24.0857
 30
0.0
 10
24.2938
 20
-24.0857
 30
0.0
 10
24.2883
 20
-24.0002
 30
0.0
 10
24.2883
 20
-24.0002
 30
0.0
 10
24.2883
 20
-24.0002
 30
0.0
 10
24.2883
 20
-24.0002
 30
0.0
 10
24.2735
 20
-23.9179
 30
0.0
 10
24.2735
 20
-23.9179
 30
0.0
 10
24.2735
 20
-23.9179
 30
0.0
 10
24.2735
 20
-23.9179
 30
0.0
 10
24.6044
 20
-21.0639
 30
0.0
 10
24.6044
 20
-21.0639
 30
0.0
  0
SPLINE
  5
7B
330
1F
100
AcDbEntity
  8
AXIS
 62
   250
100
AcDbSpline
210
0.0
220
0.0
230
1.0
 70
    24
 71
     3
 72
     8
 73
     4
 74
     0
 42
0.0000000001
 43
0.0000000001
 40
0.0
 40
0.0
 40
0.0
 40
0.0
 40
1.0
 40
1.0
 40
1.0
 40
1.0
 10
24.7714
 20
-19.5005
 30
0.0
 10
24.7714
 20
-19.5005
 30
0.0
 10
27.7389
 20
6.8282
 30
0.0
 10
27.7389
 20
6.8282
 30
0.0
  0
SPLINE
  5
7C
330
1F
100
AcDbEntity
  8
AXIS
 62
   250
100
AcDbSpline
210
0.0
220
0.0
230
1.0
 70
     8
 71
     3
 72
    44
 73
    40
 74
     0
 42
0.0000000001
 43
0.0000000001
 40
0.0
 40
0.0
 40
0.0
 40
0.0
 40
0.0909090909090909
 40
0.0909090909090909
 40
0.0909090909090909
 40
0.0909090909090909
 40
0.1818181818181818
 40
0.1818181818181818
 40
0.1818181818181818
 40
0.1818181818181818
 40
0.2727272727272727
 40
0.2727272727272727
 40
0.2727272727272727
 40
0.2727272727272727
 40
0.3636363636363636
 40
0.3636363636363636
 40
0.3636363636363636
 40
0.3636363636363636
 40
0.4545454545454545
 40
0.4545454545454545
 40
0.4545454545454545
 40
0.4545454545454545
 40
0.5454545454545454
 40
0.5454545454545454
 40
0.5454545454545454
 40
0.5454545454545454
 40
0.6363636363636364
 40
0.6363636363636364
 40
0.6363636363636364
 40
0.6363636363636364
 40
0.7272727272727273
 40
0.7272727272727273
 40
0.7272727272727273
 40
0.7272727272727273
 40
0.8181818181818182
 40
0.8181818181818182
 40
0.8181818181818182
 40
0.8181818181818182
 40
1.0
 40
1.0
 40
1.0
 40
1.0
 10
32.5697
 20
14.7631
 30
0.0
 10
32.5697
 20
14.7631
 30
0.0
 10
28.7277
 20
15.1956
 30
0.0
 10
28.7277
 20
15.1956
 30
0.0
 10
28.7277
 20
15.1956
 30
0.0
 10
28.7277
 20
15.1956
 30
0.0
 10
28.633
 20
15.1956
 30
0.0
 10
28.633
 20
15.1956
 30
0.0
 10
28.633
 20
15.1956
 30
0.0
 10
28.633
 20
15.1956
 30
0.0
 10
28.5488
 20
15.1428
 30
0.0
 10
28.5488
 20
15.1428
 30
0.0
 10
28.5488
 20
15.1428
 30
0.0
 10
28.5488
 20
15.1428
 30
0.0
 10
28.0014
 20
11.3457
 30
0.0
 10
28.0014
 20
11.3457
 30
0.0
 10
28.0014
 20
11.3457
 30
0.0
 10
28.0014
 20
11.3457
 30
0.0
 10
27.8218
 20
11.2063
 30
0.0
 10
27.8218
 20
11.2063
 30
0.0
 10
27.8218
 20
11.2063
 30
0.0
 10
27.8218
 20
11.2063
 30
0.0
 10
27.3493
 20
7.0136
 30
0.0
 10
27.3493
 20
7.0136
 30
0.0
 10
27.3493
 20
7.0136
 30
0.0
 10
27.3493
 20
7.0136
 30
0.0
 10
27.3641
 20
6.924
 30
0.0
 10
27.3641
 20
6.924
 30
0.0
 10
27.3641
 20
6.924
 30
0.0
 10
27.3641
 20
6.924
 30
0.0
 10
27.4489
 20
6.8135
 30
0.0
 10
27.4489
 20
6.8135
 30
0.0
 10
27.4489
 20
6.8135
 30
0.0
 10
27.4489
 20
6.8135
 30
0.0
 10
27.5252
 20
6.8135
 30
0.0
 10
27.5252
 20
6.8135
 30
0.0
 10
27.5252
 20
6.8135
 30
0.0
 10
27.5252
 20
6.8135
 30
0.0
 10
31.1205
 20
6.4227
 30
0.0
 10
31.1205
 20
6.4227
 30
0.0
  0
SPLINE
  5
7D
330
1F
100
AcDbEntity
  8
AXIS
 62
   250
100
AcDbSpline
210
0.0
220
0.0
230
1.0
 70
    24
 71
     3
 72
     8
 73
     4
 74
     0
 42
0.0000000001
 43
0.0000000001
 40
0.0
 40
0.0
 40
0.0
 40
0.0
 40
1.0
 40
1.0
 40
1.0
 40
1.0
 10
33.8442
 20
10.6723
 30
0.0
 10
33.8442
 20
10.6723
 30
0.0
 10
32.6565
 20
10.8061
 30
0.0
 10
32.6565
 20
10.8061
 30
0.0
  0
SPLINE
  5
7E
330
1F
100
AcDbEntity
  8
AXIS
 62
   250
100
AcDbSpline
210
0.0
220
0.0
230
1.0
 70
    24
 71
     3
 72
     8
 73
     4
 74
     0
 42
0.0000000001
 43
0.0000000001
 40
0.0
 40
0.0
 40
0.0
 40
0.0
 40
1.0
 40
1.0
 40
1.0
 40
1.0
 10
31.8863
 20
10.8929
 30
0.0
 10
31.8863
 20
10.8929
 30
0.0
 10
27.981
 20
11.3331
 30
0.0
 10
27.981
 20
11.3331
 30
0.0
  0
SPLINE
  5
7F
330
1F
100
AcDbEntity
  8
AXIS
 62
   250
100
AcDbSpline
210
0.0
220
0.0
230
1.0
 70
     8
 71
     3
 72
    44
 73
    40
 74
     0
 42
0.0000000001
 43
0.0000000001
 40
0.0
 40
0.0
 40
0.0
 40
0.0
 40
0.0909090909090909
 40
0.0909090909090909
 40
0.0909090909090909
 40
0.0909090909090909
 40
0.1818181818181818
 40
0.1818181818181818
 40
0.1818181818181818
 40
0.1818181818181818
 40
0.2727272727272727
 40
0.2727272727272727
 40
0.2727272727272727
 40
0.2727272727272727
 40
0.3636363636363636
 40
0.3636363636363636
 40
0.3636363636363636
 40
0.3636363636363636
 40
0.4545454545454545
 40
0.4545454545454545
 40
0.4545454545454545
 40
0.4545454545454545
 40
0.5454545454545454
 40
0.5454545454545454
 40
0.5454545454545454
 40
0.5454545454545454
 40
0.6363636363636364
 40
0.6363636363636364
 40
0.6363636363636364
 40
0.6363636363636364
 40
0.7272727272727273
 40
0.7272727272727273
 40
0.7272727272727273
 40
0.7272727272727273
 40
0.8181818181818182
 40
0.8181818181818182
 40
0.8181818181818182
 40
0.8181818181818182
 40
1.0
 40
1.0
 40
1.0
 40
1.0
 10
31.8673
 20
6.3578
 30
0.0
 10
31.8673
 20
6.3578
 30
0.0
 10
33.3086
 20
6.1797
 30
0.0
 10
33.3086
 20
6.1797
 30
0.0
 10
33.3086
 20
6.1797
 30
0.0
 10
33.3086
 20
6.1797
 30
0.0
 10
33.3898
 20
6.1952
 30
0.0
 10
33.3898
 20
6.1952
 30
0.0
 10
33.3898
 20
6.1952
 30
0.0
 10
33.3898
 20
6.1952
 30
0.0
 10
33.4516
 20
6.2455
 30
0.0
 10
33.4516
 20
6.2455
 30
0.0
 10
33.4516
 20
6.2455
 30
0.0
 10
33.4516
 20
6.2455
 30
0.0
 10
33.4986
 20
6.3205
 30
0.0
 10
33.4986
 20
6.3205
 30
0.0
 10
33.4986
 20
6.3205
 30
0.0
 10
33.4986
 20
6.3205
 30
0.0
 10
33.9711
 20
10.5132
 30
0.0
 10
33.9711
 20
10.5132
 30
0.0
 10
33.9711
 20
10.5132
 30
0.0
 10
33.9711
 20
10.5132
 30
0.0
 10
33.8551
 20
10.6684
 30
0.0
 10
33.8551
 20
10.6684
 30
0.0
 10
33.8551
 20
10.6684
 30
0.0
 10
33.8551
 20
10.6684
 30
0.0
 10
34.1339
 20
14.4454
 30
0.0
 10
34.1339
 20
14.4454
 30
0.0
 10
34.1339
 20
14.4454
 30
0.0
 10
34.1339
 20
14.4454
 30
0.0
 10
34.1339
 20
14.5385
 30
0.0
 10
34.1339
 20
14.5385
 30
0.0
 10
34.1339
 20
14.5385
 30
0.0
 10
34.1339
 20
14.5385
 30
0.0
 10
34.0011
 20
14.605
 30
0.0
 10
34.0011
 20
14.605
 30
0.0
 10
34.0011
 20
14.605
 30
0.0
 10
34.0011
 20
14.605
 30
0.0
 10
33.3508
 20
14.6582
 30
0.0
 10
33.3508
 20
14.6582
 30
0.0
  0
SPLINE
  5
80
330
1F
100
AcDbEntity
  8
AXIS
 62
   250
100
AcDbSpline
210
0.0
220
0.0
230
1.0
 70
     8
 71
     3
 72
    20
 73
    16
 74
     0
 42
0.0000000001
 43
0.0000000001
 40
0.0
 40
0.0
 40
0.0
 40
0.0
 40
0.2
 40
0.2
 40
0.2
 40
0.2
 40
0.4
 40
0.4
 40
0.4
 40
0.4
 40
0.6
 40
0.6
 40
0.6
 40
0.6
 40
1.0
 40
1.0
 40
1.0
 40
1.0
 10
33.5499
 20
20.3262
 30
0.0
 10
33.5499
 20
20.3262
 30
0.0
 10
29.6144
 20
20.7698
 30
0.0
 10
29.6144
 20
20.7698
 30
0.0
 10
29.6144
 20
20.7698
 30
0.0
 10
29.6144
 20
20.7698
 30
0.0
 10
29.5571
 20
20.3455
 30
0.0
 10
29.5571
 20
20.3455
 30
0.0
 10
29.5571
 20
20.3455
 30
0.0
 10
29.5571
 20
20.3455
 30
0.0
 10
29.839
 20
20.312
 30
0.0
 10
29.839
 20
20.312
 30
0.0
 10
29.839
 20
20.312
 30
0.0
 10
29.839
 20
20.312
 30
0.0
 10
29.8153
 20
20.0238
 30
0.0
 10
29.8153
 20
20.0238
 30
0.0
  0
SPLINE
  5
81
330
1F
100
AcDbEntity
  8
AXIS
 62
   250
100
AcDbSpline
210
0.0
220
0.0
230
1.0
 70
     8
 71
     3
 72
   132
 73
   128
 74
     0
 42
0.0000000001
 43
0.0000000001
 40
0.0
 40
0.0
 40
0.0
 40
0.0
 40
0.0303030303030303
 40
0.0303030303030303
 40
0.0303030303030303
 40
0.0303030303030303
 40
0.0606060606060606
 40
0.0606060606060606
 40
0.0606060606060606
 40
0.0606060606060606
 40
0.0909090909090909
 40
0.0909090909090909
 40
0.0909090909090909
 40
0.0909090909090909
 40
0.1212121212121212
 40
0.1212121212121212
 40
0.1212121212121212
 40
0.1212121212121212
 40
0.1515151515151515
 40
0.1515151515151515
 40
0.1515151515151515
 40
0.1515151515151515
 40
0.1818181818181818
 40
0.1818181818181818
 40
0.1818181818181818
 40
0.1818181818181818
 40
0.2121212121212121
 40
0.2121212121212121
 40
0.2121212121212121
 40
0.2121212121212121
 40
0.2424242424242424
 40
0.2424242424242424
 40
0.2424242424242424
 40
0.2424242424242424
 40
0.2727272727272727
 40
0.2727272727272727
 40
0.2727272727272727
 40
0.2727272727272727
 40
0.303030303030303
 40
0.303030303030303
 40
0.303030303030303
 40
0.303030303030303
 40
0.3333333333333333
 40
0.3333333333333333
 40
0.3333333333333333
 40
0.3333333333333333
 40
0.3636363636363636
 40
0.3636363636363636
 40
0.3636363636363636
 40
0.3636363636363636
 40
0.3939393939393939
 40
0.3939393939393939
 40
0.3939393939393939
 40
0.3939393939393939
 40
0.4242424242424243
 40
0.4242424242424243
 40
0.4242424242424243
 40
0.4242424242424243
 40
0.4545454545454545
 40
0.4545454545454545
 40
0.4545454545454545
 40
0.4545454545454545
 40
0.4848484848484849
 40
0.4848484848484849
 40
0.4848484848484849
 40
0.4848484848484849
 40
0.5151515151515151
 40
0.5151515151515151
 40
0.5151515151515151
 40
0.5151515151515151
 40
0.5454545454545454
 40
0.5454545454545454
 40
0.5454545454545454
 40
0.5454545454545454
 40
0.5757575757575758
 40
0.5757575757575758
 40
0.5757575757575758
 40
0.5757575757575758
 40
0.6060606060606061
 40
0.6060606060606061
 40
0.6060606060606061
 40
0.6060606060606061
 40
0.6363636363636364
 40
0.6363636363636364
 40
0.6363636363636364
 40
0.6363636363636364
 40
0.6666666666666666
 40
0.6666666666666666
 40
0.6666666666666666
 40
0.6666666666666666
 40
0.696969696969697
 40
0.696969696969697
 40
0.696969696969697
 40
0.696969696969697
 40
0.7272727272727273
 40
0.7272727272727273
 40
0.7272727272727273
 40
0.7272727272727273
 40
0.7575757575757576
 40
0.7575757575757576
 40
0.7575757575757576
 40
0.7575757575757576
 40
0.7878787878787878
 40
0.7878787878787878
 40
0.7878787878787878
 40
0.7878787878787878
 40
0.8181818181818182
 40
0.8181818181818182
 40
0.8181818181818182
 40
0.8181818181818182
 40
0.8484848484848485
 40
0.8484848484848485
 40
0.8484848484848485
 40
0.8484848484848485
 40
0.8787878787878788
 40
0.8787878787878788
 40
0.8787878787878788
 40
0.8787878787878788
 40
0.9090909090909091
 40
0.9090909090909091
 40
0.9090909090909091
 40
0.9090909090909091
 40
0.9393939393939394
 40
0.9393939393939394
 40
0.9393939393939394
 40
0.9393939393939394
 40
1.0
 40
1.0
 40
1.0
 40
1.0
 10
33.4426
 20
14.6772
 30
0.0
 10
33.4426
 20
14.6772
 30
0.0
 10
33.4741
 20
14.9567
 30
0.0
 10
33.4741
 20
14.9567
 30
0.0
 10
33.4741
 20
14.9567
 30
0.0
 10
33.4741
 20
14.9567
 30
0.0
 10
33.7374
 20
14.9236
 30
0.0
 10
33.7374
 20
14.9236
 30
0.0
 10
33.7374
 20
14.9236
 30
0.0
 10
33.7374
 20
14.9236
 30
0.0
 10
33.791
 20
15.3453
 30
0.0
 10
33.791
 20
15.3453
 30
0.0
 10
33.791
 20
15.3453
 30
0.0
 10
33.791
 20
15.3453
 30
0.0
 10
33.4898
 20
15.3908
 30
0.0
 10
33.4898
 20
15.3908
 30
0.0
 10
33.4898
 20
15.3908
 30
0.0
 10
33.4898
 20
15.3908
 30
0.0
 10
33.5311
 20
15.6719
 30
0.0
 10
33.5311
 20
15.6719
 30
0.0
 10
33.5311
 20
15.6719
 30
0.0
 10
33.5311
 20
15.6719
 30
0.0
 10
33.8446
 20
15.6181
 30
0.0
 10
33.8446
 20
15.6181
 30
0.0
 10
33.8446
 20
15.6181
 30
0.0
 10
33.8446
 20
15.6181
 30
0.0
 10
33.89
 20
16.0521
 30
0.0
 10
33.89
 20
16.0521
 30
0.0
 10
33.89
 20
16.0521
 30
0.0
 10
33.89
 20
16.0521
 30
0.0
 10
33.5806
 20
16.0893
 30
0.0
 10
33.5806
 20
16.0893
 30
0.0
 10
33.5806
 20
16.0893
 30
0.0
 10
33.5806
 20
16.0893
 30
0.0
 10
33.6095
 20
16.3746
 30
0.0
 10
33.6095
 20
16.3746
 30
0.0
 10
33.6095
 20
16.3746
 30
0.0
 10
33.6095
 20
16.3746
 30
0.0
 10
33.9024
 20
16.3333
 30
0.0
 10
33.9024
 20
16.3333
 30
0.0
 10
33.9024
 20
16.3333
 30
0.0
 10
33.9024
 20
16.3333
 30
0.0
 10
33.9601
 20
16.7507
 30
0.0
 10
33.9601
 20
16.7507
 30
0.0
 10
33.9601
 20
16.7507
 30
0.0
 10
33.9601
 20
16.7507
 30
0.0
 10
33.692
 20
16.7756
 30
0.0
 10
33.692
 20
16.7756
 30
0.0
 10
33.692
 20
16.7756
 30
0.0
 10
33.692
 20
16.7756
 30
0.0
 10
33.7332
 20
17.0649
 30
0.0
 10
33.7332
 20
17.0649
 30
0.0
 10
33.7332
 20
17.0649
 30
0.0
 10
33.7332
 20
17.0649
 30
0.0
 10
33.9849
 20
17.0277
 30
0.0
 10
33.9849
 20
17.0277
 30
0.0
 10
33.9849
 20
17.0277
 30
0.0
 10
33.9849
 20
17.0277
 30
0.0
 10
34.0303
 20
17.4521
 30
0.0
 10
34.0303
 20
17.4521
 30
0.0
 10
34.0303
 20
17.4521
 30
0.0
 10
34.0303
 20
17.4521
 30
0.0
 10
33.8096
 20
17.4662
 30
0.0
 10
33.8096
 20
17.4662
 30
0.0
 10
33.8096
 20
17.4662
 30
0.0
 10
33.8096
 20
17.4662
 30
0.0
 10
33.8424
 20
17.7627
 30
0.0
 10
33.8424
 20
17.7627
 30
0.0
 10
33.8424
 20
17.7627
 30
0.0
 10
33.8424
 20
17.7627
 30
0.0
 10
34.0631
 20
17.7251
 30
0.0
 10
34.0631
 20
17.7251
 30
0.0
 10
34.0631
 20
17.7251
 30
0.0
 10
34.0631
 20
17.7251
 30
0.0
 10
34.1101
 20
18.1392
 30
0.0
 10
34.1101
 20
18.1392
 30
0.0
 10
34.1101
 20
18.1392
 30
0.0
 10
34.1101
 20
18.1392
 30
0.0
 10
33.8753
 20
18.1627
 30
0.0
 10
33.8753
 20
18.1627
 30
0.0
 10
33.8753
 20
18.1627
 30
0.0
 10
33.8753
 20
18.1627
 30
0.0
 10
33.8988
 20
18.4357
 30
0.0
 10
33.8988
 20
18.4357
 30
0.0
 10
33.8988
 20
18.4357
 30
0.0
 10
33.8988
 20
18.4357
 30
0.0
 10
34.1477
 20
18.4121
 30
0.0
 10
34.1477
 20
18.4121
 30
0.0
 10
34.1477
 20
18.4121
 30
0.0
 10
34.1477
 20
18.4121
 30
0.0
 10
34.19
 20
18.8404
 30
0.0
 10
34.19
 20
18.8404
 30
0.0
 10
34.19
 20
18.8404
 30
0.0
 10
34.19
 20
18.8404
 30
0.0
 10
33.9598
 20
18.8639
 30
0.0
 10
33.9598
 20
18.8639
 30
0.0
 10
33.9598
 20
18.8639
 30
0.0
 10
33.9598
 20
18.8639
 30
0.0
 10
34.0021
 20
19.1792
 30
0.0
 10
34.0021
 20
19.1792
 30
0.0
 10
34.0021
 20
19.1792
 30
0.0
 10
34.0021
 20
19.1792
 30
0.0
 10
34.2369
 20
19.1369
 30
0.0
 10
34.2369
 20
19.1369
 30
0.0
 10
34.2369
 20
19.1369
 30
0.0
 10
34.2369
 20
19.1369
 30
0.0
 10
34.2745
 20
19.5698
 30
0.0
 10
34.2745
 20
19.5698
 30
0.0
 10
34.2745
 20
19.5698
 30
0.0
 10
34.2745
 20
19.5698
 30
0.0
 10
33.9833
 20
19.5792
 30
0.0
 10
33.9833
 20
19.5792
 30
0.0
 10
33.9833
 20
19.5792
 30
0.0
 10
33.9833
 20
19.5792
 30
0.0
 10
34.035
 20
19.8569
 30
0.0
 10
34.035
 20
19.8569
 30
0.0
 10
34.035
 20
19.8569
 30
0.0
 10
34.035
 20
19.8569
 30
0.0
 10
34.3308
 20
19.8192
 30
0.0
 10
34.3308
 20
19.8192
 30
0.0
 10
34.3308
 20
19.8192
 30
0.0
 10
34.3308
 20
19.8192
 30
0.0
 10
34.3731
 20
20.2569
 30
0.0
 10
34.3731
 20
20.2569
 30
0.0
 10
34.3731
 20
20.2569
 30
0.0
 10
34.3731
 20
20.2569
 30
0.0
 10
34.204
 20
20.2616
 30
0.0
 10
34.204
 20
20.2616
 30
0.0
  0
SPLINE
  5
82
330
1F
100
AcDbEntity
  8
AXIS
 62
   250
100
AcDbSpline
210
0.0
220
0.0
230
1.0
 70
     8
 71
     3
 72
    20
 73
    16
 74
     0
 42
0.0000000001
 43
0.0000000001
 40
0.0
 40
0.0
 40
0.0
 40
0.0
 40
0.2
 40
0.2
 40
0.2
 40
0.2
 40
0.4
 40
0.4
 40
0.4
 40
0.4
 40
0.6
 40
0.6
 40
0.6
 40
0.6
 40
1.0
 40
1.0
 40
1.0
 40
1.0
 10
33.4711
 20
19.6277
 30
0.0
 10
33.4711
 20
19.6277
 30
0.0
 10
29.5356
 20
20.0713
 30
0.0
 10
29.5356
 20
20.0713
 30
0.0
 10
29.5356
 20
20.0713
 30
0.0
 10
29.5356
 20
20.0713
 30
0.0
 10
29.4783
 20
19.647
 30
0.0
 10
29.4783
 20
19.647
 30
0.0
 10
29.4783
 20
19.647
 30
0.0
 10
29.4783
 20
19.647
 30
0.0
 10
29.7892
 20
19.6037
 30
0.0
 10
29.7892
 20
19.6037
 30
0.0
 10
29.7892
 20
19.6037
 30
0.0
 10
29.7892
 20
19.6037
 30
0.0
 10
29.7474
 20
19.3739
 30
0.0
 10
29.7474
 20
19.3739
 30
0.0
  0
SPLINE
  5
83
330
1F
100
AcDbEntity
  8
AXIS
 62
   250
100
AcDbSpline
210
0.0
220
0.0
230
1.0
 70
     8
 71
     3
 72
    20
 73
    16
 74
     0
 42
0.0000000001
 43
0.0000000001
 40
0.0
 40
0.0
 40
0.0
 40
0.0
 40
0.2
 40
0.2
 40
0.2
 40
0.2
 40
0.4
 40
0.4
 40
0.4
 40
0.4
 40
0.6
 40
0.6
 40
0.6
 40
0.6
 40
1.0
 40
1.0
 40
1.0
 40
1.0
 10
33.3667
 20
18.9497
 30
0.0
 10
33.3667
 20
18.9497
 30
0.0
 10
29.4313
 20
19.3933
 30
0.0
 10
29.4313
 20
19.3933
 30
0.0
 10
29.4313
 20
19.3933
 30
0.0
 10
29.4313
 20
19.3933
 30
0.0
 10
29.374
 20
18.9691
 30
0.0
 10
29.374
 20
18.9691
 30
0.0
 10
29.374
 20
18.9691
 30
0.0
 10
29.374
 20
18.9691
 30
0.0
 10
29.6752
 20
18.9258
 30
0.0
 10
29.6752
 20
18.9258
 30
0.0
 10
29.6752
 20
18.9258
 30
0.0
 10
29.6752
 20
18.9258
 30
0.0
 10
29.6601
 20
18.6755
 30
0.0
 10
29.6601
 20
18.6755
 30
0.0
  0
SPLINE
  5
84
330
1F
100
AcDbEntity
  8
AXIS
 62
   250
100
AcDbSpline
210
0.0
220
0.0
230
1.0
 70
     8
 71
     3
 72
    20
 73
    16
 74
     0
 42
0.0000000001
 43
0.0000000001
 40
0.0
 40
0.0
 40
0.0
 40
0.0
 40
0.2
 40
0.2
 40
0.2
 40
0.2
 40
0.4
 40
0.4
 40
0.4
 40
0.4
 40
0.6
 40
0.6
 40
0.6
 40
0.6
 40
1.0
 40
1.0
 40
1.0
 40
1.0
 10
33.3167
 20
18.2453
 30
0.0
 10
33.3167
 20
18.2453
 30
0.0
 10
29.3812
 20
18.6889
 30
0.0
 10
29.3812
 20
18.6889
 30
0.0
 10
29.3812
 20
18.6889
 30
0.0
 10
29.3812
 20
18.6889
 30
0.0
 10
29.3239
 20
18.2646
 30
0.0
 10
29.3239
 20
18.2646
 30
0.0
 10
29.3239
 20
18.2646
 30
0.0
 10
29.3239
 20
18.2646
 30
0.0
 10
29.664
 20
18.2116
 30
0.0
 10
29.664
 20
18.2116
 30
0.0
 10
29.664
 20
18.2116
 30
0.0
 10
29.664
 20
18.2116
 30
0.0
 10
29.631
 20
17.9771
 30
0.0
 10
29.631
 20
17.9771
 30
0.0
  0
SPLINE
  5
85
330
1F
100
AcDbEntity
  8
AXIS
 62
   250
100
AcDbSpline
210
0.0
220
0.0
230
1.0
 70
     8
 71
     3
 72
    20
 73
    16
 74
     0
 42
0.0000000001
 43
0.0000000001
 40
0.0
 40
0.0
 40
0.0
 40
0.0
 40
0.2
 40
0.2
 40
0.2
 40
0.2
 40
0.4
 40
0.4
 40
0.4
 40
0.4
 40
0.6
 40
0.6
 40
0.6
 40
0.6
 40
1.0
 40
1.0
 40
1.0
 40
1.0
 10
33.2451
 20
17.539
 30
0.0
 10
33.2451
 20
17.539
 30
0.0
 10
29.3096
 20
17.9826
 30
0.0
 10
29.3096
 20
17.9826
 30
0.0
 10
29.3096
 20
17.9826
 30
0.0
 10
29.3096
 20
17.9826
 30
0.0
 10
29.2523
 20
17.5584
 30
0.0
 10
29.2523
 20
17.5584
 30
0.0
 10
29.2523
 20
17.5584
 30
0.0
 10
29.2523
 20
17.5584
 30
0.0
 10
29.5598
 20
17.5205
 30
0.0
 10
29.5598
 20
17.5205
 30
0.0
 10
29.5598
 20
17.5205
 30
0.0
 10
29.5598
 20
17.5205
 30
0.0
 10
29.5259
 20
17.2788
 30
0.0
 10
29.5259
 20
17.2788
 30
0.0
  0
SPLINE
  5
86
330
1F
100
AcDbEntity
  8
AXIS
 62
   250
100
AcDbSpline
210
0.0
220
0.0
230
1.0
 70
     8
 71
     3
 72
    20
 73
    16
 74
     0
 42
0.0000000001
 43
0.0000000001
 40
0.0
 40
0.0
 40
0.0
 40
0.0
 40
0.2
 40
0.2
 40
0.2
 40
0.2
 40
0.4
 40
0.4
 40
0.4
 40
0.4
 40
0.6
 40
0.6
 40
0.6
 40
0.6
 40
1.0
 40
1.0
 40
1.0
 40
1.0
 10
33.158
 20
16.864
 30
0.0
 10
33.158
 20
16.864
 30
0.0
 10
29.2225
 20
17.3076
 30
0.0
 10
29.2225
 20
17.3076
 30
0.0
 10
29.2225
 20
17.3076
 30
0.0
 10
29.2225
 20
17.3076
 30
0.0
 10
29.1652
 20
16.8833
 30
0.0
 10
29.1652
 20
16.8833
 30
0.0
 10
29.1652
 20
16.8833
 30
0.0
 10
29.1652
 20
16.8833
 30
0.0
 10
29.4928
 20
16.8538
 30
0.0
 10
29.4928
 20
16.8538
 30
0.0
 10
29.4928
 20
16.8538
 30
0.0
 10
29.4928
 20
16.8538
 30
0.0
 10
29.467
 20
16.569
 30
0.0
 10
29.467
 20
16.569
 30
0.0
  0
SPLINE
  5
87
330
1F
100
AcDbEntity
  8
AXIS
 62
   250
100
AcDbSpline
210
0.0
220
0.0
230
1.0
 70
     8
 71
     3
 72
    20
 73
    16
 74
     0
 42
0.0000000001
 43
0.0000000001
 40
0.0
 40
0.0
 40
0.0
 40
0.0
 40
0.2
 40
0.2
 40
0.2
 40
0.2
 40
0.4
 40
0.4
 40
0.4
 40
0.4
 40
0.6
 40
0.6
 40
0.6
 40
0.6
 40
1.0
 40
1.0
 40
1.0
 40
1.0
 10
33.0709
 20
16.1454
 30
0.0
 10
33.0709
 20
16.1454
 30
0.0
 10
29.1354
 20
16.589
 30
0.0
 10
29.1354
 20
16.589
 30
0.0
 10
29.1354
 20
16.589
 30
0.0
 10
29.1354
 20
16.589
 30
0.0
 10
29.0781
 20
16.1648
 30
0.0
 10
29.0781
 20
16.1648
 30
0.0
 10
29.0781
 20
16.1648
 30
0.0
 10
29.0781
 20
16.1648
 30
0.0
 10
29.3958
 20
16.114
 30
0.0
 10
29.3958
 20
16.114
 30
0.0
 10
29.3958
 20
16.114
 30
0.0
 10
29.3958
 20
16.114
 30
0.0
 10
29.3534
 20
15.7908
 30
0.0
 10
29.3534
 20
15.7908
 30
0.0
  0
SPLINE
  5
88
330
1F
100
AcDbEntity
  8
AXIS
 62
   250
100
AcDbSpline
210
0.0
220
0.0
230
1.0
 70
     8
 71
     3
 72
    20
 73
    16
 74
     0
 42
0.0000000001
 43
0.0000000001
 40
0.0
 40
0.0
 40
0.0
 40
0.0
 40
0.2
 40
0.2
 40
0.2
 40
0.2
 40
0.4
 40
0.4
 40
0.4
 40
0.4
 40
0.6
 40
0.6
 40
0.6
 40
0.6
 40
1.0
 40
1.0
 40
1.0
 40
1.0
 10
33.0056
 20
15.4269
 30
0.0
 10
33.0056
 20
15.4269
 30
0.0
 10
29.0701
 20
15.8705
 30
0.0
 10
29.0701
 20
15.8705
 30
0.0
 10
29.0701
 20
15.8705
 30
0.0
 10
29.0701
 20
15.8705
 30
0.0
 10
29.0128
 20
15.4462
 30
0.0
 10
29.0128
 20
15.4462
 30
0.0
 10
29.0128
 20
15.4462
 30
0.0
 10
29.0128
 20
15.4462
 30
0.0
 10
29.314
 20
15.3932
 30
0.0
 10
29.314
 20
15.3932
 30
0.0
 10
29.314
 20
15.3932
 30
0.0
 10
29.314
 20
15.3932
 30
0.0
 10
29.2818
 20
15.135
 30
0.0
 10
29.2818
 20
15.135
 30
0.0
  0
SPLINE
  5
89
330
1F
100
AcDbEntity
  8
AXIS
 62
     7
100
AcDbSpline
210
0.0
220
0.0
230
1.0
 70
    11
 71
     3
 72
    20
 73
    16
 74
     0
 42
0.0000000001
 43
0.0000000001
 40
0.0
 40
0.0
 40
0.0
 40
0.0
 40
0.2
 40
0.2
 40
0.2
 40
0.2
 40
0.4
 40
0.4
 40
0.4
 40
0.4
 40
0.6
 40
0.6
 40
0.6
 40
0.6
 40
1.0
 40
1.0
 40
1.0
 40
1.0
 10
-3.7546
 20
-28.0528
 30
0.0
 10
-3.7546
 20
-28.0528
 30
0.0
 10
-2.3417
 20
-28.0528
 30
0.0
 10
-2.3417
 20
-28.0528
 30
0.0
 10
-2.3417
 20
-28.0528
 30
0.0
 10
-2.3417
 20
-28.0528
 30
0.0
 10
-2.3417
 20
-29.3375
 30
0.0
 10
-2.3417
 20
-29.3375
 30
0.0
 10
-2.3417
 20
-29.3375
 30
0.0
 10
-2.3417
 20
-29.3375
 30
0.0
 10
-3.7546
 20
-29.3375
 30
0.0
 10
-3.7546
 20
-29.3375
 30
0.0
 10
-3.7546
 20
-29.3375
 30
0.0
 10
-3.7546
 20
-29.3375
 30
0.0
 10
-3.7546
 20
-28.0528
 30
0.0
 10
-3.7546
 20
-28.0528
 30
0.0
  0
SPLINE
  5
8A
330
1F
100
AcDbEntity
  8
AXIS
 62
     7
100
AcDbSpline
210
0.0
220
0.0
230
1.0
 70
    11
 71
     3
 72
   200
 73
   196
 74
     0
 42
0.0000000001
 43
0.0000000001
 40
0.0
 40
0.0
 40
0.0
 40
0.0
 40
0.02
 40
0.02
 40
0.02
 40
0.02
 40
0.04
 40
0.04
 40
0.04
 40
0.04
 40
0.06
 40
0.06
 40
0.06
 40
0.06
 40
0.08
 40
0.08
 40
0.08
 40
0.08
 40
0.1
 40
0.1
 40
0.1
 40
0.1
 40
0.12
 40
0.12
 40
0.12
 40
0.12
 40
0.14
 40
0.14
 40
0.14
 40
0.14
 40
0.16
 40
0.16
 40
0.16
 40
0.16
 40
0.18
 40
0.18
 40
0.18
 40
0.18
 40
0.2
 40
0.2
 40
0.2
 40
0.2
 40
0.22
 40
0.22
 40
0.22
 40
0.22
 40
0.24
 40
0.24
 40
0.24
 40
0.24
 40
0.26
 40
0.26
 40
0.26
 40
0.26
 40
0.28
 40
0.28
 40
0.28
 40
0.28
 40
0.3
 40
0.3
 40
0.3
 40
0.3
 40
0.32
 40
0.32
 40
0.32
 40
0.32
 40
0.34
 40
0.34
 40
0.34
 40
0.34
 40
0.36
 40
0.36
 40
0.36
 40
0.36
 40
0.38
 40
0.38
 40
0.38
 40
0.38
 40
0.4
 40
0.4
 40
0.4
 40
0.4
 40
0.42
 40
0.42
 40
0.42
 40
0.42
 40
0.44
 40
0.44
 40
0.44
 40
0.44
 40
0.46
 40
0.46
 40
0.46
 40
0.46
 40
0.48
 40
0.48
 40
0.48
 40
0.48
 40
0.5
 40
0.5
 40
0.5
 40
0.5
 40
0.52
 40
0.52
 40
0.52
 40
0.52
 40
0.54
 40
0.54
 40
0.54
 40
0.54
 40
0.56
 40
0.56
 40
0.56
 40
0.56
 40
0.58
 40
0.58
 40
0.58
 40
0.58
 40
0.6
 40
0.6
 40
0.6
 40
0.6
 40
0.62
 40
0.62
 40
0.62
 40
0.62
 40
0.64
 40
0.64
 40
0.64
 40
0.64
 40
0.66
 40
0.66
 40
0.66
 40
0.66
 40
0.68
 40
0.68
 40
0.68
 40
0.68
 40
0.7
 40
0.7
 40
0.7
 40
0.7
 40
0.72
 40
0.72
 40
0.72
 40
0.72
 40
0.74
 40
0.74
 40
0.74
 40
0.74
 40
0.76
 40
0.76
 40
0.76
 40
0.76
 40
0.78
 40
0.78
 40
0.78
 40
0.78
 40
0.8
 40
0.8
 40
0.8
 40
0.8
 40
0.82
 40
0.82
 40
0.82
 40
0.82
 40
0.84
 40
0.84
 40
0.84
 40
0.84
 40
0.86
 40
0.86
 40
0.86
 40
0.86
 40
0.88
 40
0.88
 40
0.88
 40
0.88
 40
0.9
 40
0.9
 40
0.9
 40
0.9
 40
0.92
 40
0.92
 40
0.92
 40
0.92
 40
0.94
 40
0.94
 40
0.94
 40
0.94
 40
0.96
 40
0.96
 40
0.96
 40
0.96
 40
1.0
 40
1.0
 40
1.0
 40
1.0
 10
28.6411
 20
-11.9624
 30
0.0
 10
28.6411
 20
-11.9624
 30
0.0
 10
28.372
 20
-13.2483
 30
0.0
 10
28.372
 20
-13.2483
 30
0.0
 10
28.372
 20
-13.2483
 30
0.0
 10
28.372
 20
-13.2483
 30
0.0
 10
28.0218
 20
-14.5148
 30
0.0
 10
28.0218
 20
-14.5148
 30
0.0
 10
28.0218
 20
-14.5148
 30
0.0
 10
28.0218
 20
-14.5148
 30
0.0
 10
27.592
 20
-15.7564
 30
0.0
 10
27.592
 20
-15.7564
 30
0.0
 10
27.592
 20
-15.7564
 30
0.0
 10
27.592
 20
-15.7564
 30
0.0
 10
27.0844
 20
-16.9684
 30
0.0
 10
27.0844
 20
-16.9684
 30
0.0
 10
27.0844
 20
-16.9684
 30
0.0
 10
27.0844
 20
-16.9684
 30
0.0
 10
26.5008
 20
-18.1456
 30
0.0
 10
26.5008
 20
-18.1456
 30
0.0
 10
26.5008
 20
-18.1456
 30
0.0
 10
26.5008
 20
-18.1456
 30
0.0
 10
25.8437
 20
-19.2835
 30
0.0
 10
25.8437
 20
-19.2835
 30
0.0
 10
25.8437
 20
-19.2835
 30
0.0
 10
25.8437
 20
-19.2835
 30
0.0
 10
25.1157
 20
-20.3775
 30
0.0
 10
25.1157
 20
-20.3775
 30
0.0
 10
25.1157
 20
-20.3775
 30
0.0
 10
25.1157
 20
-20.3775
 30
0.0
 10
24.3199
 20
-21.4229
 30
0.0
 10
24.3199
 20
-21.4229
 30
0.0
 10
24.3199
 20
-21.4229
 30
0.0
 10
24.3199
 20
-21.4229
 30
0.0
 10
23.4594
 20
-22.416
 30
0.0
 10
23.4594
 20
-22.416
 30
0.0
 10
23.4594
 20
-22.416
 30
0.0
 10
23.4594
 20
-22.416
 30
0.0
 10
22.5375
 20
-23.3525
 30
0.0
 10
22.5375
 20
-23.3525
 30
0.0
 10
22.5375
 20
-23.3525
 30
0.0
 10
22.5375
 20
-23.3525
 30
0.0
 10
21.5582
 20
-24.2285
 30
0.0
 10
21.5582
 20
-24.2285
 30
0.0
 10
21.5582
 20
-24.2285
 30
0.0
 10
21.5582
 20
-24.2285
 30
0.0
 10
20.5253
 20
-25.0407
 30
0.0
 10
20.5253
 20
-25.0407
 30
0.0
 10
20.5253
 20
-25.0407
 30
0.0
 10
20.5253
 20
-25.0407
 30
0.0
 10
19.4428
 20
-25.7858
 30
0.0
 10
19.4428
 20
-25.7858
 30
0.0
 10
19.4428
 20
-25.7858
 30
0.0
 10
19.4428
 20
-25.7858
 30
0.0
 10
18.3153
 20
-26.4607
 30
0.0
 10
18.3153
 20
-26.4607
 30
0.0
 10
18.3153
 20
-26.4607
 30
0.0
 10
18.3153
 20
-26.4607
 30
0.0
 10
17.1473
 20
-27.0629
 30
0.0
 10
17.1473
 20
-27.0629
 30
0.0
 10
17.1473
 20
-27.0629
 30
0.0
 10
17.1473
 20
-27.0629
 30
0.0
 10
15.9434
 20
-27.5896
 30
0.0
 10
15.9434
 20
-27.5896
 30
0.0
 10
15.9434
 20
-27.5896
 30
0.0
 10
15.9434
 20
-27.5896
 30
0.0
 10
14.7085
 20
-28.0389
 30
0.0
 10
14.7085
 20
-28.0389
 30
0.0
 10
14.7085
 20
-28.0389
 30
0.0
 10
14.7085
 20
-28.0389
 30
0.0
 10
13.4476
 20
-28.4092
 30
0.0
 10
13.4476
 20
-28.4092
 30
0.0
 10
13.4476
 20
-28.4092
 30
0.0
 10
13.4476
 20
-28.4092
 30
0.0
 10
12.1658
 20
-28.6987
 30
0.0
 10
12.1658
 20
-28.6987
 30
0.0
 10
12.1658
 20
-28.6987
 30
0.0
 10
12.1658
 20
-28.6987
 30
0.0
 10
10.8681
 20
-28.9062
 30
0.0
 10
10.8681
 20
-28.9062
 30
0.0
 10
10.8681
 20
-28.9062
 30
0.0
 10
10.8681
 20
-28.9062
 30
0.0
 10
9.56
 20
-29.0312
 30
0.0
 10
9.56
 20
-29.0312
 30
0.0
 10
9.56
 20
-29.0312
 30
0.0
 10
9.56
 20
-29.0312
 30
0.0
 10
8.2465
 20
-29.0728
 30
0.0
 10
8.2465
 20
-29.0728
 30
0.0
 10
8.2465
 20
-29.0728
 30
0.0
 10
8.2465
 20
-29.0728
 30
0.0
 10
-2.3024
 20
-29.0825
 30
0.0
 10
-2.3024
 20
-29.0825
 30
0.0
 10
-2.3024
 20
-29.0825
 30
0.0
 10
-2.3024
 20
-29.0825
 30
0.0
 10
-2.3024
 20
-28.2931
 30
0.0
 10
-2.3024
 20
-28.2931
 30
0.0
 10
-2.3024
 20
-28.2931
 30
0.0
 10
-2.3024
 20
-28.2931
 30
0.0
 10
8.2465
 20
-28.2995
 30
0.0
 10
8.2465
 20
-28.2995
 30
0.0
 10
8.2465
 20
-28.2995
 30
0.0
 10
8.2465
 20
-28.2995
 30
0.0
 10
9.5711
 20
-28.2554
 30
0.0
 10
9.5711
 20
-28.2554
 30
0.0
 10
9.5711
 20
-28.2554
 30
0.0
 10
9.5711
 20
-28.2554
 30
0.0
 10
10.8898
 20
-28.1235
 30
0.0
 10
10.8898
 20
-28.1235
 30
0.0
 10
10.8898
 20
-28.1235
 30
0.0
 10
10.8898
 20
-28.1235
 30
0.0
 10
12.1968
 20
-27.9042
 30
0.0
 10
12.1968
 20
-27.9042
 30
0.0
 10
12.1968
 20
-27.9042
 30
0.0
 10
12.1968
 20
-27.9042
 30
0.0
 10
13.4862
 20
-27.5987
 30
0.0
 10
13.4862
 20
-27.5987
 30
0.0
 10
13.4862
 20
-27.5987
 30
0.0
 10
13.4862
 20
-27.5987
 30
0.0
 10
14.7526
 20
-27.2081
 30
0.0
 10
14.7526
 20
-27.2081
 30
0.0
 10
14.7526
 20
-27.2081
 30
0.0
 10
14.7526
 20
-27.2081
 30
0.0
 10
15.9903
 20
-26.7342
 30
0.0
 10
15.9903
 20
-26.7342
 30
0.0
 10
15.9903
 20
-26.7342
 30
0.0
 10
15.9903
 20
-26.7342
 30
0.0
 10
17.1935
 20
-26.1792
 30
0.0
 10
17.1935
 20
-26.1792
 30
0.0
 10
17.1935
 20
-26.1792
 30
0.0
 10
17.1935
 20
-26.1792
 30
0.0
 10
18.3575
 20
-25.5455
 30
0.0
 10
18.3575
 20
-25.5455
 30
0.0
 10
18.3575
 20
-25.5455
 30
0.0
 10
18.3575
 20
-25.5455
 30
0.0
 10
19.4767
 20
-24.8359
 30
0.0
 10
19.4767
 20
-24.8359
 30
0.0
 10
19.4767
 20
-24.8359
 30
0.0
 10
19.4767
 20
-24.8359
 30
0.0
 10
20.5462
 20
-24.0535
 30
0.0
 10
20.5462
 20
-24.0535
 30
0.0
 10
20.5462
 20
-24.0535
 30
0.0
 10
20.5462
 20
-24.0535
 30
0.0
 10
21.5615
 20
-23.2017
 30
0.0
 10
21.5615
 20
-23.2017
 30
0.0
 10
21.5615
 20
-23.2017
 30
0.0
 10
21.5615
 20
-23.2017
 30
0.0
 10
22.5178
 20
-22.2845
 30
0.0
 10
22.5178
 20
-22.2845
 30
0.0
 10
22.5178
 20
-22.2845
 30
0.0
 10
22.5178
 20
-22.2845
 30
0.0
 10
23.4112
 20
-21.3057
 30
0.0
 10
23.4112
 20
-21.3057
 30
0.0
 10
23.4112
 20
-21.3057
 30
0.0
 10
23.4112
 20
-21.3057
 30
0.0
 10
24.2374
 20
-20.2698
 30
0.0
 10
24.2374
 20
-20.2698
 30
0.0
 10
24.2374
 20
-20.2698
 30
0.0
 10
24.2374
 20
-20.2698
 30
0.0
 10
24.993
 20
-19.1811
 30
0.0
 10
24.993
 20
-19.1811
 30
0.0
 10
24.993
 20
-19.1811
 30
0.0
 10
24.993
 20
-19.1811
 30
0.0
 10
25.6747
 20
-18.0449
 30
0.0
 10
25.6747
 20
-18.0449
 30
0.0
 10
25.6747
 20
-18.0449
 30
0.0
 10
25.6747
 20
-18.0449
 30
0.0
 10
26.2793
 20
-16.8657
 30
0.0
 10
26.2793
 20
-16.8657
 30
0.0
 10
26.2793
 20
-16.8657
 30
0.0
 10
26.2793
 20
-16.8657
 30
0.0
 10
26.8042
 20
-15.649
 30
0.0
 10
26.8042
 20
-15.649
 30
0.0
 10
26.8042
 20
-15.649
 30
0.0
 10
26.8042
 20
-15.649
 30
0.0
 10
27.2471
 20
-14.4001
 30
0.0
 10
27.2471
 20
-14.4001
 30
0.0
 10
27.2471
 20
-14.4001
 30
0.0
 10
27.2471
 20
-14.4001
 30
0.0
 10
27.606
 20
-13.1246
 30
0.0
 10
27.606
 20
-13.1246
 30
0.0
 10
27.606
 20
-13.1246
 30
0.0
 10
27.606
 20
-13.1246
 30
0.0
 10
27.8794
 20
-11.8281
 30
0.0
 10
27.8794
 20
-11.8281
 30
0.0
 10
27.8794
 20
-11.8281
 30
0.0
 10
27.8794
 20
-11.8281
 30
0.0
 10
33.9739
 20
22.7673
 30
0.0
 10
33.9739
 20
22.7673
 30
0.0
 10
33.9739
 20
22.7673
 30
0.0
 10
33.9739
 20
22.7673
 30
0.0
 10
34.7772
 20
22.6868
 30
0.0
 10
34.7772
 20
22.6868
 30
0.0
 10
34.7772
 20
22.6868
 30
0.0
 10
34.7772
 20
22.6868
 30
0.0
 10
28.6411
 20
-11.9624
 30
0.0
 10
28.6411
 20
-11.9624
 30
0.0
  0
SPLINE
  5
8B
330
1F
100
AcDbEntity
  8
AXIS
 62
     7
100
AcDbSpline
210
0.0
220
0.0
230
1.0
 70
    11
 71
     3
 72
    44
 73
    40
 74
     0
 42
0.0000000001
 43
0.0000000001
 40
0.0
 40
0.0
 40
0.0
 40
0.0
 40
0.0909090909090909
 40
0.0909090909090909
 40
0.0909090909090909
 40
0.0909090909090909
 40
0.1818181818181818
 40
0.1818181818181818
 40
0.1818181818181818
 40
0.1818181818181818
 40
0.2727272727272727
 40
0.2727272727272727
 40
0.2727272727272727
 40
0.2727272727272727
 40
0.3636363636363636
 40
0.3636363636363636
 40
0.3636363636363636
 40
0.3636363636363636
 40
0.4545454545454545
 40
0.4545454545454545
 40
0.4545454545454545
 40
0.4545454545454545
 40
0.5454545454545454
 40
0.5454545454545454
 40
0.5454545454545454
 40
0.5454545454545454
 40
0.6363636363636364
 40
0.6363636363636364
 40
0.6363636363636364
 40
0.6363636363636364
 40
0.7272727272727273
 40
0.7272727272727273
 40
0.7272727272727273
 40
0.7272727272727273
 40
0.8181818181818182
 40
0.8181818181818182
 40
0.8181818181818182
 40
0.8181818181818182
 40
1.0
 40
1.0
 40
1.0
 40
1.0
 10
25.8439
 20
22.5817
 30
0.0
 10
25.5097
 20
25.8086
 30
0.0
 10
25.8773
 20
29.0696
 30
0.0
 10
26.9213
 20
32.1412
 30
0.0
 10
26.9213
 20
32.1412
 30
0.0
 10
26.9213
 20
32.1412
 30
0.0
 10
27.0258
 20
32.3913
 30
0.0
 10
27.0258
 20
32.3913
 30
0.0
 10
27.0258
 20
32.3913
 30
0.0
 10
27.0258
 20
32.3913
 30
0.0
 10
27.13
 20
32.4733
 30
0.0
 10
27.13
 20
32.4733
 30
0.0
 10
27.13
 20
32.4733
 30
0.0
 10
27.13
 20
32.4733
 30
0.0
 10
27.2715
 20
32.4957
 30
0.0
 10
27.2715
 20
32.4957
 30
0.0
 10
27.2715
 20
32.4957
 30
0.0
 10
27.2715
 20
32.4957
 30
0.0
 10
29.4232
 20
32.4882
 30
0.0
 10
29.4232
 20
32.4882
 30
0.0
 10
29.4232
 20
32.4882
 30
0.0
 10
29.4232
 20
32.4882
 30
0.0
 10
28.1704
 20
21.6745
 30
0.0
 10
28.1704
 20
21.6745
 30
0.0
 10
28.1704
 20
21.6745
 30
0.0
 10
28.1704
 20
21.6745
 30
0.0
 10
26.0338
 20
22.1759
 30
0.0
 10
26.0338
 20
22.1759
 30
0.0
 10
26.0338
 20
22.1759
 30
0.0
 10
26.0338
 20
22.1759
 30
0.0
 10
25.9727
 20
22.2142
 30
0.0
 10
25.9727
 20
22.2142
 30
0.0
 10
25.9727
 20
22.2142
 30
0.0
 10
25.9727
 20
22.2142
 30
0.0
 10
25.8964
 20
22.2983
 30
0.0
 10
25.8964
 20
22.2983
 30
0.0
 10
25.8964
 20
22.2983
 30
0.0
 10
25.8964
 20
22.2983
 30
0.0
 10
25.8439
 20
22.5817
 30
0.0
 10
25.8439
 20
22.5817
 30
0.0
  0
SPLINE
  5
8C
330
1F
100
AcDbEntity
  8
AXIS
 62
   250
100
AcDbSpline
210
0.0
220
0.0
230
1.0
 70
     8
 71
     3
 72
    56
 73
    52
 74
     0
 42
0.0000000001
 43
0.0000000001
 40
0.0
 40
0.0
 40
0.0
 40
0.0
 40
0.0714285714285714
 40
0.0714285714285714
 40
0.0714285714285714
 40
0.0714285714285714
 40
0.1428571428571428
 40
0.1428571428571428
 40
0.1428571428571428
 40
0.1428571428571428
 40
0.2142857142857143
 40
0.2142857142857143
 40
0.2142857142857143
 40
0.2142857142857143
 40
0.2857142857142857
 40
0.2857142857142857
 40
0.2857142857142857
 40
0.2857142857142857
 40
0.3571428571428572
 40
0.3571428571428572
 40
0.3571428571428572
 40
0.3571428571428572
 40
0.4285714285714285
 40
0.4285714285714285
 40
0.4285714285714285
 40
0.4285714285714285
 40
0.5
 40
0.5
 40
0.5
 40
0.5
 40
0.5714285714285714
 40
0.5714285714285714
 40
0.5714285714285714
 40
0.5714285714285714
 40
0.6428571428571429
 40
0.6428571428571429
 40
0.6428571428571429
 40
0.6428571428571429
 40
0.7142857142857143
 40
0.7142857142857143
 40
0.7142857142857143
 40
0.7142857142857143
 40
0.7857142857142857
 40
0.7857142857142857
 40
0.7857142857142857
 40
0.7857142857142857
 40
0.8571428571428571
 40
0.8571428571428571
 40
0.8571428571428571
 40
0.8571428571428571
 40
1.0
 40
1.0
 40
1.0
 40
1.0
 10
26.0194
 20
22.2039
 30
0.0
 10
26.0194
 20
22.2039
 30
0.0
 10
26.2184
 20
23.7843
 30
0.0
 10
26.2184
 20
23.7843
 30
0.0
 10
26.2184
 20
23.7843
 30
0.0
 10
26.2184
 20
23.7843
 30
0.0
 10
26.1716
 20
24.112
 30
0.0
 10
26.1716
 20
24.112
 30
0.0
 10
26.1716
 20
24.112
 30
0.0
 10
26.1716
 20
24.112
 30
0.0
 10
26.1716
 20
24.3813
 30
0.0
 10
26.1716
 20
24.3813
 30
0.0
 10
26.1716
 20
24.3813
 30
0.0
 10
26.1716
 20
24.3813
 30
0.0
 10
26.1833
 20
24.7325
 30
0.0
 10
26.1833
 20
24.7325
 30
0.0
 10
26.1833
 20
24.7325
 30
0.0
 10
26.1833
 20
24.7325
 30
0.0
 10
26.2184
 20
25.0134
 30
0.0
 10
26.2184
 20
25.0134
 30
0.0
 10
26.2184
 20
25.0134
 30
0.0
 10
26.2184
 20
25.0134
 30
0.0
 10
26.2886
 20
25.3295
 30
0.0
 10
26.2886
 20
25.3295
 30
0.0
 10
26.2886
 20
25.3295
 30
0.0
 10
26.2886
 20
25.3295
 30
0.0
 10
26.4056
 20
25.6953
 30
0.0
 10
26.4056
 20
25.6953
 30
0.0
 10
26.4056
 20
25.6953
 30
0.0
 10
26.4056
 20
25.6953
 30
0.0
 10
26.7759
 20
28.9807
 30
0.0
 10
26.7759
 20
28.9807
 30
0.0
 10
26.7759
 20
28.9807
 30
0.0
 10
26.7759
 20
28.9807
 30
0.0
 10
26.728
 20
29.4484
 30
0.0
 10
26.728
 20
29.4484
 30
0.0
 10
26.728
 20
29.4484
 30
0.0
 10
26.728
 20
29.4484
 30
0.0
 10
26.7762
 20
30.028
 30
0.0
 10
26.7762
 20
30.028
 30
0.0
 10
26.7762
 20
30.028
 30
0.0
 10
26.7762
 20
30.028
 30
0.0
 10
26.8886
 20
30.4466
 30
0.0
 10
26.8886
 20
30.4466
 30
0.0
 10
26.8886
 20
30.4466
 30
0.0
 10
26.8886
 20
30.4466
 30
0.0
 10
26.985
 20
30.8652
 30
0.0
 10
26.985
 20
30.8652
 30
0.0
 10
26.985
 20
30.8652
 30
0.0
 10
26.985
 20
30.8652
 30
0.0
 10
27.1618
 20
32.4751
 30
0.0
 10
27.1618
 20
32.4751
 30
0.0
  0
SPLINE
  5
8D
330
1F
100
AcDbEntity
  8
AXIS
 62
   250
100
AcDbSpline
210
0.0
220
0.0
230
1.0
 70
     8
 71
     3
 72
    16
 73
    12
 74
     0
 42
0.0000000001
 43
0.0000000001
 40
0.0
 40
0.0
 40
0.0
 40
0.0
 40
0.25
 40
0.25
 40
0.25
 40
0.25
 40
0.5
 40
0.5
 40
0.5
 40
0.5
 40
1.0
 40
1.0
 40
1.0
 40
1.0
 10
28.4324
 20
23.8218
 30
0.0
 10
28.4324
 20
23.8218
 30
0.0
 10
27.7312
 20
23.8065
 30
0.0
 10
27.7312
 20
23.8065
 30
0.0
 10
27.7312
 20
23.8065
 30
0.0
 10
27.7312
 20
23.8065
 30
0.0
 10
26.9877
 20
23.8125
 30
0.0
 10
26.9877
 20
23.8125
 30
0.0
 10
26.9877
 20
23.8125
 30
0.0
 10
26.9877
 20
23.8125
 30
0.0
 10
26.1958
 20
23.8344
 30
0.0
 10
26.1958
 20
23.8344
 30
0.0
  0
SPLINE
  5
8E
330
1F
100
AcDbEntity
  8
AXIS
 62
   250
100
AcDbSpline
210
0.0
220
0.0
230
1.0
 70
     8
 71
     3
 72
    16
 73
    12
 74
     0
 42
0.0000000001
 43
0.0000000001
 40
0.0
 40
0.0
 40
0.0
 40
0.0
 40
0.25
 40
0.25
 40
0.25
 40
0.25
 40
0.5
 40
0.5
 40
0.5
 40
0.5
 40
1.0
 40
1.0
 40
1.0
 40
1.0
 10
26.4056
 20
25.6953
 30
0.0
 10
26.4056
 20
25.6953
 30
0.0
 10
27.1716
 20
25.445
 30
0.0
 10
27.1716
 20
25.445
 30
0.0
 10
27.1716
 20
25.445
 30
0.0
 10
27.1716
 20
25.445
 30
0.0
 10
27.888
 20
25.1971
 30
0.0
 10
27.888
 20
25.1971
 30
0.0
 10
27.888
 20
25.1971
 30
0.0
 10
27.888
 20
25.1971
 30
0.0
 10
28.5589
 20
24.9443
 30
0.0
 10
28.5589
 20
24.9443
 30
0.0
  0
SPLINE
  5
8F
330
1F
100
AcDbEntity
  8
AXIS
 62
   250
100
AcDbSpline
210
0.0
220
0.0
230
1.0
 70
     8
 71
     3
 72
    16
 73
    12
 74
     0
 42
0.0000000001
 43
0.0000000001
 40
0.0
 40
0.0
 40
0.0
 40
0.0
 40
0.25
 40
0.25
 40
0.25
 40
0.25
 40
0.5
 40
0.5
 40
0.5
 40
0.5
 40
1.0
 40
1.0
 40
1.0
 40
1.0
 10
29.0424
 20
29.2335
 30
0.0
 10
29.0424
 20
29.2335
 30
0.0
 10
28.3319
 20
29.1364
 30
0.0
 10
28.3319
 20
29.1364
 30
0.0
 10
28.3319
 20
29.1364
 30
0.0
 10
28.3319
 20
29.1364
 30
0.0
 10
27.5786
 20
29.0542
 30
0.0
 10
27.5786
 20
29.0542
 30
0.0
 10
27.5786
 20
29.0542
 30
0.0
 10
27.5786
 20
29.0542
 30
0.0
 10
26.7759
 20
28.9807
 30
0.0
 10
26.7759
 20
28.9807
 30
0.0
  0
SPLINE
  5
90
330
1F
100
AcDbEntity
  8
AXIS
 62
   250
100
AcDbSpline
210
0.0
220
0.0
230
1.0
 70
     8
 71
     3
 72
    16
 73
    12
 74
     0
 42
0.0000000001
 43
0.0000000001
 40
0.0
 40
0.0
 40
0.0
 40
0.0
 40
0.25
 40
0.25
 40
0.25
 40
0.25
 40
0.5
 40
0.5
 40
0.5
 40
0.5
 40
1.0
 40
1.0
 40
1.0
 40
1.0
 10
26.9856
 20
30.8415
 30
0.0
 10
26.9856
 20
30.8415
 30
0.0
 10
27.7624
 20
30.6868
 30
0.0
 10
27.7624
 20
30.6868
 30
0.0
 10
27.7624
 20
30.6868
 30
0.0
 10
27.7624
 20
30.6868
 30
0.0
 10
28.4887
 20
30.527
 30
0.0
 10
28.4887
 20
30.527
 30
0.0
 10
28.4887
 20
30.527
 30
0.0
 10
28.4887
 20
30.527
 30
0.0
 10
29.1689
 20
30.3561
 30
0.0
 10
29.1689
 20
30.3561
 30
0.0
  0
SPLINE
  5
91
330
1F
100
AcDbEntity
  8
AXIS
 62
   250
100
AcDbSpline
210
0.0
220
0.0
230
1.0
 70
    24
 71
     3
 72
     8
 73
     4
 74
     0
 42
0.0000000001
 43
0.0000000001
 40
0.0
 40
0.0
 40
0.0
 40
0.0
 40
1.0
 40
1.0
 40
1.0
 40
1.0
 10
30.0344
 20
21.6071
 30
0.0
 10
30.0344
 20
21.6071
 30
0.0
 10
29.9359
 20
20.7336
 30
0.0
 10
29.9359
 20
20.7336
 30
0.0
  0
SPLINE
  5
92
330
1F
100
AcDbEntity
  8
AXIS
 62
   250
100
AcDbSpline
210
0.0
220
0.0
230
1.0
 70
     8
 71
     3
 72
    16
 73
    12
 74
     0
 42
0.0000000001
 43
0.0000000001
 40
0.0
 40
0.0
 40
0.0
 40
0.0
 40
0.25
 40
0.25
 40
0.25
 40
0.25
 40
0.5
 40
0.5
 40
0.5
 40
0.5
 40
1.0
 40
1.0
 40
1.0
 40
1.0
 10
35.8195
 20
26.8573
 30
0.0
 10
35.8195
 20
26.8573
 30
0.0
 10
34.8412
 20
26.9676
 30
0.0
 10
34.8412
 20
26.9676
 30
0.0
 10
34.8412
 20
26.9676
 30
0.0
 10
34.8412
 20
26.9676
 30
0.0
 10
34.8574
 20
27.1165
 30
0.0
 10
34.8574
 20
27.1165
 30
0.0
 10
34.8574
 20
27.1165
 30
0.0
 10
34.8574
 20
27.1165
 30
0.0
 10
35.8283
 20
27.0015
 30
0.0
 10
35.8283
 20
27.0015
 30
0.0
  0
SPLINE
  5
93
330
1F
100
AcDbEntity
  8
AXIS
 62
   250
100
AcDbSpline
210
0.0
220
0.0
230
1.0
 70
     8
 71
     3
 72
    24
 73
    20
 74
     0
 42
0.0000000001
 43
0.0000000001
 40
0.0
 40
0.0
 40
0.0
 40
0.0
 40
0.1666666666666667
 40
0.1666666666666667
 40
0.1666666666666667
 40
0.1666666666666667
 40
0.3333333333333333
 40
0.3333333333333333
 40
0.3333333333333333
 40
0.3333333333333333
 40
0.5
 40
0.5
 40
0.5
 40
0.5
 40
0.6666666666666666
 40
0.6666666666666666
 40
0.6666666666666666
 40
0.6666666666666666
 40
1.0
 40
1.0
 40
1.0
 40
1.0
 10
34.7894
 20
22.7342
 30
0.0
 10
35.0981
 20
22.6993
 30
0.0
 10
35.3766
 20
22.9215
 30
0.0
 10
35.4114
 20
23.2301
 30
0.0
 10
35.4114
 20
23.2301
 30
0.0
 10
35.4462
 20
23.5389
 30
0.0
 10
35.2242
 20
23.8173
 30
0.0
 10
34.9154
 20
23.8522
 30
0.0
 10
34.9154
 20
23.8522
 30
0.0
 10
34.9154
 20
23.8522
 30
0.0
 10
34.636
 20
23.8837
 30
0.0
 10
34.636
 20
23.8837
 30
0.0
 10
34.636
 20
23.8837
 30
0.0
 10
34.3272
 20
23.9185
 30
0.0
 10
34.0487
 20
23.6964
 30
0.0
 10
34.0139
 20
23.3876
 30
0.0
 10
34.0139
 20
23.3876
 30
0.0
 10
33.9792
 20
23.079
 30
0.0
 10
34.2011
 20
22.8005
 30
0.0
 10
34.5099
 20
22.7656
 30
0.0
  0
SPLINE
  5
94
330
1F
100
AcDbEntity
  8
AXIS
 62
   250
100
AcDbSpline
210
0.0
220
0.0
230
1.0
 70
    24
 71
     3
 72
     8
 73
     4
 74
     0
 42
0.0000000001
 43
0.0000000001
 40
0.0
 40
0.0
 40
0.0
 40
0.0
 40
1.0
 40
1.0
 40
1.0
 40
1.0
 10
29.2204
 20
26.0631
 30
0.0
 10
29.2204
 20
26.0631
 30
0.0
 10
29.4997
 20
26.0301
 30
0.0
 10
29.4997
 20
26.0301
 30
0.0
  0
SPLINE
  5
95
330
1F
100
AcDbEntity
  8
AXIS
 62
   250
100
AcDbSpline
210
0.0
220
0.0
230
1.0
 70
    24
 71
     3
 72
     8
 73
     4
 74
     0
 42
0.0000000001
 43
0.0000000001
 40
0.0
 40
0.0
 40
0.0
 40
0.0
 40
1.0
 40
1.0
 40
1.0
 40
1.0
 10
29.7179
 20
27.9655
 30
0.0
 10
29.7179
 20
27.9655
 30
0.0
 10
29.4382
 20
27.9955
 30
0.0
 10
29.4382
 20
27.9955
 30
0.0
  0
SPLINE
  5
96
330
1F
100
AcDbEntity
  8
AXIS
 62
   250
100
AcDbSpline
210
0.0
220
0.0
230
1.0
 70
    24
 71
     3
 72
     8
 73
     4
 74
     0
 42
0.0000000001
 43
0.0000000001
 40
0.0
 40
0.0
 40
0.0
 40
0.0
 40
1.0
 40
1.0
 40
1.0
 40
1.0
 10
28.8138
 20
22.4565
 30
0.0
 10
28.8138
 20
22.4565
 30
0.0
 10
28.2872
 20
22.5331
 30
0.0
 10
28.2872
 20
22.5331
 30
0.0
  0
SPLINE
  5
97
330
1F
100
AcDbEntity
  8
AXIS
 62
   250
100
AcDbSpline
210
0.0
220
0.0
230
1.0
 70
    24
 71
     3
 72
     8
 73
     4
 74
     0
 42
0.0000000001
 43
0.0000000001
 40
0.0
 40
0.0
 40
0.0
 40
0.0
 40
1.0
 40
1.0
 40
1.0
 40
1.0
 10
29.3141
 20
31.6448
 30
0.0
 10
29.3141
 20
31.6448
 30
0.0
 10
29.8447
 20
31.6022
 30
0.0
 10
29.8447
 20
31.6022
 30
0.0
  0
SPLINE
  5
98
330
1F
100
AcDbEntity
  8
AXIS
 62
   250
100
AcDbSpline
210
0.0
220
0.0
230
1.0
 70
     8
 71
     3
 72
    20
 73
    16
 74
     0
 42
0.0000000001
 43
0.0000000001
 40
0.0
 40
0.0
 40
0.0
 40
0.0
 40
0.2
 40
0.2
 40
0.2
 40
0.2
 40
0.4
 40
0.4
 40
0.4
 40
0.4
 40
0.6
 40
0.6
 40
0.6
 40
0.6
 40
1.0
 40
1.0
 40
1.0
 40
1.0
 10
31.3913
 20
30.5311
 30
0.0
 10
31.3913
 20
30.5311
 30
0.0
 10
34.2961
 20
30.0103
 30
0.0
 10
34.2961
 20
30.0103
 30
0.0
 10
34.2961
 20
30.0103
 30
0.0
 10
34.2961
 20
30.0103
 30
0.0
 10
33.6696
 20
24.3904
 30
0.0
 10
33.6696
 20
24.3904
 30
0.0
 10
33.6696
 20
24.3904
 30
0.0
 10
33.6696
 20
24.3904
 30
0.0
 10
34.1315
 20
24.4129
 30
0.0
 10
34.1315
 20
24.4129
 30
0.0
 10
34.1315
 20
24.4129
 30
0.0
 10
34.1315
 20
24.4129
 30
0.0
 10
33.9513
 20
22.8468
 30
0.0
 10
33.9513
 20
22.8468
 30
0.0
  0
SPLINE
  5
99
330
1F
100
AcDbEntity
  8
AXIS
 62
   250
100
AcDbSpline
210
0.0
220
0.0
230
1.0
 70
     8
 71
     3
 72
    32
 73
    28
 74
     0
 42
0.0000000001
 43
0.0000000001
 40
0.0
 40
0.0
 40
0.0
 40
0.0
 40
0.125
 40
0.125
 40
0.125
 40
0.125
 40
0.25
 40
0.25
 40
0.25
 40
0.25
 40
0.375
 40
0.375
 40
0.375
 40
0.375
 40
0.5
 40
0.5
 40
0.5
 40
0.5
 40
0.625
 40
0.625
 40
0.625
 40
0.625
 40
0.75
 40
0.75
 40
0.75
 40
0.75
 40
1.0
 40
1.0
 40
1.0
 40
1.0
 10
30.5793
 20
31.842
 30
0.0
 10
30.5793
 20
31.842
 30
0.0
 10
29.8675
 20
31.9222
 30
0.0
 10
29.8675
 20
31.9222
 30
0.0
 10
29.8675
 20
31.9222
 30
0.0
 10
29.8675
 20
31.9222
 30
0.0
 10
29.4358
 20
27.8765
 30
0.0
 10
29.4358
 20
27.8765
 30
0.0
 10
29.4358
 20
27.8765
 30
0.0
 10
29.4358
 20
27.8765
 30
0.0
 10
28.9238
 20
27.9258
 30
0.0
 10
28.9238
 20
27.9258
 30
0.0
 10
28.9238
 20
27.9258
 30
0.0
 10
28.9238
 20
27.9258
 30
0.0
 10
28.7592
 20
26.2262
 30
0.0
 10
28.7592
 20
26.2262
 30
0.0
 10
28.7592
 20
26.2262
 30
0.0
 10
28.7592
 20
26.2262
 30
0.0
 10
29.2357
 20
26.15
 30
0.0
 10
29.2357
 20
26.15
 30
0.0
 10
29.2357
 20
26.15
 30
0.0
 10
29.2357
 20
26.15
 30
0.0
 10
28.7889
 20
22.1542
 30
0.0
 10
28.7889
 20
22.1542
 30
0.0
 10
28.7889
 20
22.1542
 30
0.0
 10
28.7889
 20
22.1542
 30
0.0
 10
29.4627
 20
22.0455
 30
0.0
 10
29.4627
 20
22.0455
 30
0.0
  0
SPLINE
  5
9A
330
1F
100
AcDbEntity
  8
AXIS
 62
   250
100
AcDbSpline
210
0.0
220
0.0
230
1.0
 70
    11
 71
     3
 72
    36
 73
    32
 74
     0
 42
0.0000000001
 43
0.0000000001
 40
0.0
 40
0.0
 40
0.0
 40
0.0
 40
0.1111111111111111
 40
0.1111111111111111
 40
0.1111111111111111
 40
0.1111111111111111
 40
0.2222222222222222
 40
0.2222222222222222
 40
0.2222222222222222
 40
0.2222222222222222
 40
0.3333333333333333
 40
0.3333333333333333
 40
0.3333333333333333
 40
0.3333333333333333
 40
0.4444444444444444
 40
0.4444444444444444
 40
0.4444444444444444
 40
0.4444444444444444
 40
0.5555555555555556
 40
0.5555555555555556
 40
0.5555555555555556
 40
0.5555555555555556
 40
0.6666666666666666
 40
0.6666666666666666
 40
0.6666666666666666
 40
0.6666666666666666
 40
0.7777777777777778
 40
0.7777777777777778
 40
0.7777777777777778
 40
0.7777777777777778
 40
1.0
 40
1.0
 40
1.0
 40
1.0
 10
31.4218
 20
32.1375
 30
0.0
 10
31.4218
 20
32.1375
 30
0.0
 10
30.6226
 20
32.2264
 30
0.0
 10
30.6226
 20
32.2264
 30
0.0
 10
30.6226
 20
32.2264
 30
0.0
 10
30.6226
 20
32.2264
 30
0.0
 10
29.4334
 20
21.6748
 30
0.0
 10
29.4334
 20
21.6748
 30
0.0
 10
29.4334
 20
21.6748
 30
0.0
 10
29.4334
 20
21.6748
 30
0.0
 10
30.0313
 20
21.6061
 30
0.0
 10
30.0313
 20
21.6061
 30
0.0
 10
30.0313
 20
21.6061
 30
0.0
 10
30.0313
 20
21.6061
 30
0.0
 10
30.3055
 20
21.6703
 30
0.0
 10
30.3055
 20
21.6703
 30
0.0
 10
30.3055
 20
21.6703
 30
0.0
 10
30.3055
 20
21.6703
 30
0.0
 10
30.3705
 20
21.7829
 30
0.0
 10
30.3705
 20
21.7829
 30
0.0
 10
30.3705
 20
21.7829
 30
0.0
 10
30.3705
 20
21.7829
 30
0.0
 10
31.5275
 20
32.0686
 30
0.0
 10
31.5275
 20
32.0686
 30
0.0
 10
31.5275
 20
32.0686
 30
0.0
 10
31.5275
 20
32.0686
 30
0.0
 10
31.4861
 20
32.1146
 30
0.0
 10
31.4861
 20
32.1146
 30
0.0
 10
31.4861
 20
32.1146
 30
0.0
 10
31.4861
 20
32.1146
 30
0.0
 10
31.4218
 20
32.1375
 30
0.0
 10
31.4218
 20
32.1375
 30
0.0
  0
SPLINE
  5
9B
330
1F
100
AcDbEntity
  8
AXIS
 62
   250
100
AcDbSpline
210
0.0
220
0.0
230
1.0
 70
    24
 71
     3
 72
     8
 73
     4
 74
     0
 42
0.0000000001
 43
0.0000000001
 40
0.0
 40
0.0
 40
0.0
 40
0.0
 40
1.0
 40
1.0
 40
1.0
 40
1.0
 10
29.0579
 20
22.1104
 30
0.0
 10
29.0579
 20
22.1104
 30
0.0
 10
30.1596
 20
31.8853
 30
0.0
 10
30.1596
 20
31.8853
 30
0.0
  0
SPLINE
  5
9C
330
1F
100
AcDbEntity
  8
AXIS
 62
   250
100
AcDbSpline
210
0.0
220
0.0
230
1.0
 70
     8
 71
     3
 72
    60
 73
    56
 74
     0
 42
0.0000000001
 43
0.0000000001
 40
0.0
 40
0.0
 40
0.0
 40
0.0
 40
0.0666666666666667
 40
0.0666666666666667
 40
0.0666666666666667
 40
0.0666666666666667
 40
0.1333333333333333
 40
0.1333333333333333
 40
0.1333333333333333
 40
0.1333333333333333
 40
0.2
 40
0.2
 40
0.2
 40
0.2
 40
0.2666666666666667
 40
0.2666666666666667
 40
0.2666666666666667
 40
0.2666666666666667
 40
0.3333333333333333
 40
0.3333333333333333
 40
0.3333333333333333
 40
0.3333333333333333
 40
0.4
 40
0.4
 40
0.4
 40
0.4
 40
0.4666666666666667
 40
0.4666666666666667
 40
0.4666666666666667
 40
0.4666666666666667
 40
0.5333333333333333
 40
0.5333333333333333
 40
0.5333333333333333
 40
0.5333333333333333
 40
0.6
 40
0.6
 40
0.6
 40
0.6
 40
0.6666666666666666
 40
0.6666666666666666
 40
0.6666666666666666
 40
0.6666666666666666
 40
0.7333333333333333
 40
0.7333333333333333
 40
0.7333333333333333
 40
0.7333333333333333
 40
0.8
 40
0.8
 40
0.8
 40
0.8
 40
0.8666666666666667
 40
0.8666666666666667
 40
0.8666666666666667
 40
0.8666666666666667
 40
1.0
 40
1.0
 40
1.0
 40
1.0
 10
30.5804
 20
23.3371
 30
0.0
 10
30.5804
 20
23.3371
 30
0.0
 10
30.7103
 20
23.3895
 30
0.0
 10
30.7103
 20
23.3895
 30
0.0
 10
30.7103
 20
23.3895
 30
0.0
 10
30.7103
 20
23.3895
 30
0.0
 10
30.855
 20
23.4444
 30
0.0
 10
30.855
 20
23.4444
 30
0.0
 10
30.855
 20
23.4444
 30
0.0
 10
30.855
 20
23.4444
 30
0.0
 10
31.0139
 20
23.5
 30
0.0
 10
31.0139
 20
23.5
 30
0.0
 10
31.0139
 20
23.5
 30
0.0
 10
31.0139
 20
23.5
 30
0.0
 10
31.1861
 20
23.5543
 30
0.0
 10
31.1861
 20
23.5543
 30
0.0
 10
31.1861
 20
23.5543
 30
0.0
 10
31.1861
 20
23.5543
 30
0.0
 10
31.3729
 20
23.6055
 30
0.0
 10
31.3729
 20
23.6055
 30
0.0
 10
31.3729
 20
23.6055
 30
0.0
 10
31.3729
 20
23.6055
 30
0.0
 10
31.5781
 20
23.6521
 30
0.0
 10
31.5781
 20
23.6521
 30
0.0
 10
31.5781
 20
23.6521
 30
0.0
 10
31.5781
 20
23.6521
 30
0.0
 10
31.8054
 20
23.6905
 30
0.0
 10
31.8054
 20
23.6905
 30
0.0
 10
31.8054
 20
23.6905
 30
0.0
 10
31.8054
 20
23.6905
 30
0.0
 10
32.0611
 20
23.7158
 30
0.0
 10
32.0611
 20
23.7158
 30
0.0
 10
32.0611
 20
23.7158
 30
0.0
 10
32.0611
 20
23.7158
 30
0.0
 10
32.3459
 20
23.7197
 30
0.0
 10
32.3459
 20
23.7197
 30
0.0
 10
32.3459
 20
23.7197
 30
0.0
 10
32.3459
 20
23.7197
 30
0.0
 10
32.5739
 20
23.7068
 30
0.0
 10
32.5739
 20
23.7068
 30
0.0
 10
32.5739
 20
23.7068
 30
0.0
 10
32.5739
 20
23.7068
 30
0.0
 10
32.7698
 20
23.6664
 30
0.0
 10
32.7698
 20
23.6664
 30
0.0
 10
32.7698
 20
23.6664
 30
0.0
 10
32.7698
 20
23.6664
 30
0.0
 10
33.0347
 20
23.5856
 30
0.0
 10
33.0347
 20
23.5856
 30
0.0
 10
33.0347
 20
23.5856
 30
0.0
 10
33.0347
 20
23.5856
 30
0.0
 10
33.2939
 20
23.5164
 30
0.0
 10
33.2939
 20
23.5164
 30
0.0
 10
33.2939
 20
23.5164
 30
0.0
 10
33.2939
 20
23.5164
 30
0.0
 10
33.5358
 20
23.4067
 30
0.0
 10
33.5358
 20
23.4067
 30
0.0
  0
SPLINE
  5
9D
330
1F
100
AcDbEntity
  8
AXIS
 62
   250
100
AcDbSpline
210
0.0
220
0.0
230
1.0
 70
     8
 71
     3
 72
    28
 73
    24
 74
     0
 42
0.0000000001
 43
0.0000000001
 40
0.0
 40
0.0
 40
0.0
 40
0.0
 40
0.1428571428571428
 40
0.1428571428571428
 40
0.1428571428571428
 40
0.1428571428571428
 40
0.2857142857142857
 40
0.2857142857142857
 40
0.2857142857142857
 40
0.2857142857142857
 40
0.4285714285714285
 40
0.4285714285714285
 40
0.4285714285714285
 40
0.4285714285714285
 40
0.5714285714285714
 40
0.5714285714285714
 40
0.5714285714285714
 40
0.5714285714285714
 40
0.7142857142857143
 40
0.7142857142857143
 40
0.7142857142857143
 40
0.7142857142857143
 40
1.0
 40
1.0
 40
1.0
 40
1.0
 10
30.5804
 20
23.3371
 30
0.0
 10
30.5804
 20
23.3371
 30
0.0
 10
30.5688
 20
23.3308
 30
0.0
 10
30.5688
 20
23.3308
 30
0.0
 10
30.5688
 20
23.3308
 30
0.0
 10
30.5688
 20
23.3308
 30
0.0
 10
30.5588
 20
23.3228
 30
0.0
 10
30.5588
 20
23.3228
 30
0.0
 10
30.5588
 20
23.3228
 30
0.0
 10
30.5588
 20
23.3228
 30
0.0
 10
30.5499
 20
23.3135
 30
0.0
 10
30.5499
 20
23.3135
 30
0.0
 10
30.5499
 20
23.3135
 30
0.0
 10
30.5499
 20
23.3135
 30
0.0
 10
30.5428
 20
23.3031
 30
0.0
 10
30.5428
 20
23.3031
 30
0.0
 10
30.5428
 20
23.3031
 30
0.0
 10
30.5428
 20
23.3031
 30
0.0
 10
30.5372
 20
23.2911
 30
0.0
 10
30.5372
 20
23.2911
 30
0.0
 10
30.5372
 20
23.2911
 30
0.0
 10
30.5372
 20
23.2911
 30
0.0
 10
30.5341
 20
23.2786
 30
0.0
 10
30.5341
 20
23.2786
 30
0.0
  0
SPLINE
  5
9E
330
1F
100
AcDbEntity
  8
AXIS
 62
   250
100
AcDbSpline
210
0.0
220
0.0
230
1.0
 70
    24
 71
     3
 72
     8
 73
     4
 74
     0
 42
0.0000000001
 43
0.0000000001
 40
0.0
 40
0.0
 40
0.0
 40
0.0
 40
1.0
 40
1.0
 40
1.0
 40
1.0
 10
33.7382
 20
24.9249
 30
0.0
 10
33.7382
 20
24.9249
 30
0.0
 10
35.5791
 20
24.7174
 30
0.0
 10
35.5791
 20
24.7174
 30
0.0
  0
SPLINE
  5
9F
330
1F
100
AcDbEntity
  8
AXIS
 62
   250
100
AcDbSpline
210
0.0
220
0.0
230
1.0
 70
     8
 71
     3
 72
    56
 73
    52
 74
     0
 42
0.0000000001
 43
0.0000000001
 40
0.0
 40
0.0
 40
0.0
 40
0.0
 40
0.0714285714285714
 40
0.0714285714285714
 40
0.0714285714285714
 40
0.0714285714285714
 40
0.1428571428571428
 40
0.1428571428571428
 40
0.1428571428571428
 40
0.1428571428571428
 40
0.2142857142857143
 40
0.2142857142857143
 40
0.2142857142857143
 40
0.2142857142857143
 40
0.2857142857142857
 40
0.2857142857142857
 40
0.2857142857142857
 40
0.2857142857142857
 40
0.3571428571428572
 40
0.3571428571428572
 40
0.3571428571428572
 40
0.3571428571428572
 40
0.4285714285714285
 40
0.4285714285714285
 40
0.4285714285714285
 40
0.4285714285714285
 40
0.5
 40
0.5
 40
0.5
 40
0.5
 40
0.5714285714285714
 40
0.5714285714285714
 40
0.5714285714285714
 40
0.5714285714285714
 40
0.6428571428571429
 40
0.6428571428571429
 40
0.6428571428571429
 40
0.6428571428571429
 40
0.7142857142857143
 40
0.7142857142857143
 40
0.7142857142857143
 40
0.7142857142857143
 40
0.7857142857142857
 40
0.7857142857142857
 40
0.7857142857142857
 40
0.7857142857142857
 40
0.8571428571428571
 40
0.8571428571428571
 40
0.8571428571428571
 40
0.8571428571428571
 40
1.0
 40
1.0
 40
1.0
 40
1.0
 10
34.1294
 20
24.4115
 30
0.0
 10
34.1294
 20
24.4115
 30
0.0
 10
33.9788
 20
24.2513
 30
0.0
 10
33.9788
 20
24.2513
 30
0.0
 10
33.9788
 20
24.2513
 30
0.0
 10
33.9788
 20
24.2513
 30
0.0
 10
33.8155
 20
24.0969
 30
0.0
 10
33.8155
 20
24.0969
 30
0.0
 10
33.8155
 20
24.0969
 30
0.0
 10
33.8155
 20
24.0969
 30
0.0
 10
33.6377
 20
23.9484
 30
0.0
 10
33.6377
 20
23.9484
 30
0.0
 10
33.6377
 20
23.9484
 30
0.0
 10
33.6377
 20
23.9484
 30
0.0
 10
33.4849
 20
22.8478
 30
0.0
 10
33.4849
 20
22.8478
 30
0.0
 10
33.4849
 20
22.8478
 30
0.0
 10
33.4849
 20
22.8478
 30
0.0
 10
35.3733
 20
22.624
 30
0.0
 10
35.3733
 20
22.624
 30
0.0
 10
35.3733
 20
22.624
 30
0.0
 10
35.3733
 20
22.624
 30
0.0
 10
36.1572
 20
29.9185
 30
0.0
 10
36.1572
 20
29.9185
 30
0.0
 10
36.1572
 20
29.9185
 30
0.0
 10
36.1572
 20
29.9185
 30
0.0
 10
36.3328
 20
29.895
 30
0.0
 10
36.3328
 20
29.895
 30
0.0
 10
36.3328
 20
29.895
 30
0.0
 10
36.3328
 20
29.895
 30
0.0
 10
36.4147
 20
29.8014
 30
0.0
 10
36.4147
 20
29.8014
 30
0.0
 10
36.4147
 20
29.8014
 30
0.0
 10
36.4147
 20
29.8014
 30
0.0
 10
36.4147
 20
29.7194
 30
0.0
 10
36.4147
 20
29.7194
 30
0.0
 10
36.4147
 20
29.7194
 30
0.0
 10
36.4147
 20
29.7194
 30
0.0
 10
35.6494
 20
22.9692
 30
0.0
 10
35.6494
 20
22.9692
 30
0.0
 10
35.6494
 20
22.9692
 30
0.0
 10
35.6494
 20
22.9692
 30
0.0
 10
35.6234
 20
22.917
 30
0.0
 10
35.6234
 20
22.917
 30
0.0
 10
35.6234
 20
22.917
 30
0.0
 10
35.6234
 20
22.917
 30
0.0
 10
35.5524
 20
22.9146
 30
0.0
 10
35.5524
 20
22.9146
 30
0.0
 10
35.5524
 20
22.9146
 30
0.0
 10
35.5524
 20
22.9146
 30
0.0
 10
35.4411
 20
22.9407
 30
0.0
 10
35.4411
 20
22.9407
 30
0.0
  0
SPLINE
  5
A0
330
1F
100
AcDbEntity
  8
AXIS
 62
   250
100
AcDbSpline
210
0.0
220
0.0
230
1.0
 70
    24
 71
     3
 72
     8
 73
     4
 74
     0
 42
0.0000000001
 43
0.0000000001
 40
0.0
 40
0.0
 40
0.0
 40
0.0
 40
1.0
 40
1.0
 40
1.0
 40
1.0
 10
34.2242
 20
29.7329
 30
0.0
 10
34.2242
 20
29.7329
 30
0.0
 10
36.119
 20
29.5194
 30
0.0
 10
36.119
 20
29.5194
 30
0.0
  0
SPLINE
  5
A1
330
1F
100
AcDbEntity
  8
AXIS
 62
   250
100
AcDbSpline
210
0.0
220
0.0
230
1.0
 70
     8
 71
     3
 72
    16
 73
    12
 74
     0
 42
0.0000000001
 43
0.0000000001
 40
0.0
 40
0.0
 40
0.0
 40
0.0
 40
0.25
 40
0.25
 40
0.25
 40
0.25
 40
0.5
 40
0.5
 40
0.5
 40
0.5
 40
1.0
 40
1.0
 40
1.0
 40
1.0
 10
35.6792
 20
25.606
 30
0.0
 10
35.6792
 20
25.606
 30
0.0
 10
34.7009
 20
25.7162
 30
0.0
 10
34.7009
 20
25.7162
 30
0.0
 10
34.7009
 20
25.7162
 30
0.0
 10
34.7009
 20
25.7162
 30
0.0
 10
34.7172
 20
25.8652
 30
0.0
 10
34.7172
 20
25.8652
 30
0.0
 10
34.7172
 20
25.8652
 30
0.0
 10
34.7172
 20
25.8652
 30
0.0
 10
35.6881
 20
25.7501
 30
0.0
 10
35.6881
 20
25.7501
 30
0.0
  0
SPLINE
  5
A2
330
1F
100
AcDbEntity
  8
AXIS
 62
   250
100
AcDbSpline
210
0.0
220
0.0
230
1.0
 70
    11
 71
     3
 72
    20
 73
    16
 74
     0
 42
0.0000000001
 43
0.0000000001
 40
0.0
 40
0.0
 40
0.0
 40
0.0
 40
0.2
 40
0.2
 40
0.2
 40
0.2
 40
0.4
 40
0.4
 40
0.4
 40
0.4
 40
0.6
 40
0.6
 40
0.6
 40
0.6
 40
1.0
 40
1.0
 40
1.0
 40
1.0
 10
36.5245
 20
26.7733
 30
0.0
 10
36.5245
 20
26.7733
 30
0.0
 10
36.3897
 20
25.6769
 30
0.0
 10
36.3897
 20
25.6769
 30
0.0
 10
36.3897
 20
25.6769
 30
0.0
 10
36.3897
 20
25.6769
 30
0.0
 10
35.9746
 20
25.7142
 30
0.0
 10
35.9746
 20
25.7142
 30
0.0
 10
35.9746
 20
25.7142
 30
0.0
 10
35.9746
 20
25.7142
 30
0.0
 10
36.1006
 20
26.8323
 30
0.0
 10
36.1006
 20
26.8323
 30
0.0
 10
36.1006
 20
26.8323
 30
0.0
 10
36.1006
 20
26.8323
 30
0.0
 10
36.5245
 20
26.7733
 30
0.0
 10
36.5245
 20
26.7733
 30
0.0
  0
SPLINE
  5
A3
330
1F
100
AcDbEntity
  8
AXIS
  6
NEW_LINE4
 62
   250
100
AcDbSpline
210
0.0
220
0.0
230
1.0
 70
    24
 71
     3
 72
     8
 73
     4
 74
     0
 42
0.0000000001
 43
0.0000000001
 40
0.0
 40
0.0
 40
0.0
 40
0.0
 40
1.0
 40
1.0
 40
1.0
 40
1.0
 10
24.954
 20
27.5225
 30
0.0
 10
24.954
 20
27.5225
 30
0.0
 10
37.202
 20
26.1421
 30
0.0
 10
37.202
 20
26.1421
 30
0.0
  0
SPLINE
  5
A5
330
1F
100
AcDbEntity
  8
AXIS
 62
   250
100
AcDbSpline
210
0.0
220
0.0
230
1.0
 70
    11
 71
     3
 72
    40
 73
    36
 74
     0
 42
0.0000000001
 43
0.0000000001
 40
0.0
 40
0.0
 40
0.0
 40
0.0
 40
0.1
 40
0.1
 40
0.1
 40
0.1
 40
0.2
 40
0.2
 40
0.2
 40
0.2
 40
0.3
 40
0.3
 40
0.3
 40
0.3
 40
0.4
 40
0.4
 40
0.4
 40
0.4
 40
0.5
 40
0.5
 40
0.5
 40
0.5
 40
0.6
 40
0.6
 40
0.6
 40
0.6
 40
0.7
 40
0.7
 40
0.7
 40
0.7
 40
0.8
 40
0.8
 40
0.8
 40
0.8
 40
1.0
 40
1.0
 40
1.0
 40
1.0
 10
-22.8395
 20
-38.6325
 30
0.0
 10
-22.8395
 20
-38.6325
 30
0.0
 10
-22.8404
 20
-38.8804
 30
0.0
 10
-22.8404
 20
-38.8804
 30
0.0
 10
-22.8404
 20
-38.8804
 30
0.0
 10
-22.8404
 20
-38.8804
 30
0.0
 10
-24.4208
 20
-38.8745
 30
0.0
 10
-24.4208
 20
-38.8745
 30
0.0
 10
-24.4208
 20
-38.8745
 30
0.0
 10
-24.3641
 20
-38.9346
 30
0.0
 10
-24.3075
 20
-39.0128
 30
0.0
 10
-24.251
 20
-39.1099
 30
0.0
 10
-24.251
 20
-39.1099
 30
0.0
 10
-24.1944
 20
-39.2075
 30
0.0
 10
-24.152
 20
-39.2946
 30
0.0
 10
-24.124
 20
-39.3719
 30
0.0
 10
-24.124
 20
-39.3719
 30
0.0
 10
-24.124
 20
-39.3719
 30
0.0
 10
-24.3634
 20
-39.3711
 30
0.0
 10
-24.3634
 20
-39.3711
 30
0.0
 10
-24.3634
 20
-39.3711
 30
0.0
 10
-24.4282
 20
-39.232
 30
0.0
 10
-24.5069
 20
-39.1103
 30
0.0
 10
-24.5991
 20
-39.0061
 30
0.0
 10
-24.5991
 20
-39.0061
 30
0.0
 10
-24.6919
 20
-38.9022
 30
0.0
 10
-24.7814
 20
-38.8281
 30
0.0
 10
-24.8688
 20
-38.7845
 30
0.0
 10
-24.8688
 20
-38.7845
 30
0.0
 10
-24.8688
 20
-38.7845
 30
0.0
 10
-24.8682
 20
-38.625
 30
0.0
 10
-24.8682
 20
-38.625
 30
0.0
 10
-24.8682
 20
-38.625
 30
0.0
 10
-24.8682
 20
-38.625
 30
0.0
 10
-22.8395
 20
-38.6325
 30
0.0
 10
-22.8395
 20
-38.6325
 30
0.0
  0
SPLINE
  5
A6
330
1F
100
AcDbEntity
  8
AXIS
 62
   250
100
AcDbSpline
210
0.0
220
0.0
230
1.0
 70
    11
 71
     3
 72
    92
 73
    88
 74
     0
 42
0.0000000001
 43
0.0000000001
 40
0.0
 40
0.0
 40
0.0
 40
0.0
 40
0.0434782608695652
 40
0.0434782608695652
 40
0.0434782608695652
 40
0.0434782608695652
 40
0.0869565217391304
 40
0.0869565217391304
 40
0.0869565217391304
 40
0.0869565217391304
 40
0.1304347826086956
 40
0.1304347826086956
 40
0.1304347826086956
 40
0.1304347826086956
 40
0.1739130434782609
 40
0.1739130434782609
 40
0.1739130434782609
 40
0.1739130434782609
 40
0.2173913043478261
 40
0.2173913043478261
 40
0.2173913043478261
 40
0.2173913043478261
 40
0.2608695652173913
 40
0.2608695652173913
 40
0.2608695652173913
 40
0.2608695652173913
 40
0.3043478260869565
 40
0.3043478260869565
 40
0.3043478260869565
 40
0.3043478260869565
 40
0.3478260869565217
 40
0.3478260869565217
 40
0.3478260869565217
 40
0.3478260869565217
 40
0.391304347826087
 40
0.391304347826087
 40
0.391304347826087
 40
0.391304347826087
 40
0.4347826086956522
 40
0.4347826086956522
 40
0.4347826086956522
 40
0.4347826086956522
 40
0.4782608695652174
 40
0.4782608695652174
 40
0.4782608695652174
 40
0.4782608695652174
 40
0.5217391304347826
 40
0.5217391304347826
 40
0.5217391304347826
 40
0.5217391304347826
 40
0.5652173913043478
 40
0.5652173913043478
 40
0.5652173913043478
 40
0.5652173913043478
 40
0.6086956521739131
 40
0.6086956521739131
 40
0.6086956521739131
 40
0.6086956521739131
 40
0.6521739130434783
 40
0.6521739130434783
 40
0.6521739130434783
 40
0.6521739130434783
 40
0.6956521739130435
 40
0.6956521739130435
 40
0.6956521739130435
 40
0.6956521739130435
 40
0.7391304347826086
 40
0.7391304347826086
 40
0.7391304347826086
 40
0.7391304347826086
 40
0.782608695652174
 40
0.782608695652174
 40
0.782608695652174
 40
0.782608695652174
 40
0.8260869565217391
 40
0.8260869565217391
 40
0.8260869565217391
 40
0.8260869565217391
 40
0.8695652173913043
 40
0.8695652173913043
 40
0.8695652173913043
 40
0.8695652173913043
 40
0.9130434782608695
 40
0.9130434782608695
 40
0.9130434782608695
 40
0.9130434782608695
 40
1.0
 40
1.0
 40
1.0
 40
1.0
 10
-23.0708
 20
-36.6923
 30
0.0
 10
-23.0708
 20
-36.6923
 30
0.0
 10
-22.8323
 20
-36.6932
 30
0.0
 10
-22.8323
 20
-36.6932
 30
0.0
 10
-22.8323
 20
-36.6932
 30
0.0
 10
-22.8323
 20
-36.6932
 30
0.0
 10
-22.8373
 20
-38.0286
 30
0.0
 10
-22.8373
 20
-38.0286
 30
0.0
 10
-22.8373
 20
-38.0286
 30
0.0
 10
-22.897
 20
-38.0303
 30
0.0
 10
-22.9543
 20
-38.0207
 30
0.0
 10
-23.0094
 20
-37.9993
 30
0.0
 10
-23.0094
 20
-37.9993
 30
0.0
 10
-23.1004
 20
-37.965
 30
0.0
 10
-23.1896
 20
-37.9102
 30
0.0
 10
-23.2777
 20
-37.8351
 30
0.0
 10
-23.2777
 20
-37.8351
 30
0.0
 10
-23.3655
 20
-37.7595
 30
0.0
 10
-23.4671
 20
-37.6509
 30
0.0
 10
-23.5822
 20
-37.5093
 30
0.0
 10
-23.5822
 20
-37.5093
 30
0.0
 10
-23.7616
 20
-37.2891
 30
0.0
 10
-23.9036
 20
-37.1399
 30
0.0
 10
-24.0087
 20
-37.0624
 30
0.0
 10
-24.0087
 20
-37.0624
 30
0.0
 10
-24.1133
 20
-36.9849
 30
0.0
 10
-24.2129
 20
-36.9459
 30
0.0
 10
-24.3065
 20
-36.9456
 30
0.0
 10
-24.3065
 20
-36.9456
 30
0.0
 10
-24.4048
 20
-36.9452
 30
0.0
 10
-24.4877
 20
-36.9802
 30
0.0
 10
-24.5556
 20
-37.0499
 30
0.0
 10
-24.5556
 20
-37.0499
 30
0.0
 10
-24.6232
 20
-37.1203
 30
0.0
 10
-24.6573
 20
-37.2119
 30
0.0
 10
-24.6578
 20
-37.3248
 30
0.0
 10
-24.6578
 20
-37.3248
 30
0.0
 10
-24.6582
 20
-37.4443
 30
0.0
 10
-24.6229
 20
-37.5399
 30
0.0
 10
-24.5511
 20
-37.6117
 30
0.0
 10
-24.5511
 20
-37.6117
 30
0.0
 10
-24.4799
 20
-37.6838
 30
0.0
 10
-24.3808
 20
-37.7204
 30
0.0
 10
-24.2543
 20
-37.7219
 30
0.0
 10
-24.2543
 20
-37.7219
 30
0.0
 10
-24.2543
 20
-37.7219
 30
0.0
 10
-24.2811
 20
-37.9767
 30
0.0
 10
-24.2811
 20
-37.9767
 30
0.0
 10
-24.2811
 20
-37.9767
 30
0.0
 10
-24.4715
 20
-37.9585
 30
0.0
 10
-24.6162
 20
-37.8922
 30
0.0
 10
-24.7154
 20
-37.7779
 30
0.0
 10
-24.7154
 20
-37.7779
 30
0.0
 10
-24.8147
 20
-37.6638
 30
0.0
 10
-24.8641
 20
-37.5103
 30
0.0
 10
-24.8633
 20
-37.3184
 30
0.0
 10
-24.8633
 20
-37.3184
 30
0.0
 10
-24.8626
 20
-37.1246
 30
0.0
 10
-24.808
 20
-36.9714
 30
0.0
 10
-24.7003
 20
-36.8589
 30
0.0
 10
-24.7003
 20
-36.8589
 30
0.0
 10
-24.5921
 20
-36.746
 30
0.0
 10
-24.4588
 20
-36.69
 30
0.0
 10
-24.2998
 20
-36.6906
 30
0.0
 10
-24.2998
 20
-36.6906
 30
0.0
 10
-24.2189
 20
-36.6909
 30
0.0
 10
-24.1395
 20
-36.7077
 30
0.0
 10
-24.0616
 20
-36.7414
 30
0.0
 10
-24.0616
 20
-36.7414
 30
0.0
 10
-23.9836
 20
-36.7746
 30
0.0
 10
-23.9015
 20
-36.83
 30
0.0
 10
-23.8157
 20
-36.9069
 30
0.0
 10
-23.8157
 20
-36.9069
 30
0.0
 10
-23.7294
 20
-36.9839
 30
0.0
 10
-23.6114
 20
-37.1118
 30
0.0
 10
-23.4615
 20
-37.2906
 30
0.0
 10
-23.4615
 20
-37.2906
 30
0.0
 10
-23.337
 20
-37.4398
 30
0.0
 10
-23.2526
 20
-37.5356
 30
0.0
 10
-23.2081
 20
-37.578
 30
0.0
 10
-23.2081
 20
-37.578
 30
0.0
 10
-23.164
 20
-37.6205
 30
0.0
 10
-23.1195
 20
-37.6555
 30
0.0
 10
-23.0745
 20
-37.6834
 30
0.0
 10
-23.0745
 20
-37.6834
 30
0.0
 10
-23.0745
 20
-37.6834
 30
0.0
 10
-23.0708
 20
-36.6923
 30
0.0
 10
-23.0708
 20
-36.6923
 30
0.0
  0
SPLINE
  5
A7
330
1F
100
AcDbEntity
  8
AXIS
 62
   250
100
AcDbSpline
210
0.0
220
0.0
230
1.0
 70
    11
 71
     3
 72
    52
 73
    48
 74
     0
 42
0.0000000001
 43
0.0000000001
 40
0.0
 40
0.0
 40
0.0
 40
0.0
 40
0.0769230769230769
 40
0.0769230769230769
 40
0.0769230769230769
 40
0.0769230769230769
 40
0.1538461538461539
 40
0.1538461538461539
 40
0.1538461538461539
 40
0.1538461538461539
 40
0.2307692307692308
 40
0.2307692307692308
 40
0.2307692307692308
 40
0.2307692307692308
 40
0.3076923076923077
 40
0.3076923076923077
 40
0.3076923076923077
 40
0.3076923076923077
 40
0.3846153846153846
 40
0.3846153846153846
 40
0.3846153846153846
 40
0.3846153846153846
 40
0.4615384615384616
 40
0.4615384615384616
 40
0.4615384615384616
 40
0.4615384615384616
 40
0.5384615384615384
 40
0.5384615384615384
 40
0.5384615384615384
 40
0.5384615384615384
 40
0.6153846153846154
 40
0.6153846153846154
 40
0.6153846153846154
 40
0.6153846153846154
 40
0.6923076923076923
 40
0.6923076923076923
 40
0.6923076923076923
 40
0.6923076923076923
 40
0.7692307692307693
 40
0.7692307692307693
 40
0.7692307692307693
 40
0.7692307692307693
 40
0.8461538461538461
 40
0.8461538461538461
 40
0.8461538461538461
 40
0.8461538461538461
 40
1.0
 40
1.0
 40
1.0
 40
1.0
 10
-23.8275
 20
-36.4238
 30
0.0
 10
-24.0665
 20
-36.4229
 30
0.0
 10
-24.2588
 20
-36.3977
 30
0.0
 10
-24.4039
 20
-36.3478
 30
0.0
 10
-24.4039
 20
-36.3478
 30
0.0
 10
-24.5496
 20
-36.2983
 30
0.0
 10
-24.6617
 20
-36.2245
 30
0.0
 10
-24.7404
 20
-36.1273
 30
0.0
 10
-24.7404
 20
-36.1273
 30
0.0
 10
-24.8191
 20
-36.0301
 30
0.0
 10
-24.8581
 20
-35.9082
 30
0.0
 10
-24.8576
 20
-35.7615
 30
0.0
 10
-24.8576
 20
-35.7615
 30
0.0
 10
-24.8572
 20
-35.6528
 30
0.0
 10
-24.8347
 20
-35.5579
 30
0.0
 10
-24.7906
 20
-35.4762
 30
0.0
 10
-24.7906
 20
-35.4762
 30
0.0
 10
-24.7471
 20
-35.3945
 30
0.0
 10
-24.6838
 20
-35.3274
 30
0.0
 10
-24.6013
 20
-35.2742
 30
0.0
 10
-24.6013
 20
-35.2742
 30
0.0
 10
-24.5188
 20
-35.2214
 30
0.0
 10
-24.4184
 20
-35.1798
 30
0.0
 10
-24.3003
 20
-35.1502
 30
0.0
 10
-24.3003
 20
-35.1502
 30
0.0
 10
-24.1821
 20
-35.12
 30
0.0
 10
-24.023
 20
-35.1056
 30
0.0
 10
-23.8226
 20
-35.1063
 30
0.0
 10
-23.8226
 20
-35.1063
 30
0.0
 10
-23.5856
 20
-35.1072
 30
0.0
 10
-23.3947
 20
-35.1323
 30
0.0
 10
-23.2491
 20
-35.1814
 30
0.0
 10
-23.2491
 20
-35.1814
 30
0.0
 10
-23.1035
 20
-35.2308
 30
0.0
 10
-22.9914
 20
-35.3041
 30
0.0
 10
-22.9122
 20
-35.4013
 30
0.0
 10
-22.9122
 20
-35.4013
 30
0.0
 10
-22.8331
 20
-35.4985
 30
0.0
 10
-22.794
 20
-35.621
 30
0.0
 10
-22.7946
 20
-35.7692
 30
0.0
 10
-22.7946
 20
-35.7692
 30
0.0
 10
-22.7953
 20
-35.9639
 30
0.0
 10
-22.8655
 20
-36.1165
 30
0.0
 10
-23.0056
 20
-36.227
 30
0.0
 10
-23.0056
 20
-36.227
 30
0.0
 10
-23.174
 20
-36.3595
 30
0.0
 10
-23.4484
 20
-36.4252
 30
0.0
 10
-23.8275
 20
-36.4238
 30
0.0
  0
SPLINE
  5
A8
330
1F
100
AcDbEntity
  8
AXIS
 62
   250
100
AcDbSpline
210
0.0
220
0.0
230
1.0
 70
    11
 71
     3
 72
    36
 73
    32
 74
     0
 42
0.0000000001
 43
0.0000000001
 40
0.0
 40
0.0
 40
0.0
 40
0.0
 40
0.1111111111111111
 40
0.1111111111111111
 40
0.1111111111111111
 40
0.1111111111111111
 40
0.2222222222222222
 40
0.2222222222222222
 40
0.2222222222222222
 40
0.2222222222222222
 40
0.3333333333333333
 40
0.3333333333333333
 40
0.3333333333333333
 40
0.3333333333333333
 40
0.4444444444444444
 40
0.4444444444444444
 40
0.4444444444444444
 40
0.4444444444444444
 40
0.5555555555555556
 40
0.5555555555555556
 40
0.5555555555555556
 40
0.5555555555555556
 40
0.6666666666666666
 40
0.6666666666666666
 40
0.6666666666666666
 40
0.6666666666666666
 40
0.7777777777777778
 40
0.7777777777777778
 40
0.7777777777777778
 40
0.7777777777777778
 40
1.0
 40
1.0
 40
1.0
 40
1.0
 10
-23.8266
 20
-36.1688
 30
0.0
 10
-23.495
 20
-36.1701
 30
0.0
 10
-23.2742
 20
-36.1319
 30
0.0
 10
-23.1639
 20
-36.0547
 30
0.0
 10
-23.1639
 20
-36.0547
 30
0.0
 10
-23.0541
 20
-35.9775
 30
0.0
 10
-22.9986
 20
-35.8822
 30
0.0
 10
-22.9982
 20
-35.7684
 30
0.0
 10
-22.9982
 20
-35.7684
 30
0.0
 10
-22.9978
 20
-35.6541
 30
0.0
 10
-23.0529
 20
-35.5584
 30
0.0
 10
-23.1627
 20
-35.4804
 30
0.0
 10
-23.1627
 20
-35.4804
 30
0.0
 10
-23.2725
 20
-35.4024
 30
0.0
 10
-23.493
 20
-35.3625
 30
0.0
 10
-23.8236
 20
-35.3612
 30
0.0
 10
-23.8236
 20
-35.3612
 30
0.0
 10
-24.1562
 20
-35.36
 30
0.0
 10
-24.3774
 20
-35.3983
 30
0.0
 10
-24.4868
 20
-35.4755
 30
0.0
 10
-24.4868
 20
-35.4755
 30
0.0
 10
-24.5967
 20
-35.5527
 30
0.0
 10
-24.6515
 20
-35.6489
 30
0.0
 10
-24.652
 20
-35.7646
 30
0.0
 10
-24.652
 20
-35.7646
 30
0.0
 10
-24.6524
 20
-35.8789
 30
0.0
 10
-24.6043
 20
-35.9698
 30
0.0
 10
-24.5082
 20
-36.0384
 30
0.0
 10
-24.5082
 20
-36.0384
 30
0.0
 10
-24.3857
 20
-36.124
 30
0.0
 10
-24.1582
 20
-36.1676
 30
0.0
 10
-23.8266
 20
-36.1688
 30
0.0
  0
SPLINE
  5
A9
330
1F
100
AcDbEntity
  8
AXIS
 62
   250
100
AcDbSpline
210
0.0
220
0.0
230
1.0
 70
    11
 71
     3
 72
    84
 73
    80
 74
     0
 42
0.0000000001
 43
0.0000000001
 40
0.0
 40
0.0
 40
0.0
 40
0.0
 40
0.0476190476190476
 40
0.0476190476190476
 40
0.0476190476190476
 40
0.0476190476190476
 40
0.0952380952380952
 40
0.0952380952380952
 40
0.0952380952380952
 40
0.0952380952380952
 40
0.1428571428571428
 40
0.1428571428571428
 40
0.1428571428571428
 40
0.1428571428571428
 40
0.1904761904761905
 40
0.1904761904761905
 40
0.1904761904761905
 40
0.1904761904761905
 40
0.2380952380952381
 40
0.2380952380952381
 40
0.2380952380952381
 40
0.2380952380952381
 40
0.2857142857142857
 40
0.2857142857142857
 40
0.2857142857142857
 40
0.2857142857142857
 40
0.3333333333333333
 40
0.3333333333333333
 40
0.3333333333333333
 40
0.3333333333333333
 40
0.3809523809523809
 40
0.3809523809523809
 40
0.3809523809523809
 40
0.3809523809523809
 40
0.4285714285714285
 40
0.4285714285714285
 40
0.4285714285714285
 40
0.4285714285714285
 40
0.4761904761904762
 40
0.4761904761904762
 40
0.4761904761904762
 40
0.4761904761904762
 40
0.5238095238095238
 40
0.5238095238095238
 40
0.5238095238095238
 40
0.5238095238095238
 40
0.5714285714285714
 40
0.5714285714285714
 40
0.5714285714285714
 40
0.5714285714285714
 40
0.6190476190476191
 40
0.6190476190476191
 40
0.6190476190476191
 40
0.6190476190476191
 40
0.6666666666666666
 40
0.6666666666666666
 40
0.6666666666666666
 40
0.6666666666666666
 40
0.7142857142857143
 40
0.7142857142857143
 40
0.7142857142857143
 40
0.7142857142857143
 40
0.7619047619047619
 40
0.7619047619047619
 40
0.7619047619047619
 40
0.7619047619047619
 40
0.8095238095238095
 40
0.8095238095238095
 40
0.8095238095238095
 40
0.8095238095238095
 40
0.8571428571428571
 40
0.8571428571428571
 40
0.8571428571428571
 40
0.8571428571428571
 40
0.9047619047619048
 40
0.9047619047619048
 40
0.9047619047619048
 40
0.9047619047619048
 40
1.0
 40
1.0
 40
1.0
 40
1.0
 10
-4.5143
 20
-1.2169
 30
0.0
 10
-4.5143
 20
-1.2169
 30
0.0
 10
-4.2829
 20
-0.9578
 30
0.0
 10
-4.2829
 20
-0.9578
 30
0.0
 10
-4.2829
 20
-0.9578
 30
0.0
 10
-4.2829
 20
-0.9578
 30
0.0
 10
-4.1465
 20
-1.0735
 30
0.0
 10
-4.1465
 20
-1.0735
 30
0.0
 10
-4.1465
 20
-1.0735
 30
0.0
 10
-4.1465
 20
-1.0735
 30
0.0
 10
-4.3887
 20
-1.3463
 30
0.0
 10
-4.3887
 20
-1.3463
 30
0.0
 10
-4.3887
 20
-1.3463
 30
0.0
 10
-4.3097
 20
-1.4639
 30
0.0
 10
-4.2566
 20
-1.5669
 30
0.0
 10
-4.2288
 20
-1.6548
 30
0.0
 10
-4.2288
 20
-1.6548
 30
0.0
 10
-4.1921
 20
-1.7706
 30
0.0
 10
-4.1738
 20
-1.9004
 30
0.0
 10
-4.1738
 20
-2.0434
 30
0.0
 10
-4.1738
 20
-2.0434
 30
0.0
 10
-4.1738
 20
-2.2503
 30
0.0
 10
-4.2156
 20
-2.4347
 30
0.0
 10
-4.2994
 20
-2.596
 30
0.0
 10
-4.2994
 20
-2.596
 30
0.0
 10
-4.3831
 20
-2.7579
 30
0.0
 10
-4.5002
 20
-2.8801
 30
0.0
 10
-4.6512
 20
-2.9629
 30
0.0
 10
-4.6512
 20
-2.9629
 30
0.0
 10
-4.8027
 20
-3.0452
 30
0.0
 10
-4.963
 20
-3.0866
 30
0.0
 10
-5.1328
 20
-3.0866
 30
0.0
 10
-5.1328
 20
-3.0866
 30
0.0
 10
-5.2598
 20
-3.0866
 30
0.0
 10
-5.3746
 20
-3.0688
 30
0.0
 10
-5.4776
 20
-3.033
 30
0.0
 10
-5.4776
 20
-3.033
 30
0.0
 10
-5.5566
 20
-3.0053
 30
0.0
 10
-5.6488
 20
-2.9526
 30
0.0
 10
-5.7547
 20
-2.8745
 30
0.0
 10
-5.7547
 20
-2.8745
 30
0.0
 10
-5.7547
 20
-2.8745
 30
0.0
 10
-5.9861
 20
-3.1337
 30
0.0
 10
-5.9861
 20
-3.1337
 30
0.0
 10
-5.9861
 20
-3.1337
 30
0.0
 10
-5.9861
 20
-3.1337
 30
0.0
 10
-6.1225
 20
-3.018
 30
0.0
 10
-6.1225
 20
-3.018
 30
0.0
 10
-6.1225
 20
-3.018
 30
0.0
 10
-6.1225
 20
-3.018
 30
0.0
 10
-5.8798
 20
-2.7466
 30
0.0
 10
-5.8798
 20
-2.7466
 30
0.0
 10
-5.8798
 20
-2.7466
 30
0.0
 10
-5.9701
 20
-2.6097
 30
0.0
 10
-6.0303
 20
-2.4926
 30
0.0
 10
-6.0604
 20
-2.3957
 30
0.0
 10
-6.0604
 20
-2.3957
 30
0.0
 10
-6.0905
 20
-2.2988
 30
0.0
 10
-6.106
 20
-2.1821
 30
0.0
 10
-6.106
 20
-2.0462
 30
0.0
 10
-6.106
 20
-2.0462
 30
0.0
 10
-6.106
 20
-1.8388
 30
0.0
 10
-6.0646
 20
-1.6539
 30
0.0
 10
-5.9819
 20
-1.4916
 30
0.0
 10
-5.9819
 20
-1.4916
 30
0.0
 10
-5.8991
 20
-1.3293
 30
0.0
 10
-5.7834
 20
-1.2066
 30
0.0
 10
-5.6338
 20
-1.1229
 30
0.0
 10
-5.6338
 20
-1.1229
 30
0.0
 10
-5.4847
 20
-1.0396
 30
0.0
 10
-5.3186
 20
-0.9977
 30
0.0
 10
-5.1357
 20
-0.9977
 30
0.0
 10
-5.1357
 20
-0.9977
 30
0.0
 10
-5.0124
 20
-0.9977
 30
0.0
 10
-4.9047
 20
-1.0137
 30
0.0
 10
-4.8125
 20
-1.0467
 30
0.0
 10
-4.8125
 20
-1.0467
 30
0.0
 10
-4.7203
 20
-1.0791
 30
0.0
 10
-4.6206
 20
-1.136
 30
0.0
 10
-4.5143
 20
-1.2169
 30
0.0
  0
SPLINE
  5
AA
330
1F
100
AcDbEntity
  8
AXIS
 62
   250
100
AcDbSpline
210
0.0
220
0.0
230
1.0
 70
    11
 71
     3
 72
    32
 73
    28
 74
     0
 42
0.0000000001
 43
0.0000000001
 40
0.0
 40
0.0
 40
0.0
 40
0.0
 40
0.125
 40
0.125
 40
0.125
 40
0.125
 40
0.25
 40
0.25
 40
0.25
 40
0.25
 40
0.375
 40
0.375
 40
0.375
 40
0.375
 40
0.5
 40
0.5
 40
0.5
 40
0.5
 40
0.625
 40
0.625
 40
0.625
 40
0.625
 40
0.75
 40
0.75
 40
0.75
 40
0.75
 40
1.0
 40
1.0
 40
1.0
 40
1.0
 10
-4.6794
 20
-1.4027
 30
0.0
 10
-4.766
 20
-1.335
 30
0.0
 10
-4.8417
 20
-1.2884
 30
0.0
 10
-4.9061
 20
-1.2635
 30
0.0
 10
-4.9061
 20
-1.2635
 30
0.0
 10
-4.971
 20
-1.239
 30
0.0
 10
-5.0472
 20
-1.2263
 30
0.0
 10
-5.1343
 20
-1.2263
 30
0.0
 10
-5.1343
 20
-1.2263
 30
0.0
 10
-5.3356
 20
-1.2263
 30
0.0
 10
-5.5016
 20
-1.2945
 30
0.0
 10
-5.6333
 20
-1.4309
 30
0.0
 10
-5.6333
 20
-1.4309
 30
0.0
 10
-5.7646
 20
-1.5674
 30
0.0
 10
-5.8304
 20
-1.771
 30
0.0
 10
-5.8304
 20
-2.0424
 30
0.0
 10
-5.8304
 20
-2.0424
 30
0.0
 10
-5.8304
 20
-2.1487
 30
0.0
 10
-5.8201
 20
-2.2433
 30
0.0
 10
-5.7998
 20
-2.3261
 30
0.0
 10
-5.7998
 20
-2.3261
 30
0.0
 10
-5.7852
 20
-2.3877
 30
0.0
 10
-5.7547
 20
-2.4634
 30
0.0
 10
-5.7076
 20
-2.5532
 30
0.0
 10
-5.7076
 20
-2.5532
 30
0.0
 10
-5.7076
 20
-2.5532
 30
0.0
 10
-4.6794
 20
-1.4027
 30
0.0
 10
-4.6794
 20
-1.4027
 30
0.0
  0
SPLINE
  5
AB
330
1F
100
AcDbEntity
  8
AXIS
 62
   250
100
AcDbSpline
210
0.0
220
0.0
230
1.0
 70
    11
 71
     3
 72
    28
 73
    24
 74
     0
 42
0.0000000001
 43
0.0000000001
 40
0.0
 40
0.0
 40
0.0
 40
0.0
 40
0.1428571428571428
 40
0.1428571428571428
 40
0.1428571428571428
 40
0.1428571428571428
 40
0.2857142857142857
 40
0.2857142857142857
 40
0.2857142857142857
 40
0.2857142857142857
 40
0.4285714285714285
 40
0.4285714285714285
 40
0.4285714285714285
 40
0.4285714285714285
 40
0.5714285714285714
 40
0.5714285714285714
 40
0.5714285714285714
 40
0.5714285714285714
 40
0.7142857142857143
 40
0.7142857142857143
 40
0.7142857142857143
 40
0.7142857142857143
 40
1.0
 40
1.0
 40
1.0
 40
1.0
 10
-4.5665
 20
-1.5448
 30
0.0
 10
-4.5665
 20
-1.5448
 30
0.0
 10
-5.5905
 20
-2.6911
 30
0.0
 10
-5.5905
 20
-2.6911
 30
0.0
 10
-5.5905
 20
-2.6911
 30
0.0
 10
-5.52
 20
-2.7489
 30
0.0
 10
-5.4546
 20
-2.7894
 30
0.0
 10
-5.3948
 20
-2.8124
 30
0.0
 10
-5.3948
 20
-2.8124
 30
0.0
 10
-5.3168
 20
-2.843
 30
0.0
 10
-5.2321
 20
-2.858
 30
0.0
 10
-5.1413
 20
-2.858
 30
0.0
 10
-5.1413
 20
-2.858
 30
0.0
 10
-4.9409
 20
-2.858
 30
0.0
 10
-4.7758
 20
-2.7875
 30
0.0
 10
-4.6451
 20
-2.6459
 30
0.0
 10
-4.6451
 20
-2.6459
 30
0.0
 10
-4.5148
 20
-2.5043
 30
0.0
 10
-4.4494
 20
-2.3058
 30
0.0
 10
-4.4494
 20
-2.0504
 30
0.0
 10
-4.4494
 20
-2.0504
 30
0.0
 10
-4.4494
 20
-1.8595
 30
0.0
 10
-4.4884
 20
-1.6906
 30
0.0
 10
-4.5665
 20
-1.5448
 30
0.0
  0
SPLINE
  5
AC
330
1F
100
AcDbEntity
  8
AXIS
 62
   250
100
AcDbSpline
210
0.0
220
0.0
230
1.0
 70
    11
 71
     3
 72
    48
 73
    44
 74
     0
 42
0.0000000001
 43
0.0000000001
 40
0.0
 40
0.0
 40
0.0
 40
0.0
 40
0.0833333333333333
 40
0.0833333333333333
 40
0.0833333333333333
 40
0.0833333333333333
 40
0.1666666666666667
 40
0.1666666666666667
 40
0.1666666666666667
 40
0.1666666666666667
 40
0.25
 40
0.25
 40
0.25
 40
0.25
 40
0.3333333333333333
 40
0.3333333333333333
 40
0.3333333333333333
 40
0.3333333333333333
 40
0.4166666666666667
 40
0.4166666666666667
 40
0.4166666666666667
 40
0.4166666666666667
 40
0.5
 40
0.5
 40
0.5
 40
0.5
 40
0.5833333333333334
 40
0.5833333333333334
 40
0.5833333333333334
 40
0.5833333333333334
 40
0.6666666666666666
 40
0.6666666666666666
 40
0.6666666666666666
 40
0.6666666666666666
 40
0.75
 40
0.75
 40
0.75
 40
0.75
 40
0.8333333333333334
 40
0.8333333333333334
 40
0.8333333333333334
 40
0.8333333333333334
 40
1.0
 40
1.0
 40
1.0
 40
1.0
 10
-3.908
 20
-1.2969
 30
0.0
 10
-3.908
 20
-1.2969
 30
0.0
 10
-3.908
 20
-1.0584
 30
0.0
 10
-3.908
 20
-1.0584
 30
0.0
 10
-3.908
 20
-1.0584
 30
0.0
 10
-3.908
 20
-1.0584
 30
0.0
 10
-2.6004
 20
-1.0584
 30
0.0
 10
-2.6004
 20
-1.0584
 30
0.0
 10
-2.6004
 20
-1.0584
 30
0.0
 10
-2.6004
 20
-1.0584
 30
0.0
 10
-2.6004
 20
-1.2513
 30
0.0
 10
-2.6004
 20
-1.2513
 30
0.0
 10
-2.6004
 20
-1.2513
 30
0.0
 10
-2.7288
 20
-1.3881
 30
0.0
 10
-2.8563
 20
-1.5702
 30
0.0
 10
-2.9828
 20
-1.7969
 30
0.0
 10
-2.9828
 20
-1.7969
 30
0.0
 10
-3.1089
 20
-2.0236
 30
0.0
 10
-3.2067
 20
-2.2574
 30
0.0
 10
-3.2754
 20
-2.4968
 30
0.0
 10
-3.2754
 20
-2.4968
 30
0.0
 10
-3.3252
 20
-2.6661
 30
0.0
 10
-3.3567
 20
-2.851
 30
0.0
 10
-3.3704
 20
-3.0523
 30
0.0
 10
-3.3704
 20
-3.0523
 30
0.0
 10
-3.3704
 20
-3.0523
 30
0.0
 10
-3.6253
 20
-3.0523
 30
0.0
 10
-3.6253
 20
-3.0523
 30
0.0
 10
-3.6253
 20
-3.0523
 30
0.0
 10
-3.6225
 20
-2.8933
 30
0.0
 10
-3.5915
 20
-2.7014
 30
0.0
 10
-3.5317
 20
-2.4761
 30
0.0
 10
-3.5317
 20
-2.4761
 30
0.0
 10
-3.472
 20
-2.2513
 30
0.0
 10
-3.3864
 20
-2.034
 30
0.0
 10
-3.2749
 20
-1.8251
 30
0.0
 10
-3.2749
 20
-1.8251
 30
0.0
 10
-3.163
 20
-1.6163
 30
0.0
 10
-3.0444
 20
-1.4399
 30
0.0
 10
-2.9184
 20
-1.2969
 30
0.0
 10
-2.9184
 20
-1.2969
 30
0.0
 10
-2.9184
 20
-1.2969
 30
0.0
 10
-3.908
 20
-1.2969
 30
0.0
 10
-3.908
 20
-1.2969
 30
0.0
  0
SPLINE
  5
AD
330
1F
100
AcDbEntity
  8
AXIS
 62
   250
100
AcDbSpline
210
0.0
220
0.0
230
1.0
 70
    11
 71
     3
 72
    52
 73
    48
 74
     0
 42
0.0000000001
 43
0.0000000001
 40
0.0
 40
0.0
 40
0.0
 40
0.0
 40
0.0769230769230769
 40
0.0769230769230769
 40
0.0769230769230769
 40
0.0769230769230769
 40
0.1538461538461539
 40
0.1538461538461539
 40
0.1538461538461539
 40
0.1538461538461539
 40
0.2307692307692308
 40
0.2307692307692308
 40
0.2307692307692308
 40
0.2307692307692308
 40
0.3076923076923077
 40
0.3076923076923077
 40
0.3076923076923077
 40
0.3076923076923077
 40
0.3846153846153846
 40
0.3846153846153846
 40
0.3846153846153846
 40
0.3846153846153846
 40
0.4615384615384616
 40
0.4615384615384616
 40
0.4615384615384616
 40
0.4615384615384616
 40
0.5384615384615384
 40
0.5384615384615384
 40
0.5384615384615384
 40
0.5384615384615384
 40
0.6153846153846154
 40
0.6153846153846154
 40
0.6153846153846154
 40
0.6153846153846154
 40
0.6923076923076923
 40
0.6923076923076923
 40
0.6923076923076923
 40
0.6923076923076923
 40
0.7692307692307693
 40
0.7692307692307693
 40
0.7692307692307693
 40
0.7692307692307693
 40
0.8461538461538461
 40
0.8461538461538461
 40
0.8461538461538461
 40
0.8461538461538461
 40
1.0
 40
1.0
 40
1.0
 40
1.0
 10
-2.3549
 20
-2.0561
 30
0.0
 10
-2.3549
 20
-1.8171
 30
0.0
 10
-2.3304
 20
-1.6247
 30
0.0
 10
-2.281
 20
-1.4794
 30
0.0
 10
-2.281
 20
-1.4794
 30
0.0
 10
-2.2321
 20
-1.3336
 30
0.0
 10
-2.1587
 20
-1.2212
 30
0.0
 10
-2.0618
 20
-1.1421
 30
0.0
 10
-2.0618
 20
-1.1421
 30
0.0
 10
-1.9649
 20
-1.0631
 30
0.0
 10
-1.8431
 20
-1.0236
 30
0.0
 10
-1.6964
 20
-1.0236
 30
0.0
 10
-1.6964
 20
-1.0236
 30
0.0
 10
-1.5877
 20
-1.0236
 30
0.0
 10
-1.4927
 20
-1.0457
 30
0.0
 10
-1.4109
 20
-1.0895
 30
0.0
 10
-1.4109
 20
-1.0895
 30
0.0
 10
-1.329
 20
-1.1327
 30
0.0
 10
-1.2617
 20
-1.1958
 30
0.0
 10
-1.2081
 20
-1.2781
 30
0.0
 10
-1.2081
 20
-1.2781
 30
0.0
 10
-1.155
 20
-1.3604
 30
0.0
 10
-1.1131
 20
-1.4606
 30
0.0
 10
-1.083
 20
-1.5786
 30
0.0
 10
-1.083
 20
-1.5786
 30
0.0
 10
-1.0524
 20
-1.6967
 30
0.0
 10
-1.0374
 20
-1.8557
 30
0.0
 10
-1.0374
 20
-2.0561
 30
0.0
 10
-1.0374
 20
-2.0561
 30
0.0
 10
-1.0374
 20
-2.2931
 30
0.0
 10
-1.0618
 20
-2.4841
 30
0.0
 10
-1.1103
 20
-2.6299
 30
0.0
 10
-1.1103
 20
-2.6299
 30
0.0
 10
-1.1592
 20
-2.7757
 30
0.0
 10
-1.2321
 20
-2.8881
 30
0.0
 10
-1.329
 20
-2.9676
 30
0.0
 10
-1.329
 20
-2.9676
 30
0.0
 10
-1.4259
 20
-3.0471
 30
0.0
 10
-1.5482
 20
-3.0866
 30
0.0
 10
-1.6964
 20
-3.0866
 30
0.0
 10
-1.6964
 20
-3.0866
 30
0.0
 10
-1.8911
 20
-3.0866
 30
0.0
 10
-2.044
 20
-3.017
 30
0.0
 10
-2.155
 20
-2.8773
 30
0.0
 10
-2.155
 20
-2.8773
 30
0.0
 10
-2.2881
 20
-2.7094
 30
0.0
 10
-2.3549
 20
-2.4352
 30
0.0
 10
-2.3549
 20
-2.0561
 30
0.0
  0
SPLINE
  5
AE
330
1F
100
AcDbEntity
  8
AXIS
 62
   250
100
AcDbSpline
210
0.0
220
0.0
230
1.0
 70
    11
 71
     3
 72
    36
 73
    32
 74
     0
 42
0.0000000001
 43
0.0000000001
 40
0.0
 40
0.0
 40
0.0
 40
0.0
 40
0.1111111111111111
 40
0.1111111111111111
 40
0.1111111111111111
 40
0.1111111111111111
 40
0.2222222222222222
 40
0.2222222222222222
 40
0.2222222222222222
 40
0.2222222222222222
 40
0.3333333333333333
 40
0.3333333333333333
 40
0.3333333333333333
 40
0.3333333333333333
 40
0.4444444444444444
 40
0.4444444444444444
 40
0.4444444444444444
 40
0.4444444444444444
 40
0.5555555555555556
 40
0.5555555555555556
 40
0.5555555555555556
 40
0.5555555555555556
 40
0.6666666666666666
 40
0.6666666666666666
 40
0.6666666666666666
 40
0.6666666666666666
 40
0.7777777777777778
 40
0.7777777777777778
 40
0.7777777777777778
 40
0.7777777777777778
 40
1.0
 40
1.0
 40
1.0
 40
1.0
 10
-2.0999
 20
-2.0561
 30
0.0
 10
-2.0999
 20
-2.3877
 30
0.0
 10
-2.0609
 20
-2.6083
 30
0.0
 10
-1.9833
 20
-2.7183
 30
0.0
 10
-1.9833
 20
-2.7183
 30
0.0
 10
-1.9057
 20
-2.8279
 30
0.0
 10
-1.8102
 20
-2.883
 30
0.0
 10
-1.6964
 20
-2.883
 30
0.0
 10
-1.6964
 20
-2.883
 30
0.0
 10
-1.5821
 20
-2.883
 30
0.0
 10
-1.4866
 20
-2.8275
 30
0.0
 10
-1.409
 20
-2.7174
 30
0.0
 10
-1.409
 20
-2.7174
 30
0.0
 10
-1.3314
 20
-2.6073
 30
0.0
 10
-1.2923
 20
-2.3867
 30
0.0
 10
-1.2923
 20
-2.0561
 30
0.0
 10
-1.2923
 20
-2.0561
 30
0.0
 10
-1.2923
 20
-1.7235
 30
0.0
 10
-1.3314
 20
-1.5024
 30
0.0
 10
-1.409
 20
-1.3933
 30
0.0
 10
-1.409
 20
-1.3933
 30
0.0
 10
-1.4866
 20
-1.2837
 30
0.0
 10
-1.583
 20
-1.2292
 30
0.0
 10
-1.6987
 20
-1.2292
 30
0.0
 10
-1.6987
 20
-1.2292
 30
0.0
 10
-1.813
 20
-1.2292
 30
0.0
 10
-1.9038
 20
-1.2776
 30
0.0
 10
-1.972
 20
-1.374
 30
0.0
 10
-1.972
 20
-1.374
 30
0.0
 10
-2.0571
 20
-1.4968
 30
0.0
 10
-2.0999
 20
-1.7245
 30
0.0
 10
-2.0999
 20
-2.0561
 30
0.0
  0
SPLINE
  5
AF
330
1F
100
AcDbEntity
  8
AXIS
 62
   250
100
AcDbSpline
210
0.0
220
0.0
230
1.0
 70
    11
 71
     3
 72
    84
 73
    80
 74
     0
 42
0.0000000001
 43
0.0000000001
 40
0.0
 40
0.0
 40
0.0
 40
0.0
 40
0.0476190476190476
 40
0.0476190476190476
 40
0.0476190476190476
 40
0.0476190476190476
 40
0.0952380952380952
 40
0.0952380952380952
 40
0.0952380952380952
 40
0.0952380952380952
 40
0.1428571428571428
 40
0.1428571428571428
 40
0.1428571428571428
 40
0.1428571428571428
 40
0.1904761904761905
 40
0.1904761904761905
 40
0.1904761904761905
 40
0.1904761904761905
 40
0.2380952380952381
 40
0.2380952380952381
 40
0.2380952380952381
 40
0.2380952380952381
 40
0.2857142857142857
 40
0.2857142857142857
 40
0.2857142857142857
 40
0.2857142857142857
 40
0.3333333333333333
 40
0.3333333333333333
 40
0.3333333333333333
 40
0.3333333333333333
 40
0.3809523809523809
 40
0.3809523809523809
 40
0.3809523809523809
 40
0.3809523809523809
 40
0.4285714285714285
 40
0.4285714285714285
 40
0.4285714285714285
 40
0.4285714285714285
 40
0.4761904761904762
 40
0.4761904761904762
 40
0.4761904761904762
 40
0.4761904761904762
 40
0.5238095238095238
 40
0.5238095238095238
 40
0.5238095238095238
 40
0.5238095238095238
 40
0.5714285714285714
 40
0.5714285714285714
 40
0.5714285714285714
 40
0.5714285714285714
 40
0.6190476190476191
 40
0.6190476190476191
 40
0.6190476190476191
 40
0.6190476190476191
 40
0.6666666666666666
 40
0.6666666666666666
 40
0.6666666666666666
 40
0.6666666666666666
 40
0.7142857142857143
 40
0.7142857142857143
 40
0.7142857142857143
 40
0.7142857142857143
 40
0.7619047619047619
 40
0.7619047619047619
 40
0.7619047619047619
 40
0.7619047619047619
 40
0.8095238095238095
 40
0.8095238095238095
 40
0.8095238095238095
 40
0.8095238095238095
 40
0.8571428571428571
 40
0.8571428571428571
 40
0.8571428571428571
 40
0.8571428571428571
 40
0.9047619047619048
 40
0.9047619047619048
 40
0.9047619047619048
 40
0.9047619047619048
 40
1.0
 40
1.0
 40
1.0
 40
1.0
 10
15.0432
 20
28.0148
 30
0.0
 10
15.0432
 20
28.0148
 30
0.0
 10
14.82
 20
28.2811
 30
0.0
 10
14.82
 20
28.2811
 30
0.0
 10
14.82
 20
28.2811
 30
0.0
 10
14.82
 20
28.2811
 30
0.0
 10
14.9541
 20
28.3994
 30
0.0
 10
14.9541
 20
28.3994
 30
0.0
 10
14.9541
 20
28.3994
 30
0.0
 10
14.9541
 20
28.3994
 30
0.0
 10
15.1893
 20
28.1206
 30
0.0
 10
15.1893
 20
28.1206
 30
0.0
 10
15.1893
 20
28.1206
 30
0.0
 10
15.317
 20
28.1818
 30
0.0
 10
15.4266
 20
28.2196
 30
0.0
 10
15.5176
 20
28.2345
 30
0.0
 10
15.5176
 20
28.2345
 30
0.0
 10
15.6374
 20
28.2542
 30
0.0
 10
15.7685
 20
28.2536
 30
0.0
 10
15.91
 20
28.2331
 30
0.0
 10
15.91
 20
28.2331
 30
0.0
 10
16.1148
 20
28.2034
 30
0.0
 10
16.2913
 20
28.1355
 30
0.0
 10
16.4389
 20
28.0294
 30
0.0
 10
16.4389
 20
28.0294
 30
0.0
 10
16.587
 20
27.9233
 30
0.0
 10
16.6912
 20
27.7899
 30
0.0
 10
16.7514
 20
27.6286
 30
0.0
 10
16.7514
 20
27.6286
 30
0.0
 10
16.8111
 20
27.4668
 30
0.0
 10
16.829
 20
27.3022
 30
0.0
 10
16.8046
 20
27.1342
 30
0.0
 10
16.8046
 20
27.1342
 30
0.0
 10
16.7864
 20
27.0085
 30
0.0
 10
16.7523
 20
26.8974
 30
0.0
 10
16.7021
 20
26.8007
 30
0.0
 10
16.7021
 20
26.8007
 30
0.0
 10
16.6633
 20
26.7265
 30
0.0
 10
16.5979
 20
26.6428
 30
0.0
 10
16.5054
 20
26.5492
 30
0.0
 10
16.5054
 20
26.5492
 30
0.0
 10
16.5054
 20
26.5492
 30
0.0
 10
16.7287
 20
26.283
 30
0.0
 10
16.7287
 20
26.283
 30
0.0
 10
16.7287
 20
26.283
 30
0.0
 10
16.7287
 20
26.283
 30
0.0
 10
16.5946
 20
26.1646
 30
0.0
 10
16.5946
 20
26.1646
 30
0.0
 10
16.5946
 20
26.1646
 30
0.0
 10
16.5946
 20
26.1646
 30
0.0
 10
16.3609
 20
26.4438
 30
0.0
 10
16.3609
 20
26.4438
 30
0.0
 10
16.3609
 20
26.4438
 30
0.0
 10
16.2124
 20
26.3741
 30
0.0
 10
16.0879
 20
26.3313
 30
0.0
 10
15.9877
 20
26.3154
 30
0.0
 10
15.9877
 20
26.3154
 30
0.0
 10
15.8874
 20
26.2996
 30
0.0
 10
15.7697
 20
26.301
 30
0.0
 10
15.6352
 20
26.3205
 30
0.0
 10
15.6352
 20
26.3205
 30
0.0
 10
15.43
 20
26.3503
 30
0.0
 10
15.253
 20
26.4178
 30
0.0
 10
15.1042
 20
26.523
 30
0.0
 10
15.1042
 20
26.523
 30
0.0
 10
14.9555
 20
26.6283
 30
0.0
 10
14.8507
 20
26.7604
 30
0.0
 10
14.7893
 20
26.9205
 30
0.0
 10
14.7893
 20
26.9205
 30
0.0
 10
14.7283
 20
27.08
 30
0.0
 10
14.7107
 20
27.2504
 30
0.0
 10
14.737
 20
27.4314
 30
0.0
 10
14.737
 20
27.4314
 30
0.0
 10
14.7547
 20
27.5534
 30
0.0
 10
14.786
 20
27.6577
 30
0.0
 10
14.8319
 20
27.7442
 30
0.0
 10
14.8319
 20
27.7442
 30
0.0
 10
14.8772
 20
27.8308
 30
0.0
 10
14.9479
 20
27.9213
 30
0.0
 10
15.0432
 20
28.0148
 30
0.0
  0
SPLINE
  5
B0
330
1F
100
AcDbEntity
  8
AXIS
 62
   250
100
AcDbSpline
210
0.0
220
0.0
230
1.0
 70
    11
 71
     3
 72
    32
 73
    28
 74
     0
 42
0.0000000001
 43
0.0000000001
 40
0.0
 40
0.0
 40
0.0
 40
0.0
 40
0.125
 40
0.125
 40
0.125
 40
0.125
 40
0.25
 40
0.25
 40
0.25
 40
0.25
 40
0.375
 40
0.375
 40
0.375
 40
0.375
 40
0.5
 40
0.5
 40
0.5
 40
0.5
 40
0.625
 40
0.625
 40
0.625
 40
0.625
 40
0.75
 40
0.75
 40
0.75
 40
0.75
 40
1.0
 40
1.0
 40
1.0
 40
1.0
 10
15.2033
 20
27.8248
 30
0.0
 10
15.1239
 20
27.7488
 30
0.0
 10
15.0669
 20
27.6806
 30
0.0
 10
15.033
 20
27.6204
 30
0.0
 10
15.033
 20
27.6204
 30
0.0
 10
14.9995
 20
27.5597
 30
0.0
 10
14.9759
 20
27.4861
 30
0.0
 10
14.9634
 20
27.3999
 30
0.0
 10
14.9634
 20
27.3999
 30
0.0
 10
14.9345
 20
27.2007
 30
0.0
 10
14.9782
 20
27.0266
 30
0.0
 10
15.0942
 20
26.8767
 30
0.0
 10
15.0942
 20
26.8767
 30
0.0
 10
15.2104
 20
26.7272
 30
0.0
 10
15.4025
 20
26.6328
 30
0.0
 10
15.6711
 20
26.5938
 30
0.0
 10
15.6711
 20
26.5938
 30
0.0
 10
15.7763
 20
26.5785
 30
0.0
 10
15.8714
 20
26.5751
 30
0.0
 10
15.9562
 20
26.5833
 30
0.0
 10
15.9562
 20
26.5833
 30
0.0
 10
16.0193
 20
26.5889
 30
0.0
 10
16.0986
 20
26.6082
 30
0.0
 10
16.1942
 20
26.642
 30
0.0
 10
16.1942
 20
26.642
 30
0.0
 10
16.1942
 20
26.642
 30
0.0
 10
15.2033
 20
27.8248
 30
0.0
 10
15.2033
 20
27.8248
 30
0.0
  0
SPLINE
  5
B1
330
1F
100
AcDbEntity
  8
AXIS
 62
   250
100
AcDbSpline
210
0.0
220
0.0
230
1.0
 70
    11
 71
     3
 72
    28
 73
    24
 74
     0
 42
0.0000000001
 43
0.0000000001
 40
0.0
 40
0.0
 40
0.0
 40
0.0
 40
0.1428571428571428
 40
0.1428571428571428
 40
0.1428571428571428
 40
0.1428571428571428
 40
0.2857142857142857
 40
0.2857142857142857
 40
0.2857142857142857
 40
0.2857142857142857
 40
0.4285714285714285
 40
0.4285714285714285
 40
0.4285714285714285
 40
0.4285714285714285
 40
0.5714285714285714
 40
0.5714285714285714
 40
0.5714285714285714
 40
0.5714285714285714
 40
0.7142857142857143
 40
0.7142857142857143
 40
0.7142857142857143
 40
0.7142857142857143
 40
1.0
 40
1.0
 40
1.0
 40
1.0
 10
15.3602
 20
27.9161
 30
0.0
 10
15.3602
 20
27.9161
 30
0.0
 10
16.3475
 20
26.738
 30
0.0
 10
16.3475
 20
26.738
 30
0.0
 10
16.3475
 20
26.738
 30
0.0
 10
16.4148
 20
26.7995
 30
0.0
 10
16.4643
 20
26.8584
 30
0.0
 10
16.4957
 20
26.9143
 30
0.0
 10
16.4957
 20
26.9143
 30
0.0
 10
16.5371
 20
26.9871
 30
0.0
 10
16.5642
 20
27.0687
 30
0.0
 10
16.5772
 20
27.1586
 30
0.0
 10
16.5772
 20
27.1586
 30
0.0
 10
16.606
 20
27.3569
 30
0.0
 10
16.5599
 20
27.5304
 30
0.0
 10
16.4386
 20
27.6801
 30
0.0
 10
16.4386
 20
27.6801
 30
0.0
 10
16.3172
 20
27.8294
 30
0.0
 10
16.1301
 20
27.9227
 30
0.0
 10
15.8774
 20
27.9593
 30
0.0
 10
15.8774
 20
27.9593
 30
0.0
 10
15.6884
 20
27.9868
 30
0.0
 10
15.5157
 20
27.9724
 30
0.0
 10
15.3602
 20
27.9161
 30
0.0
  0
SPLINE
  5
B2
330
1F
100
AcDbEntity
  8
AXIS
 62
   250
100
AcDbSpline
210
0.0
220
0.0
230
1.0
 70
    11
 71
     3
 72
    48
 73
    44
 74
     0
 42
0.0000000001
 43
0.0000000001
 40
0.0
 40
0.0
 40
0.0
 40
0.0
 40
0.0833333333333333
 40
0.0833333333333333
 40
0.0833333333333333
 40
0.0833333333333333
 40
0.1666666666666667
 40
0.1666666666666667
 40
0.1666666666666667
 40
0.1666666666666667
 40
0.25
 40
0.25
 40
0.25
 40
0.25
 40
0.3333333333333333
 40
0.3333333333333333
 40
0.3333333333333333
 40
0.3333333333333333
 40
0.4166666666666667
 40
0.4166666666666667
 40
0.4166666666666667
 40
0.4166666666666667
 40
0.5
 40
0.5
 40
0.5
 40
0.5
 40
0.5833333333333334
 40
0.5833333333333334
 40
0.5833333333333334
 40
0.5833333333333334
 40
0.6666666666666666
 40
0.6666666666666666
 40
0.6666666666666666
 40
0.6666666666666666
 40
0.75
 40
0.75
 40
0.75
 40
0.75
 40
0.8333333333333334
 40
0.8333333333333334
 40
0.8333333333333334
 40
0.8333333333333334
 40
1.0
 40
1.0
 40
1.0
 40
1.0
 10
15.2094
 20
28.6034
 30
0.0
 10
15.2094
 20
28.6034
 30
0.0
 10
14.9734
 20
28.6376
 30
0.0
 10
14.9734
 20
28.6376
 30
0.0
 10
14.9734
 20
28.6376
 30
0.0
 10
14.9734
 20
28.6376
 30
0.0
 10
15.1613
 20
29.9317
 30
0.0
 10
15.1613
 20
29.9317
 30
0.0
 10
15.1613
 20
29.9317
 30
0.0
 10
15.1613
 20
29.9317
 30
0.0
 10
15.3522
 20
29.904
 30
0.0
 10
15.3522
 20
29.904
 30
0.0
 10
15.3522
 20
29.904
 30
0.0
 10
15.4691
 20
29.7572
 30
0.0
 10
15.631
 20
29.6049
 30
0.0
 10
15.8372
 20
29.4471
 30
0.0
 10
15.8372
 20
29.4471
 30
0.0
 10
16.0434
 20
29.2898
 30
0.0
 10
16.2607
 20
29.1594
 30
0.0
 10
16.4878
 20
29.057
 30
0.0
 10
16.4878
 20
29.057
 30
0.0
 10
16.6482
 20
28.9834
 30
0.0
 10
16.8266
 20
28.9257
 30
0.0
 10
17.0239
 20
28.8832
 30
0.0
 10
17.0239
 20
28.8832
 30
0.0
 10
17.0239
 20
28.8832
 30
0.0
 10
16.9873
 20
28.631
 30
0.0
 10
16.9873
 20
28.631
 30
0.0
 10
16.9873
 20
28.631
 30
0.0
 10
16.8303
 20
28.6566
 30
0.0
 10
16.6448
 20
28.7148
 30
0.0
 10
16.4305
 20
28.8064
 30
0.0
 10
16.4305
 20
28.8064
 30
0.0
 10
16.2166
 20
28.8977
 30
0.0
 10
16.0138
 20
29.0137
 30
0.0
 10
15.8231
 20
29.154
 30
0.0
 10
15.8231
 20
29.154
 30
0.0
 10
15.6326
 20
29.2948
 30
0.0
 10
15.475
 20
29.4375
 30
0.0
 10
15.3516
 20
29.5827
 30
0.0
 10
15.3516
 20
29.5827
 30
0.0
 10
15.3516
 20
29.5827
 30
0.0
 10
15.2094
 20
28.6034
 30
0.0
 10
15.2094
 20
28.6034
 30
0.0
  0
SPLINE
  5
B3
330
1F
100
AcDbEntity
  8
AXIS
 62
   250
100
AcDbSpline
210
0.0
220
0.0
230
1.0
 70
    11
 71
     3
 72
    68
 73
    64
 74
     0
 42
0.0000000001
 43
0.0000000001
 40
0.0
 40
0.0
 40
0.0
 40
0.0
 40
0.0588235294117647
 40
0.0588235294117647
 40
0.0588235294117647
 40
0.0588235294117647
 40
0.1176470588235294
 40
0.1176470588235294
 40
0.1176470588235294
 40
0.1176470588235294
 40
0.1764705882352941
 40
0.1764705882352941
 40
0.1764705882352941
 40
0.1764705882352941
 40
0.2352941176470588
 40
0.2352941176470588
 40
0.2352941176470588
 40
0.2352941176470588
 40
0.2941176470588235
 40
0.2941176470588235
 40
0.2941176470588235
 40
0.2941176470588235
 40
0.3529411764705883
 40
0.3529411764705883
 40
0.3529411764705883
 40
0.3529411764705883
 40
0.4117647058823529
 40
0.4117647058823529
 40
0.4117647058823529
 40
0.4117647058823529
 40
0.4705882352941176
 40
0.4705882352941176
 40
0.4705882352941176
 40
0.4705882352941176
 40
0.5294117647058824
 40
0.5294117647058824
 40
0.5294117647058824
 40
0.5294117647058824
 40
0.5882352941176471
 40
0.5882352941176471
 40
0.5882352941176471
 40
0.5882352941176471
 40
0.6470588235294118
 40
0.6470588235294118
 40
0.6470588235294118
 40
0.6470588235294118
 40
0.7058823529411765
 40
0.7058823529411765
 40
0.7058823529411765
 40
0.7058823529411765
 40
0.7647058823529411
 40
0.7647058823529411
 40
0.7647058823529411
 40
0.7647058823529411
 40
0.8235294117647058
 40
0.8235294117647058
 40
0.8235294117647058
 40
0.8235294117647058
 40
0.8823529411764706
 40
0.8823529411764706
 40
0.8823529411764706
 40
0.8823529411764706
 40
1.0
 40
1.0
 40
1.0
 40
1.0
 10
16.1405
 20
30.4236
 30
0.0
 10
16.0885
 20
30.327
 30
0.0
 10
16.0245
 20
30.2593
 30
0.0
 10
15.9479
 20
30.22
 30
0.0
 10
15.9479
 20
30.22
 30
0.0
 10
15.872
 20
30.1812
 30
0.0
 10
15.7855
 20
30.1686
 30
0.0
 10
15.6892
 20
30.1825
 30
0.0
 10
15.6892
 20
30.1825
 30
0.0
 10
15.5435
 20
30.2037
 30
0.0
 10
15.429
 20
30.2735
 30
0.0
 10
15.3451
 20
30.3926
 30
0.0
 10
15.3451
 20
30.3926
 30
0.0
 10
15.2611
 20
30.5117
 30
0.0
 10
15.2315
 20
30.6577
 30
0.0
 10
15.2567
 20
30.8313
 30
0.0
 10
15.2567
 20
30.8313
 30
0.0
 10
15.282
 20
31.0059
 30
0.0
 10
15.3532
 20
31.1391
 30
0.0
 10
15.4701
 20
31.231
 30
0.0
 10
15.4701
 20
31.231
 30
0.0
 10
15.587
 20
31.3223
 30
0.0
 10
15.7181
 20
31.3576
 30
0.0
 10
15.8637
 20
31.3364
 30
0.0
 10
15.8637
 20
31.3364
 30
0.0
 10
15.9564
 20
31.323
 30
0.0
 10
16.0334
 20
31.287
 30
0.0
 10
16.0953
 20
31.2286
 30
0.0
 10
16.0953
 20
31.2286
 30
0.0
 10
16.1566
 20
31.1698
 30
0.0
 10
16.199
 20
31.0886
 30
0.0
 10
16.2218
 20
30.984
 30
0.0
 10
16.2218
 20
30.984
 30
0.0
 10
16.2797
 20
31.1006
 30
0.0
 10
16.3575
 20
31.1848
 30
0.0
 10
16.4562
 20
31.2361
 30
0.0
 10
16.4562
 20
31.2361
 30
0.0
 10
16.5543
 20
31.287
 30
0.0
 10
16.6655
 20
31.3036
 30
0.0
 10
16.7889
 20
31.2857
 30
0.0
 10
16.7889
 20
31.2857
 30
0.0
 10
16.9602
 20
31.2608
 30
0.0
 10
17.0949
 20
31.1795
 30
0.0
 10
17.1937
 20
31.0421
 30
0.0
 10
17.1937
 20
31.0421
 30
0.0
 10
17.2925
 20
30.9042
 30
0.0
 10
17.3275
 20
30.7365
 30
0.0
 10
17.2989
 20
30.5392
 30
0.0
 10
17.2989
 20
30.5392
 30
0.0
 10
17.2702
 20
30.3418
 30
0.0
 10
17.189
 20
30.1915
 30
0.0
 10
17.0547
 20
30.0874
 30
0.0
 10
17.0547
 20
30.0874
 30
0.0
 10
16.9202
 20
29.9833
 30
0.0
 10
16.7658
 20
29.944
 30
0.0
 10
16.5912
 20
29.9693
 30
0.0
 10
16.5912
 20
29.9693
 30
0.0
 10
16.4614
 20
29.9882
 30
0.0
 10
16.3572
 20
30.0371
 30
0.0
 10
16.2788
 20
30.1159
 30
0.0
 10
16.2788
 20
30.1159
 30
0.0
 10
16.2009
 20
30.1942
 30
0.0
 10
16.1544
 20
30.297
 30
0.0
 10
16.1405
 20
30.4236
 30
0.0
  0
SPLINE
  5
B4
330
1F
100
AcDbEntity
  8
AXIS
 62
   250
100
AcDbSpline
210
0.0
220
0.0
230
1.0
 70
    11
 71
     3
 72
    36
 73
    32
 74
     0
 42
0.0000000001
 43
0.0000000001
 40
0.0
 40
0.0
 40
0.0
 40
0.0
 40
0.1111111111111111
 40
0.1111111111111111
 40
0.1111111111111111
 40
0.1111111111111111
 40
0.2222222222222222
 40
0.2222222222222222
 40
0.2222222222222222
 40
0.2222222222222222
 40
0.3333333333333333
 40
0.3333333333333333
 40
0.3333333333333333
 40
0.3333333333333333
 40
0.4444444444444444
 40
0.4444444444444444
 40
0.4444444444444444
 40
0.4444444444444444
 40
0.5555555555555556
 40
0.5555555555555556
 40
0.5555555555555556
 40
0.5555555555555556
 40
0.6666666666666666
 40
0.6666666666666666
 40
0.6666666666666666
 40
0.6666666666666666
 40
0.7777777777777778
 40
0.7777777777777778
 40
0.7777777777777778
 40
0.7777777777777778
 40
1.0
 40
1.0
 40
1.0
 40
1.0
 10
15.7172
 20
30.4346
 30
0.0
 10
15.8117
 20
30.4209
 30
0.0
 10
15.8934
 20
30.4404
 30
0.0
 10
15.9623
 20
30.4922
 30
0.0
 10
15.9623
 20
30.4922
 30
0.0
 10
16.0311
 20
30.5445
 30
0.0
 10
16.0729
 20
30.6192
 30
0.0
 10
16.087
 20
30.7165
 30
0.0
 10
16.087
 20
30.7165
 30
0.0
 10
16.1007
 20
30.811
 30
0.0
 10
16.0822
 20
30.893
 30
0.0
 10
16.0314
 20
30.9623
 30
0.0
 10
16.0314
 20
30.9623
 30
0.0
 10
15.9806
 20
31.0314
 30
0.0
 10
15.9118
 20
31.0718
 30
0.0
 10
15.8257
 20
31.0843
 30
0.0
 10
15.8257
 20
31.0843
 30
0.0
 10
15.7355
 20
31.0974
 30
0.0
 10
15.6556
 20
31.0776
 30
0.0
 10
15.5851
 20
31.0241
 30
0.0
 10
15.5851
 20
31.0241
 30
0.0
 10
15.5146
 20
30.9707
 30
0.0
 10
15.4726
 20
30.8979
 30
0.0
 10
15.4591
 20
30.8048
 30
0.0
 10
15.4591
 20
30.8048
 30
0.0
 10
15.4455
 20
30.7112
 30
0.0
 10
15.4645
 20
30.6291
 30
0.0
 10
15.5151
 20
30.5585
 30
0.0
 10
15.5151
 20
30.5585
 30
0.0
 10
15.5662
 20
30.4879
 30
0.0
 10
15.6338
 20
30.4467
 30
0.0
 10
15.7172
 20
30.4346
 30
0.0
  0
SPLINE
  5
B5
330
1F
100
AcDbEntity
  8
AXIS
 62
   250
100
AcDbSpline
210
0.0
220
0.0
230
1.0
 70
    11
 71
     3
 72
    40
 73
    36
 74
     0
 42
0.0000000001
 43
0.0000000001
 40
0.0
 40
0.0
 40
0.0
 40
0.0
 40
0.1
 40
0.1
 40
0.1
 40
0.1
 40
0.2
 40
0.2
 40
0.2
 40
0.2
 40
0.3
 40
0.3
 40
0.3
 40
0.3
 40
0.4
 40
0.4
 40
0.4
 40
0.4
 40
0.5
 40
0.5
 40
0.5
 40
0.5
 40
0.6
 40
0.6
 40
0.6
 40
0.6
 40
0.7
 40
0.7
 40
0.7
 40
0.7
 40
0.8
 40
0.8
 40
0.8
 40
0.8
 40
1.0
 40
1.0
 40
1.0
 40
1.0
 10
16.6292
 20
30.2214
 30
0.0
 10
16.6991
 20
30.2113
 30
0.0
 10
16.7694
 20
30.2182
 30
0.0
 10
16.8394
 20
30.2418
 30
0.0
 10
16.8394
 20
30.2418
 30
0.0
 10
16.9098
 20
30.2653
 30
0.0
 10
16.9677
 20
30.3073
 30
0.0
 10
17.0131
 20
30.3677
 30
0.0
 10
17.0131
 20
30.3677
 30
0.0
 10
17.0585
 20
30.4282
 30
0.0
 10
17.0869
 20
30.4958
 30
0.0
 10
17.0978
 20
30.5712
 30
0.0
 10
17.0978
 20
30.5712
 30
0.0
 10
17.1148
 20
30.6885
 30
0.0
 10
17.0912
 20
30.7908
 30
0.0
 10
17.0264
 20
30.8782
 30
0.0
 10
17.0264
 20
30.8782
 30
0.0
 10
16.962
 20
30.9654
 30
0.0
 10
16.8717
 20
31.0175
 30
0.0
 10
16.7553
 20
31.0344
 30
0.0
 10
16.7553
 20
31.0344
 30
0.0
 10
16.637
 20
31.0516
 30
0.0
 10
16.5337
 20
31.0267
 30
0.0
 10
16.445
 20
30.9592
 30
0.0
 10
16.445
 20
30.9592
 30
0.0
 10
16.3563
 20
30.8918
 30
0.0
 10
16.3034
 20
30.7987
 30
0.0
 10
16.2862
 20
30.6804
 30
0.0
 10
16.2862
 20
30.6804
 30
0.0
 10
16.2694
 20
30.565
 30
0.0
 10
16.2937
 20
30.464
 30
0.0
 10
16.3591
 20
30.3771
 30
0.0
 10
16.3591
 20
30.3771
 30
0.0
 10
16.4248
 20
30.2901
 30
0.0
 10
16.5147
 20
30.238
 30
0.0
 10
16.6292
 20
30.2214
 30
0.0
  0
SPLINE
  5
B6
330
1F
100
AcDbEntity
  8
AXIS
 62
   250
100
AcDbSpline
210
0.0
220
0.0
230
1.0
 70
    24
 71
     3
 72
     8
 73
     4
 74
     0
 42
0.0000000001
 43
0.0000000001
 40
0.0
 40
0.0
 40
0.0
 40
0.0
 40
1.0
 40
1.0
 40
1.0
 40
1.0
 10
29.4889
 20
26.8768
 30
0.0
 10
29.4889
 20
26.8768
 30
0.0
 10
19.1105
 20
26.8768
 30
0.0
 10
19.1105
 20
26.8768
 30
0.0
  0
SPLINE
  5
B7
330
1F
100
AcDbEntity
  8
AXIS
  6
NEW_LINE5
 62
   250
100
AcDbSpline
210
0.0
220
0.0
230
1.0
 70
    24
 71
     3
 72
     8
 73
     4
 74
     0
 42
0.0000000001
 43
0.0000000001
 40
0.0
 40
0.0
 40
0.0
 40
0.0
 40
1.0
 40
1.0
 40
1.0
 40
1.0
 10
-3.6773
 20
37.2407
 30
0.0
 10
-3.6773
 20
37.2407
 30
0.0
 10
-3.6773
 20
0.0173
 30
0.0
 10
-3.6773
 20
0.0173
 30
0.0
  0
SPLINE
  5
B9
330
1F
100
AcDbEntity
  8
AXIS
  6
NEW_LINE6
 62
   250
100
AcDbSpline
210
0.0
220
0.0
230
1.0
 70
    24
 71
     3
 72
     8
 73
     4
 74
     0
 42
0.0000000001
 43
0.0000000001
 40
0.0
 40
0.0
 40
0.0
 40
0.0
 40
1.0
 40
1.0
 40
1.0
 40
1.0
 10
29.6626
 20
37.2335
 30
0.0
 10
29.6626
 20
37.2335
 30
0.0
 10
29.6626
 20
34.7912
 30
0.0
 10
29.6626
 20
34.7912
 30
0.0
  0
SPLINE
  5
BB
330
1F
100
AcDbEntity
  8
AXIS
 62
   250
100
AcDbSpline
210
0.0
220
0.0
230
1.0
 70
    24
 71
     3
 72
     8
 73
     4
 74
     0
 42
0.0000000001
 43
0.0000000001
 40
0.0
 40
0.0
 40
0.0
 40
0.0
 40
1.0
 40
1.0
 40
1.0
 40
1.0
 10
-3.6369
 20
36.6541
 30
0.0
 10
-3.6369
 20
36.6541
 30
0.0
 10
28.3422
 20
36.6541
 30
0.0
 10
28.3422
 20
36.6541
 30
0.0
  0
SPLINE
  5
BC
330
1F
100
AcDbEntity
  8
AXIS
  6
NEW_LINE7
 62
   250
100
AcDbSpline
210
0.0
220
0.0
230
1.0
 70
    24
 71
     3
 72
     8
 73
     4
 74
     0
 42
0.0000000001
 43
0.0000000001
 40
0.0
 40
0.0
 40
0.0
 40
0.0
 40
1.0
 40
1.0
 40
1.0
 40
1.0
 10
32.7024
 20
26.8832
 30
0.0
 10
32.7024
 20
26.8832
 30
0.0
 10
26.8377
 20
-25.1504
 30
0.0
 10
26.8377
 20
-25.1504
 30
0.0
  0
SPLINE
  5
BE
330
1F
100
AcDbEntity
  8
AXIS
  6
NEW_LINE8
 62
   250
100
AcDbSpline
210
0.0
220
0.0
230
1.0
 70
    24
 71
     3
 72
     8
 73
     4
 74
     0
 42
0.0000000001
 43
0.0000000001
 40
0.0
 40
0.0
 40
0.0
 40
0.0
 40
1.0
 40
1.0
 40
1.0
 40
1.0
 10
-4.3875
 20
-27.3607
 30
0.0
 10
-4.3875
 20
-27.3607
 30
0.0
 10
24.1239
 20
-27.3607
 30
0.0
 10
24.1239
 20
-27.3607
 30
0.0
  0
SPLINE
  5
C0
330
1F
100
AcDbEntity
  8
AXIS
 62
   250
100
AcDbSpline
210
0.0
220
0.0
230
1.0
 70
    11
 71
     3
 72
    20
 73
    16
 74
     0
 42
0.0000000001
 43
0.0000000001
 40
0.0
 40
0.0
 40
0.0
 40
0.0
 40
0.2
 40
0.2
 40
0.2
 40
0.2
 40
0.4
 40
0.4
 40
0.4
 40
0.4
 40
0.6
 40
0.6
 40
0.6
 40
0.6
 40
1.0
 40
1.0
 40
1.0
 40
1.0
 10
-28.1654
 20
-25.2212
 30
0.0
 10
-28.1654
 20
-25.2212
 30
0.0
 10
-28.3618
 20
-28.055
 30
0.0
 10
-28.3618
 20
-28.055
 30
0.0
 10
-28.3618
 20
-28.055
 30
0.0
 10
-28.3618
 20
-28.055
 30
0.0
 10
-28.4641
 20
-28.0647
 30
0.0
 10
-28.4641
 20
-28.0647
 30
0.0
 10
-28.4641
 20
-28.0647
 30
0.0
 10
-28.4641
 20
-28.0647
 30
0.0
 10
-29.2194
 20
-25.321
 30
0.0
 10
-29.2194
 20
-25.321
 30
0.0
 10
-29.2194
 20
-25.321
 30
0.0
 10
-29.2194
 20
-25.321
 30
0.0
 10
-28.1654
 20
-25.2212
 30
0.0
 10
-28.1654
 20
-25.2212
 30
0.0
  0
SPLINE
  5
C1
330
1F
100
AcDbEntity
  8
AXIS
 62
   250
100
AcDbSpline
210
0.0
220
0.0
230
1.0
 70
    11
 71
     3
 72
    20
 73
    16
 74
     0
 42
0.0000000001
 43
0.0000000001
 40
0.0
 40
0.0
 40
0.0
 40
0.0
 40
0.2
 40
0.2
 40
0.2
 40
0.2
 40
0.4
 40
0.4
 40
0.4
 40
0.4
 40
0.6
 40
0.6
 40
0.6
 40
0.6
 40
1.0
 40
1.0
 40
1.0
 40
1.0
 10
-28.172
 20
-36.588
 30
0.0
 10
-28.172
 20
-36.588
 30
0.0
 10
-27.9621
 20
-33.7552
 30
0.0
 10
-27.9621
 20
-33.7552
 30
0.0
 10
-27.9621
 20
-33.7552
 30
0.0
 10
-27.9621
 20
-33.7552
 30
0.0
 10
-27.8597
 20
-33.746
 30
0.0
 10
-27.8597
 20
-33.746
 30
0.0
 10
-27.8597
 20
-33.746
 30
0.0
 10
-27.8597
 20
-33.746
 30
0.0
 10
-27.1175
 20
-36.4933
 30
0.0
 10
-27.1175
 20
-36.4933
 30
0.0
 10
-27.1175
 20
-36.4933
 30
0.0
 10
-27.1175
 20
-36.4933
 30
0.0
 10
-28.172
 20
-36.588
 30
0.0
 10
-28.172
 20
-36.588
 30
0.0
  0
SPLINE
  5
C2
330
1F
100
AcDbEntity
  8
AXIS
 62
   250
100
AcDbSpline
210
0.0
220
0.0
230
1.0
 70
    11
 71
     3
 72
    20
 73
    16
 74
     0
 42
0.0000000001
 43
0.0000000001
 40
0.0
 40
0.0
 40
0.0
 40
0.0
 40
0.2
 40
0.2
 40
0.2
 40
0.2
 40
0.4
 40
0.4
 40
0.4
 40
0.4
 40
0.6
 40
0.6
 40
0.6
 40
0.6
 40
1.0
 40
1.0
 40
1.0
 40
1.0
 10
-33.3491
 20
-24.7909
 30
0.0
 10
-33.3491
 20
-24.7909
 30
0.0
 10
-33.5455
 20
-27.6247
 30
0.0
 10
-33.5455
 20
-27.6247
 30
0.0
 10
-33.5455
 20
-27.6247
 30
0.0
 10
-33.5455
 20
-27.6247
 30
0.0
 10
-33.6478
 20
-27.6344
 30
0.0
 10
-33.6478
 20
-27.6344
 30
0.0
 10
-33.6478
 20
-27.6344
 30
0.0
 10
-33.6478
 20
-27.6344
 30
0.0
 10
-34.4031
 20
-24.8907
 30
0.0
 10
-34.4031
 20
-24.8907
 30
0.0
 10
-34.4031
 20
-24.8907
 30
0.0
 10
-34.4031
 20
-24.8907
 30
0.0
 10
-33.3491
 20
-24.7909
 30
0.0
 10
-33.3491
 20
-24.7909
 30
0.0
  0
SPLINE
  5
C3
330
1F
100
AcDbEntity
  8
AXIS
 62
   250
100
AcDbSpline
210
0.0
220
0.0
230
1.0
 70
    11
 71
     3
 72
    20
 73
    16
 74
     0
 42
0.0000000001
 43
0.0000000001
 40
0.0
 40
0.0
 40
0.0
 40
0.0
 40
0.2
 40
0.2
 40
0.2
 40
0.2
 40
0.4
 40
0.4
 40
0.4
 40
0.4
 40
0.6
 40
0.6
 40
0.6
 40
0.6
 40
1.0
 40
1.0
 40
1.0
 40
1.0
 10
-33.1985
 20
-37.6426
 30
0.0
 10
-33.1985
 20
-37.6426
 30
0.0
 10
-32.9886
 20
-34.8098
 30
0.0
 10
-32.9886
 20
-34.8098
 30
0.0
 10
-32.9886
 20
-34.8098
 30
0.0
 10
-32.9886
 20
-34.8098
 30
0.0
 10
-32.8862
 20
-34.8006
 30
0.0
 10
-32.8862
 20
-34.8006
 30
0.0
 10
-32.8862
 20
-34.8006
 30
0.0
 10
-32.8862
 20
-34.8006
 30
0.0
 10
-32.144
 20
-37.5479
 30
0.0
 10
-32.144
 20
-37.5479
 30
0.0
 10
-32.144
 20
-37.5479
 30
0.0
 10
-32.144
 20
-37.5479
 30
0.0
 10
-33.1985
 20
-37.6426
 30
0.0
 10
-33.1985
 20
-37.6426
 30
0.0
  0
SPLINE
  5
C4
330
1F
100
AcDbEntity
  8
AXIS
 62
   250
100
AcDbSpline
210
0.0
220
0.0
230
1.0
 70
    11
 71
     3
 72
    20
 73
    16
 74
     0
 42
0.0000000001
 43
0.0000000001
 40
0.0
 40
0.0
 40
0.0
 40
0.0
 40
0.2
 40
0.2
 40
0.2
 40
0.2
 40
0.4
 40
0.4
 40
0.4
 40
0.4
 40
0.6
 40
0.6
 40
0.6
 40
0.6
 40
1.0
 40
1.0
 40
1.0
 40
1.0
 10
-21.4437
 20
-19.8264
 30
0.0
 10
-21.4437
 20
-19.8264
 30
0.0
 10
-21.9063
 20
-22.6291
 30
0.0
 10
-21.9063
 20
-22.6291
 30
0.0
 10
-21.9063
 20
-22.6291
 30
0.0
 10
-21.9063
 20
-22.6291
 30
0.0
 10
-22.0091
 20
-22.6291
 30
0.0
 10
-22.0091
 20
-22.6291
 30
0.0
 10
-22.0091
 20
-22.6291
 30
0.0
 10
-22.0091
 20
-22.6291
 30
0.0
 10
-22.5025
 20
-19.8264
 30
0.0
 10
-22.5025
 20
-19.8264
 30
0.0
 10
-22.5025
 20
-19.8264
 30
0.0
 10
-22.5025
 20
-19.8264
 30
0.0
 10
-21.4437
 20
-19.8264
 30
0.0
 10
-21.4437
 20
-19.8264
 30
0.0
  0
SPLINE
  5
C5
330
1F
100
AcDbEntity
  8
AXIS
 62
   250
100
AcDbSpline
210
0.0
220
0.0
230
1.0
 70
    11
 71
     3
 72
    20
 73
    16
 74
     0
 42
0.0000000001
 43
0.0000000001
 40
0.0
 40
0.0
 40
0.0
 40
0.0
 40
0.2
 40
0.2
 40
0.2
 40
0.2
 40
0.4
 40
0.4
 40
0.4
 40
0.4
 40
0.6
 40
0.6
 40
0.6
 40
0.6
 40
1.0
 40
1.0
 40
1.0
 40
1.0
 10
-22.4537
 20
23.8828
 30
0.0
 10
-22.4537
 20
23.8828
 30
0.0
 10
-21.991
 20
26.6854
 30
0.0
 10
-21.991
 20
26.6854
 30
0.0
 10
-21.991
 20
26.6854
 30
0.0
 10
-21.991
 20
26.6854
 30
0.0
 10
-21.8883
 20
26.6854
 30
0.0
 10
-21.8883
 20
26.6854
 30
0.0
 10
-21.8883
 20
26.6854
 30
0.0
 10
-21.8883
 20
26.6854
 30
0.0
 10
-21.3949
 20
23.8828
 30
0.0
 10
-21.3949
 20
23.8828
 30
0.0
 10
-21.3949
 20
23.8828
 30
0.0
 10
-21.3949
 20
23.8828
 30
0.0
 10
-22.4537
 20
23.8828
 30
0.0
 10
-22.4537
 20
23.8828
 30
0.0
  0
SPLINE
  5
C6
330
1F
100
AcDbEntity
  8
AXIS
 62
   250
100
AcDbSpline
210
0.0
220
0.0
230
1.0
 70
    11
 71
     3
 72
    20
 73
    16
 74
     0
 42
0.0000000001
 43
0.0000000001
 40
0.0
 40
0.0
 40
0.0
 40
0.0
 40
0.2
 40
0.2
 40
0.2
 40
0.2
 40
0.4
 40
0.4
 40
0.4
 40
0.4
 40
0.6
 40
0.6
 40
0.6
 40
0.6
 40
1.0
 40
1.0
 40
1.0
 40
1.0
 10
-21.499
 20
-37.3956
 30
0.0
 10
-21.499
 20
-37.3956
 30
0.0
 10
-21.9616
 20
-40.1983
 30
0.0
 10
-21.9616
 20
-40.1983
 30
0.0
 10
-21.9616
 20
-40.1983
 30
0.0
 10
-21.9616
 20
-40.1983
 30
0.0
 10
-22.0644
 20
-40.1983
 30
0.0
 10
-22.0644
 20
-40.1983
 30
0.0
 10
-22.0644
 20
-40.1983
 30
0.0
 10
-22.0644
 20
-40.1983
 30
0.0
 10
-22.5578
 20
-37.3956
 30
0.0
 10
-22.5578
 20
-37.3956
 30
0.0
 10
-22.5578
 20
-37.3956
 30
0.0
 10
-22.5578
 20
-37.3956
 30
0.0
 10
-21.499
 20
-37.3956
 30
0.0
 10
-21.499
 20
-37.3956
 30
0.0
  0
SPLINE
  5
C7
330
1F
100
AcDbEntity
  8
AXIS
 62
   250
100
AcDbSpline
210
0.0
220
0.0
230
1.0
 70
    11
 71
     3
 72
    20
 73
    16
 74
     0
 42
0.0000000001
 43
0.0000000001
 40
0.0
 40
0.0
 40
0.0
 40
0.0
 40
0.2
 40
0.2
 40
0.2
 40
0.2
 40
0.4
 40
0.4
 40
0.4
 40
0.4
 40
0.6
 40
0.6
 40
0.6
 40
0.6
 40
1.0
 40
1.0
 40
1.0
 40
1.0
 10
-22.4893
 20
-25.6721
 30
0.0
 10
-22.4893
 20
-25.6721
 30
0.0
 10
-22.0266
 20
-22.8695
 30
0.0
 10
-22.0266
 20
-22.8695
 30
0.0
 10
-22.0266
 20
-22.8695
 30
0.0
 10
-22.0266
 20
-22.8695
 30
0.0
 10
-21.9239
 20
-22.8695
 30
0.0
 10
-21.9239
 20
-22.8695
 30
0.0
 10
-21.9239
 20
-22.8695
 30
0.0
 10
-21.9239
 20
-22.8695
 30
0.0
 10
-21.4305
 20
-25.6721
 30
0.0
 10
-21.4305
 20
-25.6721
 30
0.0
 10
-21.4305
 20
-25.6721
 30
0.0
 10
-21.4305
 20
-25.6721
 30
0.0
 10
-22.4893
 20
-25.6721
 30
0.0
 10
-22.4893
 20
-25.6721
 30
0.0
  0
SPLINE
  5
C8
330
1F
100
AcDbEntity
  8
AXIS
 62
   250
100
AcDbSpline
210
0.0
220
0.0
230
1.0
 70
    11
 71
     3
 72
    20
 73
    16
 74
     0
 42
0.0000000001
 43
0.0000000001
 40
0.0
 40
0.0
 40
0.0
 40
0.0
 40
0.2
 40
0.2
 40
0.2
 40
0.2
 40
0.4
 40
0.4
 40
0.4
 40
0.4
 40
0.6
 40
0.6
 40
0.6
 40
0.6
 40
1.0
 40
1.0
 40
1.0
 40
1.0
 10
-11.5146
 20
-3.2591
 30
0.0
 10
-11.5146
 20
-3.2591
 30
0.0
 10
-8.7119
 20
-3.7217
 30
0.0
 10
-8.7119
 20
-3.7217
 30
0.0
 10
-8.7119
 20
-3.7217
 30
0.0
 10
-8.7119
 20
-3.7217
 30
0.0
 10
-8.7119
 20
-3.8245
 30
0.0
 10
-8.7119
 20
-3.8245
 30
0.0
 10
-8.7119
 20
-3.8245
 30
0.0
 10
-8.7119
 20
-3.8245
 30
0.0
 10
-11.5146
 20
-4.3179
 30
0.0
 10
-11.5146
 20
-4.3179
 30
0.0
 10
-11.5146
 20
-4.3179
 30
0.0
 10
-11.5146
 20
-4.3179
 30
0.0
 10
-11.5146
 20
-3.2591
 30
0.0
 10
-11.5146
 20
-3.2591
 30
0.0
  0
SPLINE
  5
C9
330
1F
100
AcDbEntity
  8
AXIS
 62
   250
100
AcDbSpline
210
0.0
220
0.0
230
1.0
 70
    11
 71
     3
 72
    20
 73
    16
 74
     0
 42
0.0000000001
 43
0.0000000001
 40
0.0
 40
0.0
 40
0.0
 40
0.0
 40
0.2
 40
0.2
 40
0.2
 40
0.2
 40
0.4
 40
0.4
 40
0.4
 40
0.4
 40
0.6
 40
0.6
 40
0.6
 40
0.6
 40
1.0
 40
1.0
 40
1.0
 40
1.0
 10
4.132
 20
-4.2809
 30
0.0
 10
4.132
 20
-4.2809
 30
0.0
 10
1.3293
 20
-3.8183
 30
0.0
 10
1.3293
 20
-3.8183
 30
0.0
 10
1.3293
 20
-3.8183
 30
0.0
 10
1.3293
 20
-3.8183
 30
0.0
 10
1.3293
 20
-3.7155
 30
0.0
 10
1.3293
 20
-3.7155
 30
0.0
 10
1.3293
 20
-3.7155
 30
0.0
 10
1.3293
 20
-3.7155
 30
0.0
 10
4.132
 20
-3.2221
 30
0.0
 10
4.132
 20
-3.2221
 30
0.0
 10
4.132
 20
-3.2221
 30
0.0
 10
4.132
 20
-3.2221
 30
0.0
 10
4.132
 20
-4.2809
 30
0.0
 10
4.132
 20
-4.2809
 30
0.0
  0
SPLINE
  5
CA
330
1F
100
AcDbEntity
  8
AXIS
 62
   250
100
AcDbSpline
210
0.0
220
0.0
230
1.0
 70
    11
 71
     3
 72
    20
 73
    16
 74
     0
 42
0.0000000001
 43
0.0000000001
 40
0.0
 40
0.0
 40
0.0
 40
0.0
 40
0.2
 40
0.2
 40
0.2
 40
0.2
 40
0.4
 40
0.4
 40
0.4
 40
0.4
 40
0.6
 40
0.6
 40
0.6
 40
0.6
 40
1.0
 40
1.0
 40
1.0
 40
1.0
 10
26.7829
 20
37.1746
 30
0.0
 10
26.7829
 20
37.1746
 30
0.0
 10
29.5856
 20
36.712
 30
0.0
 10
29.5856
 20
36.712
 30
0.0
 10
29.5856
 20
36.712
 30
0.0
 10
29.5856
 20
36.712
 30
0.0
 10
29.5856
 20
36.6092
 30
0.0
 10
29.5856
 20
36.6092
 30
0.0
 10
29.5856
 20
36.6092
 30
0.0
 10
29.5856
 20
36.6092
 30
0.0
 10
26.7829
 20
36.1158
 30
0.0
 10
26.7829
 20
36.1158
 30
0.0
 10
26.7829
 20
36.1158
 30
0.0
 10
26.7829
 20
36.1158
 30
0.0
 10
26.7829
 20
37.1746
 30
0.0
 10
26.7829
 20
37.1746
 30
0.0
  0
SPLINE
  5
CB
330
1F
100
AcDbEntity
  8
AXIS
 62
   250
100
AcDbSpline
210
0.0
220
0.0
230
1.0
 70
    11
 71
     3
 72
    20
 73
    16
 74
     0
 42
0.0000000001
 43
0.0000000001
 40
0.0
 40
0.0
 40
0.0
 40
0.0
 40
0.2
 40
0.2
 40
0.2
 40
0.2
 40
0.4
 40
0.4
 40
0.4
 40
0.4
 40
0.6
 40
0.6
 40
0.6
 40
0.6
 40
1.0
 40
1.0
 40
1.0
 40
1.0
 10
-0.8244
 20
36.1845
 30
0.0
 10
-0.8244
 20
36.1845
 30
0.0
 10
-3.6271
 20
36.6471
 30
0.0
 10
-3.6271
 20
36.6471
 30
0.0
 10
-3.6271
 20
36.6471
 30
0.0
 10
-3.6271
 20
36.6471
 30
0.0
 10
-3.6271
 20
36.7499
 30
0.0
 10
-3.6271
 20
36.7499
 30
0.0
 10
-3.6271
 20
36.7499
 30
0.0
 10
-3.6271
 20
36.7499
 30
0.0
 10
-0.8244
 20
37.2433
 30
0.0
 10
-0.8244
 20
37.2433
 30
0.0
 10
-0.8244
 20
37.2433
 30
0.0
 10
-0.8244
 20
37.2433
 30
0.0
 10
-0.8244
 20
36.1845
 30
0.0
 10
-0.8244
 20
36.1845
 30
0.0
  0
SPLINE
  5
CC
330
1F
100
AcDbEntity
  8
AXIS
 62
   250
100
AcDbSpline
210
0.0
220
0.0
230
1.0
 70
    11
 71
     3
 72
    20
 73
    16
 74
     0
 42
0.0000000001
 43
0.0000000001
 40
0.0
 40
0.0
 40
0.0
 40
0.0
 40
0.2
 40
0.2
 40
0.2
 40
0.2
 40
0.4
 40
0.4
 40
0.4
 40
0.4
 40
0.6
 40
0.6
 40
0.6
 40
0.6
 40
1.0
 40
1.0
 40
1.0
 40
1.0
 10
17.7199
 20
30.8428
 30
0.0
 10
17.7199
 20
30.8428
 30
0.0
 10
18.4498
 20
33.588
 30
0.0
 10
18.4498
 20
33.588
 30
0.0
 10
18.4498
 20
33.588
 30
0.0
 10
18.4498
 20
33.588
 30
0.0
 10
18.5521
 20
33.5781
 30
0.0
 10
18.5521
 20
33.5781
 30
0.0
 10
18.5521
 20
33.5781
 30
0.0
 10
18.5521
 20
33.5781
 30
0.0
 10
18.7737
 20
30.741
 30
0.0
 10
18.7737
 20
30.741
 30
0.0
 10
18.7737
 20
30.741
 30
0.0
 10
18.7737
 20
30.741
 30
0.0
 10
17.7199
 20
30.8428
 30
0.0
 10
17.7199
 20
30.8428
 30
0.0
  0
SPLINE
  5
CD
330
1F
100
AcDbEntity
  8
AXIS
 62
   250
100
AcDbSpline
210
0.0
220
0.0
230
1.0
 70
    11
 71
     3
 72
    20
 73
    16
 74
     0
 42
0.0000000001
 43
0.0000000001
 40
0.0
 40
0.0
 40
0.0
 40
0.0
 40
0.2
 40
0.2
 40
0.2
 40
0.2
 40
0.4
 40
0.4
 40
0.4
 40
0.4
 40
0.6
 40
0.6
 40
0.6
 40
0.6
 40
1.0
 40
1.0
 40
1.0
 40
1.0
 10
18.1364
 20
25.7764
 30
0.0
 10
18.1364
 20
25.7764
 30
0.0
 10
17.3643
 20
23.0428
 30
0.0
 10
17.3643
 20
23.0428
 30
0.0
 10
17.3643
 20
23.0428
 30
0.0
 10
17.3643
 20
23.0428
 30
0.0
 10
17.2622
 20
23.0542
 30
0.0
 10
17.2622
 20
23.0542
 30
0.0
 10
17.2622
 20
23.0542
 30
0.0
 10
17.2622
 20
23.0542
 30
0.0
 10
17.0843
 20
25.8944
 30
0.0
 10
17.0843
 20
25.8944
 30
0.0
 10
17.0843
 20
25.8944
 30
0.0
 10
17.0843
 20
25.8944
 30
0.0
 10
18.1364
 20
25.7764
 30
0.0
 10
18.1364
 20
25.7764
 30
0.0
  0
SPLINE
  5
CE
330
1F
100
AcDbEntity
  8
AXIS
 62
   250
100
AcDbSpline
210
0.0
220
0.0
230
1.0
 70
    24
 71
     3
 72
     8
 73
     4
 74
     0
 42
0.0000000001
 43
0.0000000001
 40
0.0
 40
0.0
 40
0.0
 40
0.0
 40
1.0
 40
1.0
 40
1.0
 40
1.0
 10
-8.5891
 20
-18.1842
 30
0.0
 10
-8.5891
 20
-18.1842
 30
0.0
 10
-8.5891
 20
-18.0724
 30
0.0
 10
-8.5891
 20
-18.0724
 30
0.0
  0
SPLINE
  5
CF
330
1F
100
AcDbEntity
  8
AXIS
 62
   250
100
AcDbSpline
210
0.0
220
0.0
230
1.0
 70
     8
 71
     3
 72
    12
 73
     8
 74
     0
 42
0.0000000001
 43
0.0000000001
 40
0.0
 40
0.0
 40
0.0
 40
0.0
 40
0.3333333333333333
 40
0.3333333333333333
 40
0.3333333333333333
 40
0.3333333333333333
 40
1.0
 40
1.0
 40
1.0
 40
1.0
 10
-6.3512
 20
-20.3097
 30
0.0
 10
-6.3512
 20
-20.3097
 30
0.0
 10
-6.3283
 20
-20.3497
 30
0.0
 10
-6.3283
 20
-20.3497
 30
0.0
 10
-6.3283
 20
-20.3497
 30
0.0
 10
-6.3283
 20
-20.3497
 30
0.0
 10
-6.3214
 20
-20.3912
 30
0.0
 10
-6.3214
 20
-20.3912
 30
0.0
  0
SPLINE
  5
D0
330
1F
100
AcDbEntity
  8
AXIS
 62
   250
100
AcDbSpline
210
0.0
220
0.0
230
1.0
 70
    24
 71
     3
 72
     8
 73
     4
 74
     0
 42
0.0000000001
 43
0.0000000001
 40
0.0
 40
0.0
 40
0.0
 40
0.0
 40
1.0
 40
1.0
 40
1.0
 40
1.0
 10
-6.3284
 20
-20.3494
 30
0.0
 10
-6.3284
 20
-20.3494
 30
0.0
 10
-6.3284
 20
-20.3496
 30
0.0
 10
-6.3284
 20
-20.3496
 30
0.0
  0
SPLINE
  5
D1
330
1F
100
AcDbEntity
  8
AXIS
 62
   250
100
AcDbSpline
210
0.0
220
0.0
230
1.0
 70
    24
 71
     3
 72
     8
 73
     4
 74
     0
 42
0.0000000001
 43
0.0000000001
 40
0.0
 40
0.0
 40
0.0
 40
0.0
 40
1.0
 40
1.0
 40
1.0
 40
1.0
 10
-6.7437
 20
-20.0613
 30
0.0
 10
-6.7437
 20
-20.0613
 30
0.0
 10
-6.9533
 20
-18.4519
 30
0.0
 10
-6.9533
 20
-18.4519
 30
0.0
  0
SPLINE
  5
D2
330
1F
100
AcDbEntity
  8
AXIS
 62
   250
100
AcDbSpline
210
0.0
220
0.0
230
1.0
 70
    24
 71
     3
 72
     8
 73
     4
 74
     0
 42
0.0000000001
 43
0.0000000001
 40
0.0
 40
0.0
 40
0.0
 40
0.0
 40
1.0
 40
1.0
 40
1.0
 40
1.0
 10
-6.3214
 20
-20.3912
 30
0.0
 10
-6.3214
 20
-20.3912
 30
0.0
 10
-6.3214
 20
-20.4998
 30
0.0
 10
-6.3214
 20
-20.4998
 30
0.0
  0
SPLINE
  5
D3
330
1F
100
AcDbEntity
  8
AXIS
 62
   250
100
AcDbSpline
210
0.0
220
0.0
230
1.0
 70
    24
 71
     3
 72
     8
 73
     4
 74
     0
 42
0.0000000001
 43
0.0000000001
 40
0.0
 40
0.0
 40
0.0
 40
0.0
 40
1.0
 40
1.0
 40
1.0
 40
1.0
 10
-4.1454
 20
-20.448
 30
0.0
 10
-4.1454
 20
-20.448
 30
0.0
 10
-4.1454
 20
-20.5039
 30
0.0
 10
-4.1454
 20
-20.5039
 30
0.0
  0
SPLINE
  5
D4
330
1F
100
AcDbEntity
  8
AXIS
 62
   250
100
AcDbSpline
210
0.0
220
0.0
230
1.0
 70
    24
 71
     3
 72
     8
 73
     4
 74
     0
 42
0.0000000001
 43
0.0000000001
 40
0.0
 40
0.0
 40
0.0
 40
0.0
 40
1.0
 40
1.0
 40
1.0
 40
1.0
 10
-3.2511
 20
-20.448
 30
0.0
 10
-3.2511
 20
-20.448
 30
0.0
 10
-3.2511
 20
-20.5039
 30
0.0
 10
-3.2511
 20
-20.5039
 30
0.0
  0
SPLINE
  5
D5
330
1F
100
AcDbEntity
  8
AXIS
 62
   250
100
AcDbSpline
210
0.0
220
0.0
230
1.0
 70
    24
 71
     3
 72
     8
 73
     4
 74
     0
 42
0.0000000001
 43
0.0000000001
 40
0.0
 40
0.0
 40
0.0
 40
0.0
 40
1.0
 40
1.0
 40
1.0
 40
1.0
 10
-6.3961
 20
-20.2803
 30
0.0
 10
-6.3961
 20
-20.2803
 30
0.0
 10
-6.3961
 20
-20.2804
 30
0.0
 10
-6.3961
 20
-20.2804
 30
0.0
  0
SPLINE
  5
D6
330
1F
100
AcDbEntity
  8
AXIS
 62
   250
100
AcDbSpline
210
0.0
220
0.0
230
1.0
 70
    24
 71
     3
 72
     8
 73
     4
 74
     0
 42
0.0000000001
 43
0.0000000001
 40
0.0
 40
0.0
 40
0.0
 40
0.0
 40
1.0
 40
1.0
 40
1.0
 40
1.0
 10
-1.0751
 20
-20.3912
 30
0.0
 10
-1.0751
 20
-20.3912
 30
0.0
 10
-1.0751
 20
-20.4998
 30
0.0
 10
-1.0751
 20
-20.4998
 30
0.0
  0
SPLINE
  5
D7
330
1F
100
AcDbEntity
  8
AXIS
 62
   250
100
AcDbSpline
210
0.0
220
0.0
230
1.0
 70
    24
 71
     3
 72
     8
 73
     4
 74
     0
 42
0.0000000001
 43
0.0000000001
 40
0.0
 40
0.0
 40
0.0
 40
0.0
 40
1.0
 40
1.0
 40
1.0
 40
1.0
 10
-0.6529
 20
-20.0613
 30
0.0
 10
-0.6529
 20
-20.0613
 30
0.0
 10
-0.4433
 20
-18.4519
 30
0.0
 10
-0.4433
 20
-18.4519
 30
0.0
  0
SPLINE
  5
D8
330
1F
100
AcDbEntity
  8
AXIS
 62
   250
100
AcDbSpline
210
0.0
220
0.0
230
1.0
 70
    24
 71
     3
 72
     8
 73
     4
 74
     0
 42
0.0000000001
 43
0.0000000001
 40
0.0
 40
0.0
 40
0.0
 40
0.0
 40
1.0
 40
1.0
 40
1.0
 40
1.0
 10
-6.3962
 20
-20.2804
 30
0.0
 10
-6.3962
 20
-20.2804
 30
0.0
 10
-6.3956
 20
-20.2805
 30
0.0
 10
-6.3956
 20
-20.2805
 30
0.0
  0
SPLINE
  5
D9
330
1F
100
AcDbEntity
  8
AXIS
 62
   250
100
AcDbSpline
210
0.0
220
0.0
230
1.0
 70
     8
 71
     3
 72
    16
 73
    12
 74
     0
 42
0.0000000001
 43
0.0000000001
 40
0.0
 40
0.0
 40
0.0
 40
0.0
 40
0.25
 40
0.25
 40
0.25
 40
0.25
 40
0.5
 40
0.5
 40
0.5
 40
0.5
 40
1.0
 40
1.0
 40
1.0
 40
1.0
 10
-6.3961
 20
-20.2804
 30
0.0
 10
-6.3961
 20
-20.2804
 30
0.0
 10
-6.3948
 20
-20.2807
 30
0.0
 10
-6.3948
 20
-20.2807
 30
0.0
 10
-6.3948
 20
-20.2807
 30
0.0
 10
-6.3948
 20
-20.2807
 30
0.0
 10
-6.3775
 20
-20.2877
 30
0.0
 10
-6.3775
 20
-20.2877
 30
0.0
 10
-6.3775
 20
-20.2877
 30
0.0
 10
-6.3775
 20
-20.2877
 30
0.0
 10
-6.3511
 20
-20.3099
 30
0.0
 10
-6.3511
 20
-20.3099
 30
0.0
  0
SPLINE
  5
DA
330
1F
100
AcDbEntity
  8
AXIS
 62
   250
100
AcDbSpline
210
0.0
220
0.0
230
1.0
 70
    24
 71
     3
 72
     8
 73
     4
 74
     0
 42
0.0000000001
 43
0.0000000001
 40
0.0
 40
0.0
 40
0.0
 40
0.0
 40
1.0
 40
1.0
 40
1.0
 40
1.0
 10
1.1926
 20
-18.1842
 30
0.0
 10
1.1926
 20
-18.1842
 30
0.0
 10
1.1926
 20
-18.0724
 30
0.0
 10
1.1926
 20
-18.0724
 30
0.0
  0
SPLINE
  5
DB
330
1F
100
AcDbEntity
  8
AXIS
 62
   250
100
AcDbSpline
210
0.0
220
0.0
230
1.0
 70
    24
 71
     3
 72
     8
 73
     4
 74
     0
 42
0.0000000001
 43
0.0000000001
 40
0.0
 40
0.0
 40
0.0
 40
0.0
 40
1.0
 40
1.0
 40
1.0
 40
1.0
 10
-1.0751
 20
-20.3912
 30
0.0
 10
-1.0751
 20
-20.3912
 30
0.0
 10
-1.0681
 20
-20.3494
 30
0.0
 10
-1.0681
 20
-20.3494
 30
0.0
  0
SPLINE
  5
DC
330
1F
100
AcDbEntity
  8
AXIS
 62
   250
100
AcDbSpline
210
0.0
220
0.0
230
1.0
 70
    24
 71
     3
 72
     8
 73
     4
 74
     0
 42
0.0000000001
 43
0.0000000001
 40
0.0
 40
0.0
 40
0.0
 40
0.0
 40
1.0
 40
1.0
 40
1.0
 40
1.0
 10
-1.0866
 20
-20.5039
 30
0.0
 10
-1.0866
 20
-20.5039
 30
0.0
 10
-1.2072
 20
-20.5039
 30
0.0
 10
-1.2072
 20
-20.5039
 30
0.0
  0
SPLINE
  5
DD
330
1F
100
AcDbEntity
  8
AXIS
 62
   250
100
AcDbSpline
210
0.0
220
0.0
230
1.0
 70
    24
 71
     3
 72
     8
 73
     4
 74
     0
 42
0.0000000001
 43
0.0000000001
 40
0.0
 40
0.0
 40
0.0
 40
0.0
 40
1.0
 40
1.0
 40
1.0
 40
1.0
 10
-6.1894
 20
-20.5039
 30
0.0
 10
-6.1894
 20
-20.5039
 30
0.0
 10
-6.31
 20
-20.5039
 30
0.0
 10
-6.31
 20
-20.5039
 30
0.0
  0
SPLINE
  5
DE
330
1F
100
AcDbEntity
  8
AXIS
 62
   250
100
AcDbSpline
210
0.0
220
0.0
230
1.0
 70
    24
 71
     3
 72
     8
 73
     4
 74
     0
 42
0.0000000001
 43
0.0000000001
 40
0.0
 40
0.0
 40
0.0
 40
0.0
 40
1.0
 40
1.0
 40
1.0
 40
1.0
 10
-6.1357
 20
-20.5039
 30
0.0
 10
-6.1357
 20
-20.5039
 30
0.0
 10
-4.1454
 20
-20.5039
 30
0.0
 10
-4.1454
 20
-20.5039
 30
0.0
  0
SPLINE
  5
DF
330
1F
100
AcDbEntity
  8
AXIS
 62
   250
100
AcDbSpline
210
0.0
220
0.0
230
1.0
 70
    24
 71
     3
 72
     8
 73
     4
 74
     0
 42
0.0000000001
 43
0.0000000001
 40
0.0
 40
0.0
 40
0.0
 40
0.0
 40
1.0
 40
1.0
 40
1.0
 40
1.0
 10
-3.2511
 20
-20.5039
 30
0.0
 10
-3.2511
 20
-20.5039
 30
0.0
 10
-1.2608
 20
-20.5039
 30
0.0
 10
-1.2608
 20
-20.5039
 30
0.0
  0
SPLINE
  5
E0
330
1F
100
AcDbEntity
  8
AXIS
 62
   250
100
AcDbSpline
210
0.0
220
0.0
230
1.0
 70
    24
 71
     3
 72
     8
 73
     4
 74
     0
 42
0.0000000001
 43
0.0000000001
 40
0.0
 40
0.0
 40
0.0
 40
0.0
 40
1.0
 40
1.0
 40
1.0
 40
1.0
 10
-3.2638
 20
-20.3873
 30
0.0
 10
-3.2638
 20
-20.3873
 30
0.0
 10
-4.1327
 20
-20.3873
 30
0.0
 10
-4.1327
 20
-20.3873
 30
0.0
  0
SPLINE
  5
E1
330
1F
100
AcDbEntity
  8
AXIS
 62
   250
100
AcDbSpline
210
0.0
220
0.0
230
1.0
 70
    24
 71
     3
 72
     8
 73
     4
 74
     0
 42
0.0000000001
 43
0.0000000001
 40
0.0
 40
0.0
 40
0.0
 40
0.0
 40
1.0
 40
1.0
 40
1.0
 40
1.0
 10
-6.4942
 20
-20.2803
 30
0.0
 10
-6.4942
 20
-20.2803
 30
0.0
 10
-6.3961
 20
-20.2803
 30
0.0
 10
-6.3961
 20
-20.2803
 30
0.0
  0
SPLINE
  5
E2
330
1F
100
AcDbEntity
  8
AXIS
 62
   250
100
AcDbSpline
210
0.0
220
0.0
230
1.0
 70
    24
 71
     3
 72
     8
 73
     4
 74
     0
 42
0.0000000001
 43
0.0000000001
 40
0.0
 40
0.0
 40
0.0
 40
0.0
 40
1.0
 40
1.0
 40
1.0
 40
1.0
 10
-4.4324
 20
-20.2803
 30
0.0
 10
-4.4324
 20
-20.2803
 30
0.0
 10
-2.9641
 20
-20.2803
 30
0.0
 10
-2.9641
 20
-20.2803
 30
0.0
  0
SPLINE
  5
E3
330
1F
100
AcDbEntity
  8
AXIS
 62
   250
100
AcDbSpline
210
0.0
220
0.0
230
1.0
 70
    24
 71
     3
 72
     8
 73
     4
 74
     0
 42
0.0000000001
 43
0.0000000001
 40
0.0
 40
0.0
 40
0.0
 40
0.0
 40
1.0
 40
1.0
 40
1.0
 40
1.0
 10
-1.0004
 20
-20.2803
 30
0.0
 10
-1.0004
 20
-20.2803
 30
0.0
 10
-0.9023
 20
-20.2803
 30
0.0
 10
-0.9023
 20
-20.2803
 30
0.0
  0
SPLINE
  5
E4
330
1F
100
AcDbEntity
  8
AXIS
 62
   250
100
AcDbSpline
210
0.0
220
0.0
230
1.0
 70
    24
 71
     3
 72
     8
 73
     4
 74
     0
 42
0.0000000001
 43
0.0000000001
 40
0.0
 40
0.0
 40
0.0
 40
0.0
 40
1.0
 40
1.0
 40
1.0
 40
1.0
 10
-1.1197
 20
-20.2091
 30
0.0
 10
-1.1197
 20
-20.2091
 30
0.0
 10
-2.2219
 20
-20.2091
 30
0.0
 10
-2.2219
 20
-20.2091
 30
0.0
  0
SPLINE
  5
E5
330
1F
100
AcDbEntity
  8
AXIS
 62
   250
100
AcDbSpline
210
0.0
220
0.0
230
1.0
 70
    24
 71
     3
 72
     8
 73
     4
 74
     0
 42
0.0000000001
 43
0.0000000001
 40
0.0
 40
0.0
 40
0.0
 40
0.0
 40
1.0
 40
1.0
 40
1.0
 40
1.0
 10
-5.1747
 20
-20.2091
 30
0.0
 10
-5.1747
 20
-20.2091
 30
0.0
 10
-6.2768
 20
-20.2091
 30
0.0
 10
-6.2768
 20
-20.2091
 30
0.0
  0
SPLINE
  5
E6
330
1F
100
AcDbEntity
  8
AXIS
 62
   250
100
AcDbSpline
210
0.0
220
0.0
230
1.0
 70
    24
 71
     3
 72
     8
 73
     4
 74
     0
 42
0.0000000001
 43
0.0000000001
 40
0.0
 40
0.0
 40
0.0
 40
0.0
 40
1.0
 40
1.0
 40
1.0
 40
1.0
 10
-1.0682
 20
-20.3496
 30
0.0
 10
-1.0682
 20
-20.3496
 30
0.0
 10
-1.0453
 20
-20.3096
 30
0.0
 10
-1.0453
 20
-20.3096
 30
0.0
  0
SPLINE
  5
E7
330
1F
100
AcDbEntity
  8
AXIS
 62
   250
100
AcDbSpline
210
0.0
220
0.0
230
1.0
 70
    24
 71
     3
 72
     8
 73
     4
 74
     0
 42
0.0000000001
 43
0.0000000001
 40
0.0
 40
0.0
 40
0.0
 40
0.0
 40
1.0
 40
1.0
 40
1.0
 40
1.0
 10
1.1926
 20
-18.1842
 30
0.0
 10
1.1926
 20
-18.1842
 30
0.0
 10
-8.5891
 20
-18.1842
 30
0.0
 10
-8.5891
 20
-18.1842
 30
0.0
  0
SPLINE
  5
E8
330
1F
100
AcDbEntity
  8
AXIS
 62
   250
100
AcDbSpline
210
0.0
220
0.0
230
1.0
 70
    24
 71
     3
 72
     8
 73
     4
 74
     0
 42
0.0000000001
 43
0.0000000001
 40
0.0
 40
0.0
 40
0.0
 40
0.0
 40
1.0
 40
1.0
 40
1.0
 40
1.0
 10
1.1926
 20
-18.0724
 30
0.0
 10
1.1926
 20
-18.0724
 30
0.0
 10
-8.5891
 20
-18.0724
 30
0.0
 10
-8.5891
 20
-18.0724
 30
0.0
  0
SPLINE
  5
E9
330
1F
100
AcDbEntity
  8
AXIS
 62
   250
100
AcDbSpline
210
0.0
220
0.0
230
1.0
 70
    24
 71
     3
 72
     8
 73
     4
 74
     0
 42
0.0000000001
 43
0.0000000001
 40
0.0
 40
0.0
 40
0.0
 40
0.0
 40
1.0
 40
1.0
 40
1.0
 40
1.0
 10
-1.0455
 20
-20.3099
 30
0.0
 10
-1.0455
 20
-20.3099
 30
0.0
 10
-1.0188
 20
-20.2876
 30
0.0
 10
-1.0188
 20
-20.2876
 30
0.0
  0
SPLINE
  5
EA
330
1F
100
AcDbEntity
  8
AXIS
 62
   250
100
AcDbSpline
210
0.0
220
0.0
230
1.0
 70
    24
 71
     3
 72
     8
 73
     4
 74
     0
 42
0.0000000001
 43
0.0000000001
 40
0.0
 40
0.0
 40
0.0
 40
0.0
 40
1.0
 40
1.0
 40
1.0
 40
1.0
 10
-1.0188
 20
-20.2876
 30
0.0
 10
-1.0188
 20
-20.2876
 30
0.0
 10
-1.0115
 20
-20.284
 30
0.0
 10
-1.0115
 20
-20.284
 30
0.0
  0
SPLINE
  5
EB
330
1F
100
AcDbEntity
  8
AXIS
 62
   250
100
AcDbSpline
210
0.0
220
0.0
230
1.0
 70
     8
 71
     3
 72
    12
 73
     8
 74
     0
 42
0.0000000001
 43
0.0000000001
 40
0.0
 40
0.0
 40
0.0
 40
0.0
 40
0.3333333333333333
 40
0.3333333333333333
 40
0.3333333333333333
 40
0.3333333333333333
 40
1.0
 40
1.0
 40
1.0
 40
1.0
 10
-1.0115
 20
-20.284
 30
0.0
 10
-1.0115
 20
-20.284
 30
0.0
 10
-1.0016
 20
-20.2806
 30
0.0
 10
-1.0016
 20
-20.2806
 30
0.0
 10
-1.0016
 20
-20.2806
 30
0.0
 10
-1.0016
 20
-20.2806
 30
0.0
 10
-1.0005
 20
-20.2803
 30
0.0
 10
-1.0005
 20
-20.2803
 30
0.0
  0
SPLINE
  5
EC
330
1F
100
AcDbEntity
  8
AXIS
 62
   250
100
AcDbSpline
210
0.0
220
0.0
230
1.0
 70
     8
 71
     3
 72
     8
 73
     4
 74
     0
 42
0.0000000001
 43
0.0000000001
 40
0.0
 40
0.0
 40
0.0
 40
0.0
 40
1.0
 40
1.0
 40
1.0
 40
1.0
 10
-3.9777
 20
-20.2803
 30
0.0
 10
-4.0704
 20
-20.2803
 30
0.0
 10
-4.1454
 20
-20.3554
 30
0.0
 10
-4.1454
 20
-20.448
 30
0.0
  0
SPLINE
  5
ED
330
1F
100
AcDbEntity
  8
AXIS
 62
   250
100
AcDbSpline
210
0.0
220
0.0
230
1.0
 70
     8
 71
     3
 72
     8
 73
     4
 74
     0
 42
0.0000000001
 43
0.0000000001
 40
0.0
 40
0.0
 40
0.0
 40
0.0
 40
1.0
 40
1.0
 40
1.0
 40
1.0
 10
-6.9533
 20
-18.4519
 30
0.0
 10
-6.9732
 20
-18.2988
 30
0.0
 10
-7.1037
 20
-18.1842
 30
0.0
 10
-7.2581
 20
-18.1842
 30
0.0
  0
SPLINE
  5
EE
330
1F
100
AcDbEntity
  8
AXIS
 62
   250
100
AcDbSpline
210
0.0
220
0.0
230
1.0
 70
     8
 71
     3
 72
     8
 73
     4
 74
     0
 42
0.0000000001
 43
0.0000000001
 40
0.0
 40
0.0
 40
0.0
 40
0.0
 40
1.0
 40
1.0
 40
1.0
 40
1.0
 10
-0.1384
 20
-18.1842
 30
0.0
 10
-0.2929
 20
-18.1842
 30
0.0
 10
-0.4234
 20
-18.2988
 30
0.0
 10
-0.4433
 20
-18.4519
 30
0.0
  0
SPLINE
  5
EF
330
1F
100
AcDbEntity
  8
AXIS
 62
   250
100
AcDbSpline
210
0.0
220
0.0
230
1.0
 70
     8
 71
     3
 72
     8
 73
     4
 74
     0
 42
0.0000000001
 43
0.0000000001
 40
0.0
 40
0.0
 40
0.0
 40
0.0
 40
1.0
 40
1.0
 40
1.0
 40
1.0
 10
-6.7437
 20
-20.0613
 30
0.0
 10
-6.7273
 20
-20.1865
 30
0.0
 10
-6.6206
 20
-20.2803
 30
0.0
 10
-6.4942
 20
-20.2803
 30
0.0
  0
SPLINE
  5
F0
330
1F
100
AcDbEntity
  8
AXIS
 62
   250
100
AcDbSpline
210
0.0
220
0.0
230
1.0
 70
     8
 71
     3
 72
     8
 73
     4
 74
     0
 42
0.0000000001
 43
0.0000000001
 40
0.0
 40
0.0
 40
0.0
 40
0.0
 40
1.0
 40
1.0
 40
1.0
 40
1.0
 10
-0.9023
 20
-20.2803
 30
0.0
 10
-0.776
 20
-20.2803
 30
0.0
 10
-0.6692
 20
-20.1865
 30
0.0
 10
-0.6529
 20
-20.0613
 30
0.0
  0
SPLINE
  5
F1
330
1F
100
AcDbEntity
  8
AXIS
 62
   250
100
AcDbSpline
210
0.0
220
0.0
230
1.0
 70
     8
 71
     3
 72
     8
 73
     4
 74
     0
 42
0.0000000001
 43
0.0000000001
 40
0.0
 40
0.0
 40
0.0
 40
0.0
 40
1.0
 40
1.0
 40
1.0
 40
1.0
 10
-3.2511
 20
-20.448
 30
0.0
 10
-3.2511
 20
-20.3554
 30
0.0
 10
-3.3262
 20
-20.2803
 30
0.0
 10
-3.4188
 20
-20.2803
 30
0.0
  0
SPLINE
  5
F2
330
1F
100
AcDbEntity
  8
AXIS
 62
   250
100
AcDbSpline
210
0.0
220
0.0
230
1.0
 70
     8
 71
     3
 72
    12
 73
     8
 74
     0
 42
0.0000000001
 43
0.0000000001
 40
0.0
 40
0.0
 40
0.0
 40
0.0
 40
0.3333333333333333
 40
0.3333333333333333
 40
0.3333333333333333
 40
0.3333333333333333
 40
1.0
 40
1.0
 40
1.0
 40
1.0
 10
-1.2072
 20
-20.5039
 30
0.0
 10
-1.2072
 20
-20.5039
 30
0.0
 10
-1.2299
 20
-20.5037
 30
0.0
 10
-1.2299
 20
-20.5037
 30
0.0
 10
-1.2299
 20
-20.5037
 30
0.0
 10
-1.2299
 20
-20.5037
 30
0.0
 10
-1.2608
 20
-20.5036
 30
0.0
 10
-1.2608
 20
-20.5036
 30
0.0
  0
SPLINE
  5
F3
330
1F
100
AcDbEntity
  8
AXIS
 62
   250
100
AcDbSpline
210
0.0
220
0.0
230
1.0
 70
     8
 71
     3
 72
    12
 73
     8
 74
     0
 42
0.0000000001
 43
0.0000000001
 40
0.0
 40
0.0
 40
0.0
 40
0.0
 40
0.3333333333333333
 40
0.3333333333333333
 40
0.3333333333333333
 40
0.3333333333333333
 40
1.0
 40
1.0
 40
1.0
 40
1.0
 10
-6.31
 20
-20.5039
 30
0.0
 10
-6.31
 20
-20.5039
 30
0.0
 10
-6.3206
 20
-20.5016
 30
0.0
 10
-6.3206
 20
-20.5016
 30
0.0
 10
-6.3206
 20
-20.5016
 30
0.0
 10
-6.3206
 20
-20.5016
 30
0.0
 10
-6.3206
 20
-20.5003
 30
0.0
 10
-6.3206
 20
-20.5003
 30
0.0
  0
SPLINE
  5
F4
330
1F
100
AcDbEntity
  8
AXIS
 62
   250
100
AcDbSpline
210
0.0
220
0.0
230
1.0
 70
     8
 71
     3
 72
    12
 73
     8
 74
     0
 42
0.0000000001
 43
0.0000000001
 40
0.0
 40
0.0
 40
0.0
 40
0.0
 40
0.3333333333333333
 40
0.3333333333333333
 40
0.3333333333333333
 40
0.3333333333333333
 40
1.0
 40
1.0
 40
1.0
 40
1.0
 10
-6.1357
 20
-20.5036
 30
0.0
 10
-6.1357
 20
-20.5036
 30
0.0
 10
-6.1667
 20
-20.5037
 30
0.0
 10
-6.1667
 20
-20.5037
 30
0.0
 10
-6.1667
 20
-20.5037
 30
0.0
 10
-6.1667
 20
-20.5037
 30
0.0
 10
-6.1894
 20
-20.5039
 30
0.0
 10
-6.1894
 20
-20.5039
 30
0.0
  0
SPLINE
  5
F5
330
1F
100
AcDbEntity
  8
AXIS
 62
   250
100
AcDbSpline
210
0.0
220
0.0
230
1.0
 70
     8
 71
     3
 72
    12
 73
     8
 74
     0
 42
0.0000000001
 43
0.0000000001
 40
0.0
 40
0.0
 40
0.0
 40
0.0
 40
0.3333333333333333
 40
0.3333333333333333
 40
0.3333333333333333
 40
0.3333333333333333
 40
1.0
 40
1.0
 40
1.0
 40
1.0
 10
-1.0759
 20
-20.5003
 30
0.0
 10
-1.0759
 20
-20.5003
 30
0.0
 10
-1.0759
 20
-20.5016
 30
0.0
 10
-1.0759
 20
-20.5016
 30
0.0
 10
-1.0759
 20
-20.5016
 30
0.0
 10
-1.0759
 20
-20.5016
 30
0.0
 10
-1.0866
 20
-20.5039
 30
0.0
 10
-1.0866
 20
-20.5039
 30
0.0
  0
SPLINE
  5
F6
330
1F
100
AcDbEntity
  8
AXIS
 62
   250
100
AcDbSpline
210
0.0
220
0.0
230
1.0
 70
     8
 71
     3
 72
    32
 73
    28
 74
     0
 42
0.0000000001
 43
0.0000000001
 40
0.0
 40
0.0
 40
0.0
 40
0.0
 40
0.125
 40
0.125
 40
0.125
 40
0.125
 40
0.25
 40
0.25
 40
0.25
 40
0.25
 40
0.375
 40
0.375
 40
0.375
 40
0.375
 40
0.5
 40
0.5
 40
0.5
 40
0.5
 40
0.625
 40
0.625
 40
0.625
 40
0.625
 40
0.75
 40
0.75
 40
0.75
 40
0.75
 40
1.0
 40
1.0
 40
1.0
 40
1.0
 10
-1.0004
 20
-20.2803
 30
0.0
 10
-1.0004
 20
-20.2803
 30
0.0
 10
-0.9852
 20
-20.2776
 30
0.0
 10
-0.9852
 20
-20.2776
 30
0.0
 10
-0.9852
 20
-20.2776
 30
0.0
 10
-0.9852
 20
-20.2776
 30
0.0
 10
-0.9768
 20
-20.2699
 30
0.0
 10
-0.9768
 20
-20.2699
 30
0.0
 10
-0.9768
 20
-20.2699
 30
0.0
 10
-0.9768
 20
-20.2699
 30
0.0
 10
-0.9776
 20
-20.2575
 30
0.0
 10
-0.9776
 20
-20.2575
 30
0.0
 10
-0.9776
 20
-20.2575
 30
0.0
 10
-0.9776
 20
-20.2575
 30
0.0
 10
-0.9905
 20
-20.2418
 30
0.0
 10
-0.9905
 20
-20.2418
 30
0.0
 10
-0.9905
 20
-20.2418
 30
0.0
 10
-0.9905
 20
-20.2418
 30
0.0
 10
-1.0193
 20
-20.2254
 30
0.0
 10
-1.0193
 20
-20.2254
 30
0.0
 10
-1.0193
 20
-20.2254
 30
0.0
 10
-1.0193
 20
-20.2254
 30
0.0
 10
-1.0651
 20
-20.213
 30
0.0
 10
-1.0651
 20
-20.213
 30
0.0
 10
-1.0651
 20
-20.213
 30
0.0
 10
-1.0651
 20
-20.213
 30
0.0
 10
-1.1197
 20
-20.2091
 30
0.0
 10
-1.1197
 20
-20.2091
 30
0.0
  0
SPLINE
  5
F7
330
1F
100
AcDbEntity
  8
AXIS
 62
   250
100
AcDbSpline
210
0.0
220
0.0
230
1.0
 70
    24
 71
     3
 72
     8
 73
     4
 74
     0
 42
0.0000000001
 43
0.0000000001
 40
0.0
 40
0.0
 40
0.0
 40
0.0
 40
1.0
 40
1.0
 40
1.0
 40
1.0
 10
-6.1308
 20
-20.5039
 30
0.0
 10
-6.1308
 20
-20.5039
 30
0.0
 10
-6.1292
 20
-20.5039
 30
0.0
 10
-6.1292
 20
-20.5039
 30
0.0
  0
SPLINE
  5
F8
330
1F
100
AcDbEntity
  8
AXIS
 62
   250
100
AcDbSpline
210
0.0
220
0.0
230
1.0
 70
     8
 71
     3
 72
    32
 73
    28
 74
     0
 42
0.0000000001
 43
0.0000000001
 40
0.0
 40
0.0
 40
0.0
 40
0.0
 40
0.125
 40
0.125
 40
0.125
 40
0.125
 40
0.25
 40
0.25
 40
0.25
 40
0.25
 40
0.375
 40
0.375
 40
0.375
 40
0.375
 40
0.5
 40
0.5
 40
0.5
 40
0.5
 40
0.625
 40
0.625
 40
0.625
 40
0.625
 40
0.75
 40
0.75
 40
0.75
 40
0.75
 40
1.0
 40
1.0
 40
1.0
 40
1.0
 10
-4.4324
 20
-20.2803
 30
0.0
 10
-4.4324
 20
-20.2803
 30
0.0
 10
-4.5097
 20
-20.2778
 30
0.0
 10
-4.5097
 20
-20.2778
 30
0.0
 10
-4.5097
 20
-20.2778
 30
0.0
 10
-4.5097
 20
-20.2778
 30
0.0
 10
-4.5976
 20
-20.2703
 30
0.0
 10
-4.5976
 20
-20.2703
 30
0.0
 10
-4.5976
 20
-20.2703
 30
0.0
 10
-4.5976
 20
-20.2703
 30
0.0
 10
-4.6967
 20
-20.2584
 30
0.0
 10
-4.6967
 20
-20.2584
 30
0.0
 10
-4.6967
 20
-20.2584
 30
0.0
 10
-4.6967
 20
-20.2584
 30
0.0
 10
-4.8069
 20
-20.2432
 30
0.0
 10
-4.8069
 20
-20.2432
 30
0.0
 10
-4.8069
 20
-20.2432
 30
0.0
 10
-4.8069
 20
-20.2432
 30
0.0
 10
-4.9302
 20
-20.2266
 30
0.0
 10
-4.9302
 20
-20.2266
 30
0.0
 10
-4.9302
 20
-20.2266
 30
0.0
 10
-4.9302
 20
-20.2266
 30
0.0
 10
-5.0597
 20
-20.2135
 30
0.0
 10
-5.0597
 20
-20.2135
 30
0.0
 10
-5.0597
 20
-20.2135
 30
0.0
 10
-5.0597
 20
-20.2135
 30
0.0
 10
-5.1747
 20
-20.2091
 30
0.0
 10
-5.1747
 20
-20.2091
 30
0.0
  0
SPLINE
  5
F9
330
1F
100
AcDbEntity
  8
AXIS
 62
   250
100
AcDbSpline
210
0.0
220
0.0
230
1.0
 70
     8
 71
     3
 72
    32
 73
    28
 74
     0
 42
0.0000000001
 43
0.0000000001
 40
0.0
 40
0.0
 40
0.0
 40
0.0
 40
0.125
 40
0.125
 40
0.125
 40
0.125
 40
0.25
 40
0.25
 40
0.25
 40
0.25
 40
0.375
 40
0.375
 40
0.375
 40
0.375
 40
0.5
 40
0.5
 40
0.5
 40
0.5
 40
0.625
 40
0.625
 40
0.625
 40
0.625
 40
0.75
 40
0.75
 40
0.75
 40
0.75
 40
1.0
 40
1.0
 40
1.0
 40
1.0
 10
-2.2219
 20
-20.2091
 30
0.0
 10
-2.2219
 20
-20.2091
 30
0.0
 10
-2.3299
 20
-20.213
 30
0.0
 10
-2.3299
 20
-20.213
 30
0.0
 10
-2.3299
 20
-20.213
 30
0.0
 10
-2.3299
 20
-20.213
 30
0.0
 10
-2.4546
 20
-20.2252
 30
0.0
 10
-2.4546
 20
-20.2252
 30
0.0
 10
-2.4546
 20
-20.2252
 30
0.0
 10
-2.4546
 20
-20.2252
 30
0.0
 10
-2.5781
 20
-20.2416
 30
0.0
 10
-2.5781
 20
-20.2416
 30
0.0
 10
-2.5781
 20
-20.2416
 30
0.0
 10
-2.5781
 20
-20.2416
 30
0.0
 10
-2.6915
 20
-20.2573
 30
0.0
 10
-2.6915
 20
-20.2573
 30
0.0
 10
-2.6915
 20
-20.2573
 30
0.0
 10
-2.6915
 20
-20.2573
 30
0.0
 10
-2.7937
 20
-20.2698
 30
0.0
 10
-2.7937
 20
-20.2698
 30
0.0
 10
-2.7937
 20
-20.2698
 30
0.0
 10
-2.7937
 20
-20.2698
 30
0.0
 10
-2.8845
 20
-20.2776
 30
0.0
 10
-2.8845
 20
-20.2776
 30
0.0
 10
-2.8845
 20
-20.2776
 30
0.0
 10
-2.8845
 20
-20.2776
 30
0.0
 10
-2.9641
 20
-20.2803
 30
0.0
 10
-2.9641
 20
-20.2803
 30
0.0
  0
SPLINE
  5
FA
330
1F
100
AcDbEntity
  8
AXIS
 62
   250
100
AcDbSpline
210
0.0
220
0.0
230
1.0
 70
     8
 71
     3
 72
    32
 73
    28
 74
     0
 42
0.0000000001
 43
0.0000000001
 40
0.0
 40
0.0
 40
0.0
 40
0.0
 40
0.125
 40
0.125
 40
0.125
 40
0.125
 40
0.25
 40
0.25
 40
0.25
 40
0.25
 40
0.375
 40
0.375
 40
0.375
 40
0.375
 40
0.5
 40
0.5
 40
0.5
 40
0.5
 40
0.625
 40
0.625
 40
0.625
 40
0.625
 40
0.75
 40
0.75
 40
0.75
 40
0.75
 40
1.0
 40
1.0
 40
1.0
 40
1.0
 10
-6.2768
 20
-20.2091
 30
0.0
 10
-6.2768
 20
-20.2091
 30
0.0
 10
-6.3274
 20
-20.2124
 30
0.0
 10
-6.3274
 20
-20.2124
 30
0.0
 10
-6.3274
 20
-20.2124
 30
0.0
 10
-6.3274
 20
-20.2124
 30
0.0
 10
-6.3722
 20
-20.2234
 30
0.0
 10
-6.3722
 20
-20.2234
 30
0.0
 10
-6.3722
 20
-20.2234
 30
0.0
 10
-6.3722
 20
-20.2234
 30
0.0
 10
-6.4029
 20
-20.2394
 30
0.0
 10
-6.4029
 20
-20.2394
 30
0.0
 10
-6.4029
 20
-20.2394
 30
0.0
 10
-6.4029
 20
-20.2394
 30
0.0
 10
-6.4181
 20
-20.2557
 30
0.0
 10
-6.4181
 20
-20.2557
 30
0.0
 10
-6.4181
 20
-20.2557
 30
0.0
 10
-6.4181
 20
-20.2557
 30
0.0
 10
-6.4201
 20
-20.269
 30
0.0
 10
-6.4201
 20
-20.269
 30
0.0
 10
-6.4201
 20
-20.269
 30
0.0
 10
-6.4201
 20
-20.269
 30
0.0
 10
-6.4118
 20
-20.2774
 30
0.0
 10
-6.4118
 20
-20.2774
 30
0.0
 10
-6.4118
 20
-20.2774
 30
0.0
 10
-6.4118
 20
-20.2774
 30
0.0
 10
-6.3961
 20
-20.2803
 30
0.0
 10
-6.3961
 20
-20.2803
 30
0.0
  0
SPLINE
  5
FB
330
1F
100
AcDbEntity
  8
AXIS
 62
   250
100
AcDbSpline
210
0.0
220
0.0
230
1.0
 70
    24
 71
     3
 72
     8
 73
     4
 74
     0
 42
0.0000000001
 43
0.0000000001
 40
0.0
 40
0.0
 40
0.0
 40
0.0
 40
1.0
 40
1.0
 40
1.0
 40
1.0
 10
-1.2674
 20
-20.5039
 30
0.0
 10
-1.2674
 20
-20.5039
 30
0.0
 10
-1.2658
 20
-20.5039
 30
0.0
 10
-1.2658
 20
-20.5039
 30
0.0
  0
SPLINE
  5
FC
330
1F
100
AcDbEntity
  8
AXIS
 62
   250
100
AcDbSpline
210
0.0
220
0.0
230
1.0
 70
    24
 71
     3
 72
     8
 73
     4
 74
     0
 42
0.0000000001
 43
0.0000000001
 40
0.0
 40
0.0
 40
0.0
 40
0.0
 40
1.0
 40
1.0
 40
1.0
 40
1.0
 10
-1.2658
 20
-20.5039
 30
0.0
 10
-1.2658
 20
-20.5039
 30
0.0
 10
-1.2609
 20
-20.5037
 30
0.0
 10
-1.2609
 20
-20.5037
 30
0.0
  0
SPLINE
  5
FD
330
1F
100
AcDbEntity
  8
AXIS
 62
   250
100
AcDbSpline
210
0.0
220
0.0
230
1.0
 70
    24
 71
     3
 72
     8
 73
     4
 74
     0
 42
0.0000000001
 43
0.0000000001
 40
0.0
 40
0.0
 40
0.0
 40
0.0
 40
1.0
 40
1.0
 40
1.0
 40
1.0
 10
-8.5291
 20
-9.3452
 30
0.0
 10
-8.5291
 20
-9.3452
 30
0.0
 10
-8.5695
 20
-9.5743
 30
0.0
 10
-8.5695
 20
-9.5743
 30
0.0
  0
SPLINE
  5
FE
330
1F
100
AcDbEntity
  8
AXIS
 62
   250
100
AcDbSpline
210
0.0
220
0.0
230
1.0
 70
    24
 71
     3
 72
     8
 73
     4
 74
     0
 42
0.0000000001
 43
0.0000000001
 40
0.0
 40
0.0
 40
0.0
 40
0.0
 40
1.0
 40
1.0
 40
1.0
 40
1.0
 10
-4.1954
 20
-16.8684
 30
0.0
 10
-4.1954
 20
-16.8684
 30
0.0
 10
-4.2371
 20
-10.9018
 30
0.0
 10
-4.2371
 20
-10.9018
 30
0.0
  0
SPLINE
  5
FF
330
1F
100
AcDbEntity
  8
AXIS
 62
   250
100
AcDbSpline
210
0.0
220
0.0
230
1.0
 70
    24
 71
     3
 72
     8
 73
     4
 74
     0
 42
0.0000000001
 43
0.0000000001
 40
0.0
 40
0.0
 40
0.0
 40
0.0
 40
1.0
 40
1.0
 40
1.0
 40
1.0
 10
-6.5643
 20
-10.8599
 30
0.0
 10
-6.5643
 20
-10.8599
 30
0.0
 10
-6.5643
 20
-10.6643
 30
0.0
 10
-6.5643
 20
-10.6643
 30
0.0
  0
SPLINE
  5
100
330
1F
100
AcDbEntity
  8
AXIS
 62
   250
100
AcDbSpline
210
0.0
220
0.0
230
1.0
 70
    24
 71
     3
 72
     8
 73
     4
 74
     0
 42
0.0000000001
 43
0.0000000001
 40
0.0
 40
0.0
 40
0.0
 40
0.0
 40
1.0
 40
1.0
 40
1.0
 40
1.0
 10
-6.1311
 20
-9.9935
 30
0.0
 10
-6.1311
 20
-9.9935
 30
0.0
 10
-6.1311
 20
-10.4826
 30
0.0
 10
-6.1311
 20
-10.4826
 30
0.0
  0
SPLINE
  5
101
330
1F
100
AcDbEntity
  8
AXIS
 62
   250
100
AcDbSpline
210
0.0
220
0.0
230
1.0
 70
    24
 71
     3
 72
     8
 73
     4
 74
     0
 42
0.0000000001
 43
0.0000000001
 40
0.0
 40
0.0
 40
0.0
 40
0.0
 40
1.0
 40
1.0
 40
1.0
 40
1.0
 10
-5.9843
 20
-9.7141
 30
0.0
 10
-5.9843
 20
-9.7141
 30
0.0
 10
-5.9843
 20
-9.7839
 30
0.0
 10
-5.9843
 20
-9.7839
 30
0.0
  0
SPLINE
  5
102
330
1F
100
AcDbEntity
  8
AXIS
 62
   250
100
AcDbSpline
210
0.0
220
0.0
230
1.0
 70
    24
 71
     3
 72
     8
 73
     4
 74
     0
 42
0.0000000001
 43
0.0000000001
 40
0.0
 40
0.0
 40
0.0
 40
0.0
 40
1.0
 40
1.0
 40
1.0
 40
1.0
 10
-4.1677
 20
-17.4136
 30
0.0
 10
-4.1677
 20
-17.4136
 30
0.0
 10
-4.1677
 20
-17.0224
 30
0.0
 10
-4.1677
 20
-17.0224
 30
0.0
  0
SPLINE
  5
103
330
1F
100
AcDbEntity
  8
AXIS
 62
   250
100
AcDbSpline
210
0.0
220
0.0
230
1.0
 70
    24
 71
     3
 72
     8
 73
     4
 74
     0
 42
0.0000000001
 43
0.0000000001
 40
0.0
 40
0.0
 40
0.0
 40
0.0
 40
1.0
 40
1.0
 40
1.0
 40
1.0
 10
-3.9581
 20
-17.0224
 30
0.0
 10
-3.9581
 20
-17.0224
 30
0.0
 10
-3.9581
 20
-16.9106
 30
0.0
 10
-3.9581
 20
-16.9106
 30
0.0
  0
SPLINE
  5
104
330
1F
100
AcDbEntity
  8
AXIS
 62
   250
100
AcDbSpline
210
0.0
220
0.0
230
1.0
 70
    24
 71
     3
 72
     8
 73
     4
 74
     0
 42
0.0000000001
 43
0.0000000001
 40
0.0
 40
0.0
 40
0.0
 40
0.0
 40
1.0
 40
1.0
 40
1.0
 40
1.0
 10
-3.6799
 20
-17.3756
 30
0.0
 10
-3.6799
 20
-17.3756
 30
0.0
 10
-3.6799
 20
-17.0213
 30
0.0
 10
-3.6799
 20
-17.0213
 30
0.0
  0
SPLINE
  5
105
330
1F
100
AcDbEntity
  8
AXIS
 62
   250
100
AcDbSpline
210
0.0
220
0.0
230
1.0
 70
    24
 71
     3
 72
     8
 73
     4
 74
     0
 42
0.0000000001
 43
0.0000000001
 40
0.0
 40
0.0
 40
0.0
 40
0.0
 40
1.0
 40
1.0
 40
1.0
 40
1.0
 10
-3.3992
 20
-17.0224
 30
0.0
 10
-3.3992
 20
-17.0224
 30
0.0
 10
-3.3992
 20
-16.9106
 30
0.0
 10
-3.3992
 20
-16.9106
 30
0.0
  0
SPLINE
  5
106
330
1F
100
AcDbEntity
  8
AXIS
 62
   250
100
AcDbSpline
210
0.0
220
0.0
230
1.0
 70
    24
 71
     3
 72
     8
 73
     4
 74
     0
 42
0.0000000001
 43
0.0000000001
 40
0.0
 40
0.0
 40
0.0
 40
0.0
 40
1.0
 40
1.0
 40
1.0
 40
1.0
 10
-3.1896
 20
-17.4136
 30
0.0
 10
-3.1896
 20
-17.4136
 30
0.0
 10
-3.1896
 20
-17.0224
 30
0.0
 10
-3.1896
 20
-17.0224
 30
0.0
  0
SPLINE
  5
107
330
1F
100
AcDbEntity
  8
AXIS
 62
   250
100
AcDbSpline
210
0.0
220
0.0
230
1.0
 70
    24
 71
     3
 72
     8
 73
     4
 74
     0
 42
0.0000000001
 43
0.0000000001
 40
0.0
 40
0.0
 40
0.0
 40
0.0
 40
1.0
 40
1.0
 40
1.0
 40
1.0
 10
-3.1618
 20
-16.8684
 30
0.0
 10
-3.1618
 20
-16.8684
 30
0.0
 10
-3.1202
 20
-10.9018
 30
0.0
 10
-3.1202
 20
-10.9018
 30
0.0
  0
SPLINE
  5
108
330
1F
100
AcDbEntity
  8
AXIS
 62
   250
100
AcDbSpline
210
0.0
220
0.0
230
1.0
 70
    24
 71
     3
 72
     8
 73
     4
 74
     0
 42
0.0000000001
 43
0.0000000001
 40
0.0
 40
0.0
 40
0.0
 40
0.0
 40
1.0
 40
1.0
 40
1.0
 40
1.0
 10
-1.373
 20
-9.7141
 30
0.0
 10
-1.373
 20
-9.7141
 30
0.0
 10
-1.373
 20
-9.7839
 30
0.0
 10
-1.373
 20
-9.7839
 30
0.0
  0
SPLINE
  5
109
330
1F
100
AcDbEntity
  8
AXIS
 62
   250
100
AcDbSpline
210
0.0
220
0.0
230
1.0
 70
    24
 71
     3
 72
     8
 73
     4
 74
     0
 42
0.0000000001
 43
0.0000000001
 40
0.0
 40
0.0
 40
0.0
 40
0.0
 40
1.0
 40
1.0
 40
1.0
 40
1.0
 10
-1.2262
 20
-9.9935
 30
0.0
 10
-1.2262
 20
-9.9935
 30
0.0
 10
-1.2262
 20
-10.4826
 30
0.0
 10
-1.2262
 20
-10.4826
 30
0.0
  0
SPLINE
  5
10A
330
1F
100
AcDbEntity
  8
AXIS
 62
   250
100
AcDbSpline
210
0.0
220
0.0
230
1.0
 70
    24
 71
     3
 72
     8
 73
     4
 74
     0
 42
0.0000000001
 43
0.0000000001
 40
0.0
 40
0.0
 40
0.0
 40
0.0
 40
1.0
 40
1.0
 40
1.0
 40
1.0
 10
-0.793
 20
-10.8599
 30
0.0
 10
-0.793
 20
-10.8599
 30
0.0
 10
-0.793
 20
-10.6643
 30
0.0
 10
-0.793
 20
-10.6643
 30
0.0
  0
SPLINE
  5
10B
330
1F
100
AcDbEntity
  8
AXIS
 62
   250
100
AcDbSpline
210
0.0
220
0.0
230
1.0
 70
    24
 71
     3
 72
     8
 73
     4
 74
     0
 42
0.0000000001
 43
0.0000000001
 40
0.0
 40
0.0
 40
0.0
 40
0.0
 40
1.0
 40
1.0
 40
1.0
 40
1.0
 10
-4.1532
 20
-16.9106
 30
0.0
 10
-4.1532
 20
-16.9106
 30
0.0
 10
-4.1954
 20
-16.8684
 30
0.0
 10
-4.1954
 20
-16.8684
 30
0.0
  0
SPLINE
  5
10C
330
1F
100
AcDbEntity
  8
AXIS
 62
   250
100
AcDbSpline
210
0.0
220
0.0
230
1.0
 70
    24
 71
     3
 72
     8
 73
     4
 74
     0
 42
0.0000000001
 43
0.0000000001
 40
0.0
 40
0.0
 40
0.0
 40
0.0
 40
1.0
 40
1.0
 40
1.0
 40
1.0
 10
-3.2041
 20
-16.9106
 30
0.0
 10
-3.2041
 20
-16.9106
 30
0.0
 10
-3.1618
 20
-16.8684
 30
0.0
 10
-3.1618
 20
-16.8684
 30
0.0
  0
SPLINE
  5
10D
330
1F
100
AcDbEntity
  8
AXIS
 62
   250
100
AcDbSpline
210
0.0
220
0.0
230
1.0
 70
    24
 71
     3
 72
     8
 73
     4
 74
     0
 42
0.0000000001
 43
0.0000000001
 40
0.0
 40
0.0
 40
0.0
 40
0.0
 40
1.0
 40
1.0
 40
1.0
 40
1.0
 10
1.1718
 20
-9.3452
 30
0.0
 10
1.1718
 20
-9.3452
 30
0.0
 10
1.2122
 20
-9.5743
 30
0.0
 10
1.2122
 20
-9.5743
 30
0.0
  0
SPLINE
  5
10E
330
1F
100
AcDbEntity
  8
AXIS
 62
   250
100
AcDbSpline
210
0.0
220
0.0
230
1.0
 70
    24
 71
     3
 72
     8
 73
     4
 74
     0
 42
0.0000000001
 43
0.0000000001
 40
0.0
 40
0.0
 40
0.0
 40
0.0
 40
1.0
 40
1.0
 40
1.0
 40
1.0
 10
-4.1677
 20
-17.4136
 30
0.0
 10
-4.1677
 20
-17.4136
 30
0.0
 10
-3.1896
 20
-17.4136
 30
0.0
 10
-3.1896
 20
-17.4136
 30
0.0
  0
SPLINE
  5
10F
330
1F
100
AcDbEntity
  8
AXIS
 62
   250
100
AcDbSpline
210
0.0
220
0.0
230
1.0
 70
    24
 71
     3
 72
     8
 73
     4
 74
     0
 42
0.0000000001
 43
0.0000000001
 40
0.0
 40
0.0
 40
0.0
 40
0.0
 40
1.0
 40
1.0
 40
1.0
 40
1.0
 10
-4.1677
 20
-17.3733
 30
0.0
 10
-4.1677
 20
-17.3733
 30
0.0
 10
-4.1575
 20
-17.3733
 30
0.0
 10
-4.1575
 20
-17.3733
 30
0.0
  0
SPLINE
  5
110
330
1F
100
AcDbEntity
  8
AXIS
 62
   250
100
AcDbSpline
210
0.0
220
0.0
230
1.0
 70
    24
 71
     3
 72
     8
 73
     4
 74
     0
 42
0.0000000001
 43
0.0000000001
 40
0.0
 40
0.0
 40
0.0
 40
0.0
 40
1.0
 40
1.0
 40
1.0
 40
1.0
 10
-3.6888
 20
-17.3733
 30
0.0
 10
-3.6888
 20
-17.3733
 30
0.0
 10
-3.6684
 20
-17.3733
 30
0.0
 10
-3.6684
 20
-17.3733
 30
0.0
  0
SPLINE
  5
111
330
1F
100
AcDbEntity
  8
AXIS
 62
   250
100
AcDbSpline
210
0.0
220
0.0
230
1.0
 70
    24
 71
     3
 72
     8
 73
     4
 74
     0
 42
0.0000000001
 43
0.0000000001
 40
0.0
 40
0.0
 40
0.0
 40
0.0
 40
1.0
 40
1.0
 40
1.0
 40
1.0
 10
-3.1997
 20
-17.3733
 30
0.0
 10
-3.1997
 20
-17.3733
 30
0.0
 10
-3.1896
 20
-17.3733
 30
0.0
 10
-3.1896
 20
-17.3733
 30
0.0
  0
SPLINE
  5
112
330
1F
100
AcDbEntity
  8
AXIS
 62
   250
100
AcDbSpline
210
0.0
220
0.0
230
1.0
 70
    24
 71
     3
 72
     8
 73
     4
 74
     0
 42
0.0000000001
 43
0.0000000001
 40
0.0
 40
0.0
 40
0.0
 40
0.0
 40
1.0
 40
1.0
 40
1.0
 40
1.0
 10
-4.1677
 20
-17.0224
 30
0.0
 10
-4.1677
 20
-17.0224
 30
0.0
 10
-3.1896
 20
-17.0224
 30
0.0
 10
-3.1896
 20
-17.0224
 30
0.0
  0
SPLINE
  5
113
330
1F
100
AcDbEntity
  8
AXIS
 62
   250
100
AcDbSpline
210
0.0
220
0.0
230
1.0
 70
    24
 71
     3
 72
     8
 73
     4
 74
     0
 42
0.0000000001
 43
0.0000000001
 40
0.0
 40
0.0
 40
0.0
 40
0.0
 40
1.0
 40
1.0
 40
1.0
 40
1.0
 10
-3.2041
 20
-16.9106
 30
0.0
 10
-3.2041
 20
-16.9106
 30
0.0
 10
-4.1532
 20
-16.9106
 30
0.0
 10
-4.1532
 20
-16.9106
 30
0.0
  0
SPLINE
  5
114
330
1F
100
AcDbEntity
  8
AXIS
 62
   250
100
AcDbSpline
210
0.0
220
0.0
230
1.0
 70
    24
 71
     3
 72
     8
 73
     4
 74
     0
 42
0.0000000001
 43
0.0000000001
 40
0.0
 40
0.0
 40
0.0
 40
0.0
 40
1.0
 40
1.0
 40
1.0
 40
1.0
 10
-6.5223
 20
-10.9018
 30
0.0
 10
-6.5223
 20
-10.9018
 30
0.0
 10
-0.835
 20
-10.9018
 30
0.0
 10
-0.835
 20
-10.9018
 30
0.0
  0
SPLINE
  5
115
330
1F
100
AcDbEntity
  8
AXIS
 62
   250
100
AcDbSpline
210
0.0
220
0.0
230
1.0
 70
    24
 71
     3
 72
     8
 73
     4
 74
     0
 42
0.0000000001
 43
0.0000000001
 40
0.0
 40
0.0
 40
0.0
 40
0.0
 40
1.0
 40
1.0
 40
1.0
 40
1.0
 10
-6.8228
 20
-10.6224
 30
0.0
 10
-6.8228
 20
-10.6224
 30
0.0
 10
-0.5345
 20
-10.6224
 30
0.0
 10
-0.5345
 20
-10.6224
 30
0.0
  0
SPLINE
  5
116
330
1F
100
AcDbEntity
  8
AXIS
 62
   250
100
AcDbSpline
210
0.0
220
0.0
230
1.0
 70
    24
 71
     3
 72
     8
 73
     4
 74
     0
 42
0.0000000001
 43
0.0000000001
 40
0.0
 40
0.0
 40
0.0
 40
0.0
 40
1.0
 40
1.0
 40
1.0
 40
1.0
 10
-0.6743
 20
-10.4826
 30
0.0
 10
-0.6743
 20
-10.4826
 30
0.0
 10
-6.683
 20
-10.4826
 30
0.0
 10
-6.683
 20
-10.4826
 30
0.0
  0
SPLINE
  5
117
330
1F
100
AcDbEntity
  8
AXIS
 62
   250
100
AcDbSpline
210
0.0
220
0.0
230
1.0
 70
    24
 71
     3
 72
     8
 73
     4
 74
     0
 42
0.0000000001
 43
0.0000000001
 40
0.0
 40
0.0
 40
0.0
 40
0.0
 40
1.0
 40
1.0
 40
1.0
 40
1.0
 10
-1.373
 20
-9.7839
 30
0.0
 10
-1.373
 20
-9.7839
 30
0.0
 10
-5.9843
 20
-9.7839
 30
0.0
 10
-5.9843
 20
-9.7839
 30
0.0
  0
SPLINE
  5
118
330
1F
100
AcDbEntity
  8
AXIS
 62
   250
100
AcDbSpline
210
0.0
220
0.0
230
1.0
 70
    24
 71
     3
 72
     8
 73
     4
 74
     0
 42
0.0000000001
 43
0.0000000001
 40
0.0
 40
0.0
 40
0.0
 40
0.0
 40
1.0
 40
1.0
 40
1.0
 40
1.0
 10
1.2122
 20
-9.5743
 30
0.0
 10
1.2122
 20
-9.5743
 30
0.0
 10
-8.5695
 20
-9.5743
 30
0.0
 10
-8.5695
 20
-9.5743
 30
0.0
  0
SPLINE
  5
119
330
1F
100
AcDbEntity
  8
AXIS
 62
   250
100
AcDbSpline
210
0.0
220
0.0
230
1.0
 70
    24
 71
     3
 72
     8
 73
     4
 74
     0
 42
0.0000000001
 43
0.0000000001
 40
0.0
 40
0.0
 40
0.0
 40
0.0
 40
1.0
 40
1.0
 40
1.0
 40
1.0
 10
-8.3826
 20
-9.2076
 30
0.0
 10
-8.3826
 20
-9.2076
 30
0.0
 10
1.0253
 20
-9.2076
 30
0.0
 10
1.0253
 20
-9.2076
 30
0.0
  0
SPLINE
  5
11A
330
1F
100
AcDbEntity
  8
AXIS
 62
   250
100
AcDbSpline
210
0.0
220
0.0
230
1.0
 70
     8
 71
     3
 72
     8
 73
     4
 74
     0
 42
0.0000000001
 43
0.0000000001
 40
0.0
 40
0.0
 40
0.0
 40
0.0
 40
1.0
 40
1.0
 40
1.0
 40
1.0
 10
-1.2262
 20
-9.9935
 30
0.0
 10
-1.2262
 20
-9.8778
 30
0.0
 10
-1.3201
 20
-9.7839
 30
0.0
 10
-1.4358
 20
-9.7839
 30
0.0
  0
SPLINE
  5
11B
330
1F
100
AcDbEntity
  8
AXIS
 62
   250
100
AcDbSpline
210
0.0
220
0.0
230
1.0
 70
     8
 71
     3
 72
     8
 73
     4
 74
     0
 42
0.0000000001
 43
0.0000000001
 40
0.0
 40
0.0
 40
0.0
 40
0.0
 40
1.0
 40
1.0
 40
1.0
 40
1.0
 10
-5.9215
 20
-9.7839
 30
0.0
 10
-6.0372
 20
-9.7839
 30
0.0
 10
-6.1311
 20
-9.8778
 30
0.0
 10
-6.1311
 20
-9.9935
 30
0.0
  0
SPLINE
  5
11C
330
1F
100
AcDbEntity
  8
AXIS
 62
   250
100
AcDbSpline
210
0.0
220
0.0
230
1.0
 70
     8
 71
     3
 72
     8
 73
     4
 74
     0
 42
0.0000000001
 43
0.0000000001
 40
0.0
 40
0.0
 40
0.0
 40
0.0
 40
1.0
 40
1.0
 40
1.0
 40
1.0
 10
-0.5345
 20
-10.6224
 30
0.0
 10
-0.5345
 20
-10.5452
 30
0.0
 10
-0.5971
 20
-10.4826
 30
0.0
 10
-0.6743
 20
-10.4826
 30
0.0
  0
SPLINE
  5
11D
330
1F
100
AcDbEntity
  8
AXIS
 62
   250
100
AcDbSpline
210
0.0
220
0.0
230
1.0
 70
     8
 71
     3
 72
     8
 73
     4
 74
     0
 42
0.0000000001
 43
0.0000000001
 40
0.0
 40
0.0
 40
0.0
 40
0.0
 40
1.0
 40
1.0
 40
1.0
 40
1.0
 10
-6.683
 20
-10.4826
 30
0.0
 10
-6.7602
 20
-10.4826
 30
0.0
 10
-6.8228
 20
-10.5452
 30
0.0
 10
-6.8228
 20
-10.6224
 30
0.0
  0
SPLINE
  5
11E
330
1F
100
AcDbEntity
  8
AXIS
 62
   250
100
AcDbSpline
210
0.0
220
0.0
230
1.0
 70
     8
 71
     3
 72
     8
 73
     4
 74
     0
 42
0.0000000001
 43
0.0000000001
 40
0.0
 40
0.0
 40
0.0
 40
0.0
 40
1.0
 40
1.0
 40
1.0
 40
1.0
 10
-5.9843
 20
-9.7141
 30
0.0
 10
-5.9843
 20
-9.6369
 30
0.0
 10
-6.0469
 20
-9.5743
 30
0.0
 10
-6.1241
 20
-9.5743
 30
0.0
  0
SPLINE
  5
11F
330
1F
100
AcDbEntity
  8
AXIS
 62
   250
100
AcDbSpline
210
0.0
220
0.0
230
1.0
 70
     8
 71
     3
 72
     8
 73
     4
 74
     0
 42
0.0000000001
 43
0.0000000001
 40
0.0
 40
0.0
 40
0.0
 40
0.0
 40
1.0
 40
1.0
 40
1.0
 40
1.0
 10
-1.2332
 20
-9.5743
 30
0.0
 10
-1.3104
 20
-9.5743
 30
0.0
 10
-1.373
 20
-9.6369
 30
0.0
 10
-1.373
 20
-9.7141
 30
0.0
  0
SPLINE
  5
120
330
1F
100
AcDbEntity
  8
AXIS
 62
   250
100
AcDbSpline
210
0.0
220
0.0
230
1.0
 70
     8
 71
     3
 72
     8
 73
     4
 74
     0
 42
0.0000000001
 43
0.0000000001
 40
0.0
 40
0.0
 40
0.0
 40
0.0
 40
1.0
 40
1.0
 40
1.0
 40
1.0
 10
1.1718
 20
-9.3452
 30
0.0
 10
1.1589
 20
-9.2718
 30
0.0
 10
1.0993
 20
-9.2159
 30
0.0
 10
1.0253
 20
-9.2076
 30
0.0
  0
SPLINE
  5
121
330
1F
100
AcDbEntity
  8
AXIS
 62
   250
100
AcDbSpline
210
0.0
220
0.0
230
1.0
 70
     8
 71
     3
 72
     8
 73
     4
 74
     0
 42
0.0000000001
 43
0.0000000001
 40
0.0
 40
0.0
 40
0.0
 40
0.0
 40
1.0
 40
1.0
 40
1.0
 40
1.0
 10
-8.3826
 20
-9.2076
 30
0.0
 10
-8.4565
 20
-9.2159
 30
0.0
 10
-8.5162
 20
-9.2718
 30
0.0
 10
-8.5291
 20
-9.3452
 30
0.0
  0
SPLINE
  5
122
330
1F
100
AcDbEntity
  8
AXIS
 62
   250
100
AcDbSpline
210
0.0
220
0.0
230
1.0
 70
     8
 71
     3
 72
     8
 73
     4
 74
     0
 42
0.0000000001
 43
0.0000000001
 40
0.0
 40
0.0
 40
0.0
 40
0.0
 40
1.0
 40
1.0
 40
1.0
 40
1.0
 10
1.0253
 20
-9.2076
 30
0.0
 10
-2.1009
 20
-8.8581
 30
0.0
 10
-5.2563
 20
-8.8581
 30
0.0
 10
-8.3826
 20
-9.2076
 30
0.0
  0
SPLINE
  5
123
330
1F
100
AcDbEntity
  8
AXIS
 62
   250
100
AcDbSpline
210
0.0
220
0.0
230
1.0
 70
     8
 71
     3
 72
     8
 73
     4
 74
     0
 42
0.0000000001
 43
0.0000000001
 40
0.0
 40
0.0
 40
0.0
 40
0.0
 40
1.0
 40
1.0
 40
1.0
 40
1.0
 10
-6.5643
 20
-10.8599
 30
0.0
 10
-6.5643
 20
-10.8831
 30
0.0
 10
-6.5455
 20
-10.9018
 30
0.0
 10
-6.5223
 20
-10.9018
 30
0.0
  0
SPLINE
  5
124
330
1F
100
AcDbEntity
  8
AXIS
 62
   250
100
AcDbSpline
210
0.0
220
0.0
230
1.0
 70
     8
 71
     3
 72
     8
 73
     4
 74
     0
 42
0.0000000001
 43
0.0000000001
 40
0.0
 40
0.0
 40
0.0
 40
0.0
 40
1.0
 40
1.0
 40
1.0
 40
1.0
 10
-0.835
 20
-10.9018
 30
0.0
 10
-0.8118
 20
-10.9018
 30
0.0
 10
-0.793
 20
-10.8831
 30
0.0
 10
-0.793
 20
-10.8599
 30
0.0
  0
SPLINE
  5
125
330
1F
100
AcDbEntity
  8
AXIS
 62
   250
100
AcDbSpline
210
0.0
220
0.0
230
1.0
 70
     8
 71
     3
 72
     8
 73
     4
 74
     0
 42
0.0000000001
 43
0.0000000001
 40
0.0
 40
0.0
 40
0.0
 40
0.0
 40
1.0
 40
1.0
 40
1.0
 40
1.0
 10
-6.5223
 20
-10.6224
 30
0.0
 10
-6.5455
 20
-10.6224
 30
0.0
 10
-6.5643
 20
-10.6411
 30
0.0
 10
-6.5643
 20
-10.6643
 30
0.0
  0
SPLINE
  5
126
330
1F
100
AcDbEntity
  8
AXIS
 62
   250
100
AcDbSpline
210
0.0
220
0.0
230
1.0
 70
     8
 71
     3
 72
     8
 73
     4
 74
     0
 42
0.0000000001
 43
0.0000000001
 40
0.0
 40
0.0
 40
0.0
 40
0.0
 40
1.0
 40
1.0
 40
1.0
 40
1.0
 10
-0.793
 20
-10.6643
 30
0.0
 10
-0.793
 20
-10.6411
 30
0.0
 10
-0.8118
 20
-10.6224
 30
0.0
 10
-0.835
 20
-10.6224
 30
0.0
  0
SPLINE
  5
127
330
1F
100
AcDbEntity
  8
AXIS
 62
   250
100
AcDbSpline
210
0.0
220
0.0
230
1.0
 70
     8
 71
     3
 72
    20
 73
    16
 74
     0
 42
0.0000000001
 43
0.0000000001
 40
0.0
 40
0.0
 40
0.0
 40
0.0
 40
0.2
 40
0.2
 40
0.2
 40
0.2
 40
0.4
 40
0.4
 40
0.4
 40
0.4
 40
0.6
 40
0.6
 40
0.6
 40
0.6
 40
1.0
 40
1.0
 40
1.0
 40
1.0
 10
-3.6684
 20
-17.3733
 30
0.0
 10
-3.6684
 20
-17.3733
 30
0.0
 10
-3.6077
 20
-17.3908
 30
0.0
 10
-3.6077
 20
-17.3908
 30
0.0
 10
-3.6077
 20
-17.3908
 30
0.0
 10
-3.6077
 20
-17.3908
 30
0.0
 10
-3.5493
 20
-17.4034
 30
0.0
 10
-3.5493
 20
-17.4034
 30
0.0
 10
-3.5493
 20
-17.4034
 30
0.0
 10
-3.5493
 20
-17.4034
 30
0.0
 10
-3.4916
 20
-17.411
 30
0.0
 10
-3.4916
 20
-17.411
 30
0.0
 10
-3.4916
 20
-17.411
 30
0.0
 10
-3.4916
 20
-17.411
 30
0.0
 10
-3.4341
 20
-17.4136
 30
0.0
 10
-3.4341
 20
-17.4136
 30
0.0
  0
SPLINE
  5
128
330
1F
100
AcDbEntity
  8
AXIS
 62
   250
100
AcDbSpline
210
0.0
220
0.0
230
1.0
 70
     8
 71
     3
 72
    20
 73
    16
 74
     0
 42
0.0000000001
 43
0.0000000001
 40
0.0
 40
0.0
 40
0.0
 40
0.0
 40
0.2
 40
0.2
 40
0.2
 40
0.2
 40
0.4
 40
0.4
 40
0.4
 40
0.4
 40
0.6
 40
0.6
 40
0.6
 40
0.6
 40
1.0
 40
1.0
 40
1.0
 40
1.0
 10
-4.1575
 20
-17.3733
 30
0.0
 10
-4.1575
 20
-17.3733
 30
0.0
 10
-4.0973
 20
-17.3907
 30
0.0
 10
-4.0973
 20
-17.3907
 30
0.0
 10
-4.0973
 20
-17.3907
 30
0.0
 10
-4.0973
 20
-17.3907
 30
0.0
 10
-4.0389
 20
-17.4033
 30
0.0
 10
-4.0389
 20
-17.4033
 30
0.0
 10
-4.0389
 20
-17.4033
 30
0.0
 10
-4.0389
 20
-17.4033
 30
0.0
 10
-3.9811
 20
-17.411
 30
0.0
 10
-3.9811
 20
-17.411
 30
0.0
 10
-3.9811
 20
-17.411
 30
0.0
 10
-3.9811
 20
-17.411
 30
0.0
 10
-3.9232
 20
-17.4136
 30
0.0
 10
-3.9232
 20
-17.4136
 30
0.0
  0
SPLINE
  5
129
330
1F
100
AcDbEntity
  8
AXIS
 62
   250
100
AcDbSpline
210
0.0
220
0.0
230
1.0
 70
     8
 71
     3
 72
    20
 73
    16
 74
     0
 42
0.0000000001
 43
0.0000000001
 40
0.0
 40
0.0
 40
0.0
 40
0.0
 40
0.2
 40
0.2
 40
0.2
 40
0.2
 40
0.4
 40
0.4
 40
0.4
 40
0.4
 40
0.6
 40
0.6
 40
0.6
 40
0.6
 40
1.0
 40
1.0
 40
1.0
 40
1.0
 10
-3.4341
 20
-17.4136
 30
0.0
 10
-3.4341
 20
-17.4136
 30
0.0
 10
-3.3765
 20
-17.411
 30
0.0
 10
-3.3765
 20
-17.411
 30
0.0
 10
-3.3765
 20
-17.411
 30
0.0
 10
-3.3765
 20
-17.411
 30
0.0
 10
-3.3189
 20
-17.4034
 30
0.0
 10
-3.3189
 20
-17.4034
 30
0.0
 10
-3.3189
 20
-17.4034
 30
0.0
 10
-3.3189
 20
-17.4034
 30
0.0
 10
-3.2605
 20
-17.3908
 30
0.0
 10
-3.2605
 20
-17.3908
 30
0.0
 10
-3.2605
 20
-17.3908
 30
0.0
 10
-3.2605
 20
-17.3908
 30
0.0
 10
-3.1997
 20
-17.3733
 30
0.0
 10
-3.1997
 20
-17.3733
 30
0.0
  0
SPLINE
  5
12A
330
1F
100
AcDbEntity
  8
AXIS
 62
   250
100
AcDbSpline
210
0.0
220
0.0
230
1.0
 70
     8
 71
     3
 72
    20
 73
    16
 74
     0
 42
0.0000000001
 43
0.0000000001
 40
0.0
 40
0.0
 40
0.0
 40
0.0
 40
0.2
 40
0.2
 40
0.2
 40
0.2
 40
0.4
 40
0.4
 40
0.4
 40
0.4
 40
0.6
 40
0.6
 40
0.6
 40
0.6
 40
1.0
 40
1.0
 40
1.0
 40
1.0
 10
-3.9232
 20
-17.4136
 30
0.0
 10
-3.9232
 20
-17.4136
 30
0.0
 10
-3.8653
 20
-17.411
 30
0.0
 10
-3.8653
 20
-17.411
 30
0.0
 10
-3.8653
 20
-17.411
 30
0.0
 10
-3.8653
 20
-17.411
 30
0.0
 10
-3.8074
 20
-17.4032
 30
0.0
 10
-3.8074
 20
-17.4032
 30
0.0
 10
-3.8074
 20
-17.4032
 30
0.0
 10
-3.8074
 20
-17.4032
 30
0.0
 10
-3.749
 20
-17.3907
 30
0.0
 10
-3.749
 20
-17.3907
 30
0.0
 10
-3.749
 20
-17.3907
 30
0.0
 10
-3.749
 20
-17.3907
 30
0.0
 10
-3.6888
 20
-17.3733
 30
0.0
 10
-3.6888
 20
-17.3733
 30
0.0
  0
SPLINE
  5
12B
330
1F
100
AcDbEntity
  8
AXIS
 62
   250
100
AcDbSpline
210
0.0
220
0.0
230
1.0
 70
    24
 71
     3
 72
     8
 73
     4
 74
     0
 42
0.0000000001
 43
0.0000000001
 40
0.0
 40
0.0
 40
0.0
 40
0.0
 40
1.0
 40
1.0
 40
1.0
 40
1.0
 10
1.2077
 20
-16.5161
 30
0.0
 10
1.2077
 20
-16.5161
 30
0.0
 10
1.2077
 20
-10.9229
 30
0.0
 10
1.2077
 20
-10.9229
 30
0.0
  0
SPLINE
  5
12C
330
1F
100
AcDbEntity
  8
AXIS
 62
   250
100
AcDbSpline
210
0.0
220
0.0
230
1.0
 70
    24
 71
     3
 72
     8
 73
     4
 74
     0
 42
0.0000000001
 43
0.0000000001
 40
0.0
 40
0.0
 40
0.0
 40
0.0
 40
1.0
 40
1.0
 40
1.0
 40
1.0
 10
-8.6768
 20
-16.6047
 30
0.0
 10
-8.6768
 20
-16.6047
 30
0.0
 10
-8.6768
 20
-10.8675
 30
0.0
 10
-8.6768
 20
-10.8675
 30
0.0
  0
SPLINE
  5
12D
330
1F
100
AcDbEntity
  8
AXIS
 62
   250
100
AcDbSpline
210
0.0
220
0.0
230
1.0
 70
    11
 71
     3
 72
    84
 73
    80
 74
     0
 42
0.0000000001
 43
0.0000000001
 40
0.0
 40
0.0
 40
0.0
 40
0.0
 40
0.0476190476190476
 40
0.0476190476190476
 40
0.0476190476190476
 40
0.0476190476190476
 40
0.0952380952380952
 40
0.0952380952380952
 40
0.0952380952380952
 40
0.0952380952380952
 40
0.1428571428571428
 40
0.1428571428571428
 40
0.1428571428571428
 40
0.1428571428571428
 40
0.1904761904761905
 40
0.1904761904761905
 40
0.1904761904761905
 40
0.1904761904761905
 40
0.2380952380952381
 40
0.2380952380952381
 40
0.2380952380952381
 40
0.2380952380952381
 40
0.2857142857142857
 40
0.2857142857142857
 40
0.2857142857142857
 40
0.2857142857142857
 40
0.3333333333333333
 40
0.3333333333333333
 40
0.3333333333333333
 40
0.3333333333333333
 40
0.3809523809523809
 40
0.3809523809523809
 40
0.3809523809523809
 40
0.3809523809523809
 40
0.4285714285714285
 40
0.4285714285714285
 40
0.4285714285714285
 40
0.4285714285714285
 40
0.4761904761904762
 40
0.4761904761904762
 40
0.4761904761904762
 40
0.4761904761904762
 40
0.5238095238095238
 40
0.5238095238095238
 40
0.5238095238095238
 40
0.5238095238095238
 40
0.5714285714285714
 40
0.5714285714285714
 40
0.5714285714285714
 40
0.5714285714285714
 40
0.6190476190476191
 40
0.6190476190476191
 40
0.6190476190476191
 40
0.6190476190476191
 40
0.6666666666666666
 40
0.6666666666666666
 40
0.6666666666666666
 40
0.6666666666666666
 40
0.7142857142857143
 40
0.7142857142857143
 40
0.7142857142857143
 40
0.7142857142857143
 40
0.7619047619047619
 40
0.7619047619047619
 40
0.7619047619047619
 40
0.7619047619047619
 40
0.8095238095238095
 40
0.8095238095238095
 40
0.8095238095238095
 40
0.8095238095238095
 40
0.8571428571428571
 40
0.8571428571428571
 40
0.8571428571428571
 40
0.8571428571428571
 40
0.9047619047619048
 40
0.9047619047619048
 40
0.9047619047619048
 40
0.9047619047619048
 40
1.0
 40
1.0
 40
1.0
 40
1.0
 10
-31.1712
 20
-23.3708
 30
0.0
 10
-31.1712
 20
-23.3708
 30
0.0
 10
-31.45
 20
-23.1635
 30
0.0
 10
-31.45
 20
-23.1635
 30
0.0
 10
-31.45
 20
-23.1635
 30
0.0
 10
-31.45
 20
-23.1635
 30
0.0
 10
-31.3469
 20
-23.0173
 30
0.0
 10
-31.3469
 20
-23.0173
 30
0.0
 10
-31.3469
 20
-23.0173
 30
0.0
 10
-31.3469
 20
-23.0173
 30
0.0
 10
-31.0535
 20
-23.2341
 30
0.0
 10
-31.0535
 20
-23.2341
 30
0.0
 10
-31.0535
 20
-23.2341
 30
0.0
 10
-30.9435
 20
-23.1449
 30
0.0
 10
-30.8457
 20
-23.0828
 30
0.0
 10
-30.7606
 20
-23.0472
 30
0.0
 10
-30.7606
 20
-23.0472
 30
0.0
 10
-30.6485
 20
-23.0003
 30
0.0
 10
-30.5209
 20
-22.9704
 30
0.0
 10
-30.3785
 20
-22.9576
 30
0.0
 10
-30.3785
 20
-22.9576
 30
0.0
 10
-30.1724
 20
-22.9391
 30
0.0
 10
-29.985
 20
-22.9642
 30
0.0
 10
-29.8169
 20
-23.0332
 30
0.0
 10
-29.8169
 20
-23.0332
 30
0.0
 10
-29.6481
 20
-23.1021
 30
0.0
 10
-29.5159
 20
-23.2078
 30
0.0
 10
-29.4199
 20
-23.3508
 30
0.0
 10
-29.4199
 20
-23.3508
 30
0.0
 10
-29.3244
 20
-23.4943
 30
0.0
 10
-29.2688
 20
-23.6502
 30
0.0
 10
-29.2536
 20
-23.8194
 30
0.0
 10
-29.2536
 20
-23.8194
 30
0.0
 10
-29.2422
 20
-23.9459
 30
0.0
 10
-29.2497
 20
-24.0618
 30
0.0
 10
-29.2761
 20
-24.1676
 30
0.0
 10
-29.2761
 20
-24.1676
 30
0.0
 10
-29.2966
 20
-24.2487
 30
0.0
 10
-29.3409
 20
-24.3453
 30
0.0
 10
-29.4092
 20
-24.4578
 30
0.0
 10
-29.4092
 20
-24.4578
 30
0.0
 10
-29.4092
 20
-24.4578
 30
0.0
 10
-29.1303
 20
-24.665
 30
0.0
 10
-29.1303
 20
-24.665
 30
0.0
 10
-29.1303
 20
-24.665
 30
0.0
 10
-29.1303
 20
-24.665
 30
0.0
 10
-29.2333
 20
-24.8112
 30
0.0
 10
-29.2333
 20
-24.8112
 30
0.0
 10
-29.2333
 20
-24.8112
 30
0.0
 10
-29.2333
 20
-24.8112
 30
0.0
 10
-29.5253
 20
-24.5938
 30
0.0
 10
-29.5253
 20
-24.5938
 30
0.0
 10
-29.5253
 20
-24.5938
 30
0.0
 10
-29.6536
 20
-24.696
 30
0.0
 10
-29.7648
 20
-24.7665
 30
0.0
 10
-29.8587
 20
-24.8051
 30
0.0
 10
-29.8587
 20
-24.8051
 30
0.0
 10
-29.9525
 20
-24.8438
 30
0.0
 10
-30.0673
 20
-24.8697
 30
0.0
 10
-30.2027
 20
-24.8818
 30
0.0
 10
-30.2027
 20
-24.8818
 30
0.0
 10
-30.4092
 20
-24.9004
 30
0.0
 10
-30.5971
 20
-24.8757
 30
0.0
 10
-30.7662
 20
-24.8079
 30
0.0
 10
-30.7662
 20
-24.8079
 30
0.0
 10
-30.9352
 20
-24.7399
 30
0.0
 10
-31.0678
 20
-24.6357
 30
0.0
 10
-31.1645
 20
-24.4942
 30
0.0
 10
-31.1645
 20
-24.4942
 30
0.0
 10
-31.2609
 20
-24.3532
 30
0.0
 10
-31.3175
 20
-24.1915
 30
0.0
 10
-31.3338
 20
-24.0093
 30
0.0
 10
-31.3338
 20
-24.0093
 30
0.0
 10
-31.3449
 20
-23.8865
 30
0.0
 10
-31.3386
 20
-23.7778
 30
0.0
 10
-31.314
 20
-23.683
 30
0.0
 10
-31.314
 20
-23.683
 30
0.0
 10
-31.29
 20
-23.5883
 30
0.0
 10
-31.2422
 20
-23.4839
 30
0.0
 10
-31.1712
 20
-23.3708
 30
0.0
  0
SPLINE
  5
12E
330
1F
100
AcDbEntity
  8
AXIS
 62
   250
100
AcDbSpline
210
0.0
220
0.0
230
1.0
 70
    11
 71
     3
 72
    32
 73
    28
 74
     0
 42
0.0000000001
 43
0.0000000001
 40
0.0
 40
0.0
 40
0.0
 40
0.0
 40
0.125
 40
0.125
 40
0.125
 40
0.125
 40
0.25
 40
0.25
 40
0.25
 40
0.25
 40
0.375
 40
0.375
 40
0.375
 40
0.375
 40
0.5
 40
0.5
 40
0.5
 40
0.5
 40
0.625
 40
0.625
 40
0.625
 40
0.625
 40
0.75
 40
0.75
 40
0.75
 40
0.75
 40
1.0
 40
1.0
 40
1.0
 40
1.0
 10
-30.9713
 20
-23.5186
 30
0.0
 10
-31.031
 20
-23.6109
 30
0.0
 10
-31.0706
 20
-23.6905
 30
0.0
 10
-31.0897
 20
-23.7568
 30
0.0
 10
-31.0897
 20
-23.7568
 30
0.0
 10
-31.1083
 20
-23.8237
 30
0.0
 10
-31.1141
 20
-23.9007
 30
0.0
 10
-31.1063
 20
-23.9874
 30
0.0
 10
-31.1063
 20
-23.9874
 30
0.0
 10
-31.0883
 20
-24.1879
 30
0.0
 10
-31.0055
 20
-24.3472
 30
0.0
 10
-30.8578
 20
-24.4661
 30
0.0
 10
-30.8578
 20
-24.4661
 30
0.0
 10
-30.7101
 20
-24.5847
 30
0.0
 10
-30.5014
 20
-24.632
 30
0.0
 10
-30.2311
 20
-24.6077
 30
0.0
 10
-30.2311
 20
-24.6077
 30
0.0
 10
-30.1253
 20
-24.5981
 30
0.0
 10
-30.032
 20
-24.5794
 30
0.0
 10
-29.9513
 20
-24.5518
 30
0.0
 10
-29.9513
 20
-24.5518
 30
0.0
 10
-29.8913
 20
-24.5317
 30
0.0
 10
-29.8186
 20
-24.4946
 30
0.0
 10
-29.7334
 20
-24.4396
 30
0.0
 10
-29.7334
 20
-24.4396
 30
0.0
 10
-29.7334
 20
-24.4396
 30
0.0
 10
-30.9713
 20
-23.5186
 30
0.0
 10
-30.9713
 20
-23.5186
 30
0.0
  0
SPLINE
  5
12F
330
1F
100
AcDbEntity
  8
AXIS
 62
   250
100
AcDbSpline
210
0.0
220
0.0
230
1.0
 70
    11
 71
     3
 72
    28
 73
    24
 74
     0
 42
0.0000000001
 43
0.0000000001
 40
0.0
 40
0.0
 40
0.0
 40
0.0
 40
0.1428571428571428
 40
0.1428571428571428
 40
0.1428571428571428
 40
0.1428571428571428
 40
0.2857142857142857
 40
0.2857142857142857
 40
0.2857142857142857
 40
0.2857142857142857
 40
0.4285714285714285
 40
0.4285714285714285
 40
0.4285714285714285
 40
0.4285714285714285
 40
0.5714285714285714
 40
0.5714285714285714
 40
0.5714285714285714
 40
0.5714285714285714
 40
0.7142857142857143
 40
0.7142857142857143
 40
0.7142857142857143
 40
0.7142857142857143
 40
1.0
 40
1.0
 40
1.0
 40
1.0
 10
-30.8399
 20
-23.3934
 30
0.0
 10
-30.8399
 20
-23.3934
 30
0.0
 10
-29.6065
 20
-24.3106
 30
0.0
 10
-29.6065
 20
-24.3106
 30
0.0
 10
-29.6065
 20
-24.3106
 30
0.0
 10
-29.5553
 20
-24.2352
 30
0.0
 10
-29.5208
 20
-24.1665
 30
0.0
 10
-29.5032
 20
-24.1049
 30
0.0
 10
-29.5032
 20
-24.1049
 30
0.0
 10
-29.4797
 20
-24.0244
 30
0.0
 10
-29.4724
 20
-23.9387
 30
0.0
 10
-29.4805
 20
-23.8483
 30
0.0
 10
-29.4805
 20
-23.8483
 30
0.0
 10
-29.4985
 20
-23.6487
 30
0.0
 10
-29.5835
 20
-23.4906
 30
0.0
 10
-29.7362
 20
-23.3731
 30
0.0
 10
-29.7362
 20
-23.3731
 30
0.0
 10
-29.8889
 20
-23.256
 30
0.0
 10
-30.0925
 20
-23.2086
 30
0.0
 10
-30.3468
 20
-23.2315
 30
0.0
 10
-30.3468
 20
-23.2315
 30
0.0
 10
-30.537
 20
-23.2486
 30
0.0
 10
-30.7017
 20
-23.3026
 30
0.0
 10
-30.8399
 20
-23.3934
 30
0.0
  0
SPLINE
  5
130
330
1F
100
AcDbEntity
  8
AXIS
 62
   250
100
AcDbSpline
210
0.0
220
0.0
230
1.0
 70
    11
 71
     3
 72
    48
 73
    44
 74
     0
 42
0.0000000001
 43
0.0000000001
 40
0.0
 40
0.0
 40
0.0
 40
0.0
 40
0.0833333333333333
 40
0.0833333333333333
 40
0.0833333333333333
 40
0.0833333333333333
 40
0.1666666666666667
 40
0.1666666666666667
 40
0.1666666666666667
 40
0.1666666666666667
 40
0.25
 40
0.25
 40
0.25
 40
0.25
 40
0.3333333333333333
 40
0.3333333333333333
 40
0.3333333333333333
 40
0.3333333333333333
 40
0.4166666666666667
 40
0.4166666666666667
 40
0.4166666666666667
 40
0.4166666666666667
 40
0.5
 40
0.5
 40
0.5
 40
0.5
 40
0.5833333333333334
 40
0.5833333333333334
 40
0.5833333333333334
 40
0.5833333333333334
 40
0.6666666666666666
 40
0.6666666666666666
 40
0.6666666666666666
 40
0.6666666666666666
 40
0.75
 40
0.75
 40
0.75
 40
0.75
 40
0.8333333333333334
 40
0.8333333333333334
 40
0.8333333333333334
 40
0.8333333333333334
 40
1.0
 40
1.0
 40
1.0
 40
1.0
 10
-29.4671
 20
-21.8273
 30
0.0
 10
-29.4671
 20
-21.8273
 30
0.0
 10
-29.9487
 20
-21.8706
 30
0.0
 10
-29.9487
 20
-21.8706
 30
0.0
 10
-29.9487
 20
-21.8706
 30
0.0
 10
-29.9487
 20
-21.8706
 30
0.0
 10
-29.8702
 20
-22.7434
 30
0.0
 10
-29.8702
 20
-22.7434
 30
0.0
 10
-29.8702
 20
-22.7434
 30
0.0
 10
-29.8702
 20
-22.7434
 30
0.0
 10
-30.097
 20
-22.7638
 30
0.0
 10
-30.097
 20
-22.7638
 30
0.0
 10
-30.097
 20
-22.7638
 30
0.0
 10
-30.097
 20
-22.7638
 30
0.0
 10
-31.4833
 20
-21.9627
 30
0.0
 10
-31.4833
 20
-21.9627
 30
0.0
 10
-31.4833
 20
-21.9627
 30
0.0
 10
-31.4833
 20
-21.9627
 30
0.0
 10
-31.5015
 20
-21.7608
 30
0.0
 10
-31.5015
 20
-21.7608
 30
0.0
 10
-31.5015
 20
-21.7608
 30
0.0
 10
-31.5015
 20
-21.7608
 30
0.0
 10
-30.1977
 20
-21.6436
 30
0.0
 10
-30.1977
 20
-21.6436
 30
0.0
 10
-30.1977
 20
-21.6436
 30
0.0
 10
-30.1977
 20
-21.6436
 30
0.0
 10
-30.2222
 20
-21.3719
 30
0.0
 10
-30.2222
 20
-21.3719
 30
0.0
 10
-30.2222
 20
-21.3719
 30
0.0
 10
-30.2222
 20
-21.3719
 30
0.0
 10
-29.9954
 20
-21.3515
 30
0.0
 10
-29.9954
 20
-21.3515
 30
0.0
 10
-29.9954
 20
-21.3515
 30
0.0
 10
-29.9954
 20
-21.3515
 30
0.0
 10
-29.9709
 20
-21.6232
 30
0.0
 10
-29.9709
 20
-21.6232
 30
0.0
 10
-29.9709
 20
-21.6232
 30
0.0
 10
-29.9709
 20
-21.6232
 30
0.0
 10
-29.4894
 20
-21.5799
 30
0.0
 10
-29.4894
 20
-21.5799
 30
0.0
 10
-29.4894
 20
-21.5799
 30
0.0
 10
-29.4894
 20
-21.5799
 30
0.0
 10
-29.4671
 20
-21.8273
 30
0.0
 10
-29.4671
 20
-21.8273
 30
0.0
  0
SPLINE
  5
131
330
1F
100
AcDbEntity
  8
AXIS
 62
   250
100
AcDbSpline
210
0.0
220
0.0
230
1.0
 70
    11
 71
     3
 72
    16
 73
    12
 74
     0
 42
0.0000000001
 43
0.0000000001
 40
0.0
 40
0.0
 40
0.0
 40
0.0
 40
0.25
 40
0.25
 40
0.25
 40
0.25
 40
0.5
 40
0.5
 40
0.5
 40
0.5
 40
1.0
 40
1.0
 40
1.0
 40
1.0
 10
-30.1755
 20
-21.891
 30
0.0
 10
-30.1755
 20
-21.891
 30
0.0
 10
-31.0824
 20
-21.9725
 30
0.0
 10
-31.0824
 20
-21.9725
 30
0.0
 10
-31.0824
 20
-21.9725
 30
0.0
 10
-31.0824
 20
-21.9725
 30
0.0
 10
-30.1189
 20
-22.5205
 30
0.0
 10
-30.1189
 20
-22.5205
 30
0.0
 10
-30.1189
 20
-22.5205
 30
0.0
 10
-30.1189
 20
-22.5205
 30
0.0
 10
-30.1755
 20
-21.891
 30
0.0
 10
-30.1755
 20
-21.891
 30
0.0
  0
SPLINE
  5
132
330
1F
100
AcDbEntity
  8
AXIS
 62
   250
100
AcDbSpline
210
0.0
220
0.0
230
1.0
 70
    11
 71
     3
 72
    52
 73
    48
 74
     0
 42
0.0000000001
 43
0.0000000001
 40
0.0
 40
0.0
 40
0.0
 40
0.0
 40
0.0769230769230769
 40
0.0769230769230769
 40
0.0769230769230769
 40
0.0769230769230769
 40
0.1538461538461539
 40
0.1538461538461539
 40
0.1538461538461539
 40
0.1538461538461539
 40
0.2307692307692308
 40
0.2307692307692308
 40
0.2307692307692308
 40
0.2307692307692308
 40
0.3076923076923077
 40
0.3076923076923077
 40
0.3076923076923077
 40
0.3076923076923077
 40
0.3846153846153846
 40
0.3846153846153846
 40
0.3846153846153846
 40
0.3846153846153846
 40
0.4615384615384616
 40
0.4615384615384616
 40
0.4615384615384616
 40
0.4615384615384616
 40
0.5384615384615384
 40
0.5384615384615384
 40
0.5384615384615384
 40
0.5384615384615384
 40
0.6153846153846154
 40
0.6153846153846154
 40
0.6153846153846154
 40
0.6153846153846154
 40
0.6923076923076923
 40
0.6923076923076923
 40
0.6923076923076923
 40
0.6923076923076923
 40
0.7692307692307693
 40
0.7692307692307693
 40
0.7692307692307693
 40
0.7692307692307693
 40
0.8461538461538461
 40
0.8461538461538461
 40
0.8461538461538461
 40
0.8461538461538461
 40
1.0
 40
1.0
 40
1.0
 40
1.0
 10
-30.5287
 20
-21.1449
 30
0.0
 10
-30.7668
 20
-21.1663
 30
0.0
 10
-30.9606
 20
-21.1591
 30
0.0
 10
-31.1097
 20
-21.1229
 30
0.0
 10
-31.1097
 20
-21.1229
 30
0.0
 10
-31.2593
 20
-21.0873
 30
0.0
 10
-31.3778
 20
-21.0243
 30
0.0
 10
-31.4653
 20
-20.9348
 30
0.0
 10
-31.4653
 20
-20.9348
 30
0.0
 10
-31.5526
 20
-20.8454
 30
0.0
 10
-31.6029
 20
-20.7276
 30
0.0
 10
-31.616
 20
-20.5815
 30
0.0
 10
-31.616
 20
-20.5815
 30
0.0
 10
-31.6258
 20
-20.4732
 30
0.0
 10
-31.6123
 20
-20.3766
 30
0.0
 10
-31.576
 20
-20.2913
 30
0.0
 10
-31.576
 20
-20.2913
 30
0.0
 10
-31.5403
 20
-20.2058
 30
0.0
 10
-31.4835
 20
-20.1331
 30
0.0
 10
-31.4063
 20
-20.0724
 30
0.0
 10
-31.4063
 20
-20.0724
 30
0.0
 10
-31.3291
 20
-20.0121
 30
0.0
 10
-31.233
 20
-19.9614
 30
0.0
 10
-31.1182
 20
-19.9209
 30
0.0
 10
-31.1182
 20
-19.9209
 30
0.0
 10
-31.0033
 20
-19.8798
 30
0.0
 10
-30.8463
 20
-19.8506
 30
0.0
 10
-30.6467
 20
-19.8327
 30
0.0
 10
-30.6467
 20
-19.8327
 30
0.0
 10
-30.4106
 20
-19.8115
 30
0.0
 10
-30.2182
 20
-19.8187
 30
0.0
 10
-30.0687
 20
-19.8539
 30
0.0
 10
-30.0687
 20
-19.8539
 30
0.0
 10
-29.9191
 20
-19.8896
 30
0.0
 10
-29.8006
 20
-19.9521
 30
0.0
 10
-29.7127
 20
-20.0415
 30
0.0
 10
-29.7127
 20
-20.0415
 30
0.0
 10
-29.6249
 20
-20.1309
 30
0.0
 10
-29.5746
 20
-20.2492
 30
0.0
 10
-29.5613
 20
-20.3968
 30
0.0
 10
-29.5613
 20
-20.3968
 30
0.0
 10
-29.5439
 20
-20.5907
 30
0.0
 10
-29.5995
 20
-20.7492
 30
0.0
 10
-29.7287
 20
-20.8723
 30
0.0
 10
-29.7287
 20
-20.8723
 30
0.0
 10
-29.884
 20
-21.0199
 30
0.0
 10
-30.1511
 20
-21.111
 30
0.0
 10
-30.5287
 20
-21.1449
 30
0.0
  0
SPLINE
  5
133
330
1F
100
AcDbEntity
  8
AXIS
 62
   250
100
AcDbSpline
210
0.0
220
0.0
230
1.0
 70
    11
 71
     3
 72
    36
 73
    32
 74
     0
 42
0.0000000001
 43
0.0000000001
 40
0.0
 40
0.0
 40
0.0
 40
0.0
 40
0.1111111111111111
 40
0.1111111111111111
 40
0.1111111111111111
 40
0.1111111111111111
 40
0.2222222222222222
 40
0.2222222222222222
 40
0.2222222222222222
 40
0.2222222222222222
 40
0.3333333333333333
 40
0.3333333333333333
 40
0.3333333333333333
 40
0.3333333333333333
 40
0.4444444444444444
 40
0.4444444444444444
 40
0.4444444444444444
 40
0.4444444444444444
 40
0.5555555555555556
 40
0.5555555555555556
 40
0.5555555555555556
 40
0.5555555555555556
 40
0.6666666666666666
 40
0.6666666666666666
 40
0.6666666666666666
 40
0.6666666666666666
 40
0.7777777777777778
 40
0.7777777777777778
 40
0.7777777777777778
 40
0.7777777777777778
 40
1.0
 40
1.0
 40
1.0
 40
1.0
 10
-30.5516
 20
-20.8909
 30
0.0
 10
-30.2213
 20
-20.8612
 30
0.0
 10
-30.0051
 20
-20.8026
 30
0.0
 10
-29.9025
 20
-20.7155
 30
0.0
 10
-29.9025
 20
-20.7155
 30
0.0
 10
-29.8002
 20
-20.6284
 30
0.0
 10
-29.7539
 20
-20.5283
 30
0.0
 10
-29.7641
 20
-20.415
 30
0.0
 10
-29.7641
 20
-20.415
 30
0.0
 10
-29.7743
 20
-20.3012
 30
0.0
 10
-29.8382
 20
-20.211
 30
0.0
 10
-29.9548
 20
-20.1436
 30
0.0
 10
-29.9548
 20
-20.1436
 30
0.0
 10
-30.0714
 20
-20.0762
 30
0.0
 10
-30.2946
 20
-20.057
 30
0.0
 10
-30.6239
 20
-20.0866
 30
0.0
 10
-30.6239
 20
-20.0866
 30
0.0
 10
-30.9551
 20
-20.1164
 30
0.0
 10
-31.1718
 20
-20.1751
 30
0.0
 10
-31.2736
 20
-20.2622
 30
0.0
 10
-31.2736
 20
-20.2622
 30
0.0
 10
-31.3758
 20
-20.3493
 30
0.0
 10
-31.4214
 20
-20.4502
 30
0.0
 10
-31.4111
 20
-20.5654
 30
0.0
 10
-31.4111
 20
-20.5654
 30
0.0
 10
-31.4008
 20
-20.6792
 30
0.0
 10
-31.3445
 20
-20.7653
 30
0.0
 10
-31.2424
 20
-20.8246
 30
0.0
 10
-31.2424
 20
-20.8246
 30
0.0
 10
-31.1124
 20
-20.8984
 30
0.0
 10
-30.8818
 20
-20.9206
 30
0.0
 10
-30.5516
 20
-20.8909
 30
0.0
  0
SPLINE
  5
134
330
1F
100
AcDbEntity
  8
AXIS
 62
   250
100
AcDbSpline
210
0.0
220
0.0
230
1.0
 70
    11
 71
     3
 72
    84
 73
    80
 74
     0
 42
0.0000000001
 43
0.0000000001
 40
0.0
 40
0.0
 40
0.0
 40
0.0
 40
0.0476190476190476
 40
0.0476190476190476
 40
0.0476190476190476
 40
0.0476190476190476
 40
0.0952380952380952
 40
0.0952380952380952
 40
0.0952380952380952
 40
0.0952380952380952
 40
0.1428571428571428
 40
0.1428571428571428
 40
0.1428571428571428
 40
0.1428571428571428
 40
0.1904761904761905
 40
0.1904761904761905
 40
0.1904761904761905
 40
0.1904761904761905
 40
0.2380952380952381
 40
0.2380952380952381
 40
0.2380952380952381
 40
0.2380952380952381
 40
0.2857142857142857
 40
0.2857142857142857
 40
0.2857142857142857
 40
0.2857142857142857
 40
0.3333333333333333
 40
0.3333333333333333
 40
0.3333333333333333
 40
0.3333333333333333
 40
0.3809523809523809
 40
0.3809523809523809
 40
0.3809523809523809
 40
0.3809523809523809
 40
0.4285714285714285
 40
0.4285714285714285
 40
0.4285714285714285
 40
0.4285714285714285
 40
0.4761904761904762
 40
0.4761904761904762
 40
0.4761904761904762
 40
0.4761904761904762
 40
0.5238095238095238
 40
0.5238095238095238
 40
0.5238095238095238
 40
0.5238095238095238
 40
0.5714285714285714
 40
0.5714285714285714
 40
0.5714285714285714
 40
0.5714285714285714
 40
0.6190476190476191
 40
0.6190476190476191
 40
0.6190476190476191
 40
0.6190476190476191
 40
0.6666666666666666
 40
0.6666666666666666
 40
0.6666666666666666
 40
0.6666666666666666
 40
0.7142857142857143
 40
0.7142857142857143
 40
0.7142857142857143
 40
0.7142857142857143
 40
0.7619047619047619
 40
0.7619047619047619
 40
0.7619047619047619
 40
0.7619047619047619
 40
0.8095238095238095
 40
0.8095238095238095
 40
0.8095238095238095
 40
0.8095238095238095
 40
0.8571428571428571
 40
0.8571428571428571
 40
0.8571428571428571
 40
0.8571428571428571
 40
0.9047619047619048
 40
0.9047619047619048
 40
0.9047619047619048
 40
0.9047619047619048
 40
1.0
 40
1.0
 40
1.0
 40
1.0
 10
-36.4139
 20
-23.1059
 30
0.0
 10
-36.4139
 20
-23.1059
 30
0.0
 10
-36.6927
 20
-22.8986
 30
0.0
 10
-36.6927
 20
-22.8986
 30
0.0
 10
-36.6927
 20
-22.8986
 30
0.0
 10
-36.6927
 20
-22.8986
 30
0.0
 10
-36.5896
 20
-22.7524
 30
0.0
 10
-36.5896
 20
-22.7524
 30
0.0
 10
-36.5896
 20
-22.7524
 30
0.0
 10
-36.5896
 20
-22.7524
 30
0.0
 10
-36.2962
 20
-22.9692
 30
0.0
 10
-36.2962
 20
-22.9692
 30
0.0
 10
-36.2962
 20
-22.9692
 30
0.0
 10
-36.1862
 20
-22.88
 30
0.0
 10
-36.0884
 20
-22.8179
 30
0.0
 10
-36.0033
 20
-22.7823
 30
0.0
 10
-36.0033
 20
-22.7823
 30
0.0
 10
-35.8912
 20
-22.7354
 30
0.0
 10
-35.7636
 20
-22.7055
 30
0.0
 10
-35.6212
 20
-22.6927
 30
0.0
 10
-35.6212
 20
-22.6927
 30
0.0
 10
-35.4151
 20
-22.6742
 30
0.0
 10
-35.2277
 20
-22.6993
 30
0.0
 10
-35.0596
 20
-22.7683
 30
0.0
 10
-35.0596
 20
-22.7683
 30
0.0
 10
-34.8908
 20
-22.8372
 30
0.0
 10
-34.7586
 20
-22.9429
 30
0.0
 10
-34.6626
 20
-23.0859
 30
0.0
 10
-34.6626
 20
-23.0859
 30
0.0
 10
-34.5671
 20
-23.2294
 30
0.0
 10
-34.5115
 20
-23.3853
 30
0.0
 10
-34.4963
 20
-23.5545
 30
0.0
 10
-34.4963
 20
-23.5545
 30
0.0
 10
-34.4849
 20
-23.681
 30
0.0
 10
-34.4924
 20
-23.7969
 30
0.0
 10
-34.5188
 20
-23.9027
 30
0.0
 10
-34.5188
 20
-23.9027
 30
0.0
 10
-34.5393
 20
-23.9838
 30
0.0
 10
-34.5836
 20
-24.0804
 30
0.0
 10
-34.6519
 20
-24.1929
 30
0.0
 10
-34.6519
 20
-24.1929
 30
0.0
 10
-34.6519
 20
-24.1929
 30
0.0
 10
-34.373
 20
-24.4001
 30
0.0
 10
-34.373
 20
-24.4001
 30
0.0
 10
-34.373
 20
-24.4001
 30
0.0
 10
-34.373
 20
-24.4001
 30
0.0
 10
-34.476
 20
-24.5463
 30
0.0
 10
-34.476
 20
-24.5463
 30
0.0
 10
-34.476
 20
-24.5463
 30
0.0
 10
-34.476
 20
-24.5463
 30
0.0
 10
-34.768
 20
-24.3289
 30
0.0
 10
-34.768
 20
-24.3289
 30
0.0
 10
-34.768
 20
-24.3289
 30
0.0
 10
-34.8963
 20
-24.4311
 30
0.0
 10
-35.0075
 20
-24.5016
 30
0.0
 10
-35.1014
 20
-24.5402
 30
0.0
 10
-35.1014
 20
-24.5402
 30
0.0
 10
-35.1952
 20
-24.5789
 30
0.0
 10
-35.31
 20
-24.6048
 30
0.0
 10
-35.4454
 20
-24.6169
 30
0.0
 10
-35.4454
 20
-24.6169
 30
0.0
 10
-35.6519
 20
-24.6355
 30
0.0
 10
-35.8398
 20
-24.6108
 30
0.0
 10
-36.0089
 20
-24.543
 30
0.0
 10
-36.0089
 20
-24.543
 30
0.0
 10
-36.1779
 20
-24.475
 30
0.0
 10
-36.3105
 20
-24.3708
 30
0.0
 10
-36.4072
 20
-24.2293
 30
0.0
 10
-36.4072
 20
-24.2293
 30
0.0
 10
-36.5036
 20
-24.0883
 30
0.0
 10
-36.5602
 20
-23.9266
 30
0.0
 10
-36.5765
 20
-23.7444
 30
0.0
 10
-36.5765
 20
-23.7444
 30
0.0
 10
-36.5876
 20
-23.6216
 30
0.0
 10
-36.5813
 20
-23.5129
 30
0.0
 10
-36.5567
 20
-23.4181
 30
0.0
 10
-36.5567
 20
-23.4181
 30
0.0
 10
-36.5327
 20
-23.3234
 30
0.0
 10
-36.4849
 20
-23.219
 30
0.0
 10
-36.4139
 20
-23.1059
 30
0.0
  0
SPLINE
  5
135
330
1F
100
AcDbEntity
  8
AXIS
 62
   250
100
AcDbSpline
210
0.0
220
0.0
230
1.0
 70
    11
 71
     3
 72
    32
 73
    28
 74
     0
 42
0.0000000001
 43
0.0000000001
 40
0.0
 40
0.0
 40
0.0
 40
0.0
 40
0.125
 40
0.125
 40
0.125
 40
0.125
 40
0.25
 40
0.25
 40
0.25
 40
0.25
 40
0.375
 40
0.375
 40
0.375
 40
0.375
 40
0.5
 40
0.5
 40
0.5
 40
0.5
 40
0.625
 40
0.625
 40
0.625
 40
0.625
 40
0.75
 40
0.75
 40
0.75
 40
0.75
 40
1.0
 40
1.0
 40
1.0
 40
1.0
 10
-36.214
 20
-23.2537
 30
0.0
 10
-36.2737
 20
-23.346
 30
0.0
 10
-36.3133
 20
-23.4256
 30
0.0
 10
-36.3324
 20
-23.4919
 30
0.0
 10
-36.3324
 20
-23.4919
 30
0.0
 10
-36.351
 20
-23.5588
 30
0.0
 10
-36.3568
 20
-23.6358
 30
0.0
 10
-36.349
 20
-23.7225
 30
0.0
 10
-36.349
 20
-23.7225
 30
0.0
 10
-36.331
 20
-23.923
 30
0.0
 10
-36.2482
 20
-24.0823
 30
0.0
 10
-36.1005
 20
-24.2012
 30
0.0
 10
-36.1005
 20
-24.2012
 30
0.0
 10
-35.9528
 20
-24.3198
 30
0.0
 10
-35.7441
 20
-24.3671
 30
0.0
 10
-35.4738
 20
-24.3428
 30
0.0
 10
-35.4738
 20
-24.3428
 30
0.0
 10
-35.368
 20
-24.3332
 30
0.0
 10
-35.2747
 20
-24.3145
 30
0.0
 10
-35.194
 20
-24.2869
 30
0.0
 10
-35.194
 20
-24.2869
 30
0.0
 10
-35.134
 20
-24.2668
 30
0.0
 10
-35.0613
 20
-24.2297
 30
0.0
 10
-34.9761
 20
-24.1747
 30
0.0
 10
-34.9761
 20
-24.1747
 30
0.0
 10
-34.9761
 20
-24.1747
 30
0.0
 10
-36.214
 20
-23.2537
 30
0.0
 10
-36.214
 20
-23.2537
 30
0.0
  0
SPLINE
  5
136
330
1F
100
AcDbEntity
  8
AXIS
 62
   250
100
AcDbSpline
210
0.0
220
0.0
230
1.0
 70
    11
 71
     3
 72
    28
 73
    24
 74
     0
 42
0.0000000001
 43
0.0000000001
 40
0.0
 40
0.0
 40
0.0
 40
0.0
 40
0.1428571428571428
 40
0.1428571428571428
 40
0.1428571428571428
 40
0.1428571428571428
 40
0.2857142857142857
 40
0.2857142857142857
 40
0.2857142857142857
 40
0.2857142857142857
 40
0.4285714285714285
 40
0.4285714285714285
 40
0.4285714285714285
 40
0.4285714285714285
 40
0.5714285714285714
 40
0.5714285714285714
 40
0.5714285714285714
 40
0.5714285714285714
 40
0.7142857142857143
 40
0.7142857142857143
 40
0.7142857142857143
 40
0.7142857142857143
 40
1.0
 40
1.0
 40
1.0
 40
1.0
 10
-36.0826
 20
-23.1285
 30
0.0
 10
-36.0826
 20
-23.1285
 30
0.0
 10
-34.8492
 20
-24.0457
 30
0.0
 10
-34.8492
 20
-24.0457
 30
0.0
 10
-34.8492
 20
-24.0457
 30
0.0
 10
-34.798
 20
-23.9703
 30
0.0
 10
-34.7635
 20
-23.9016
 30
0.0
 10
-34.7459
 20
-23.84
 30
0.0
 10
-34.7459
 20
-23.84
 30
0.0
 10
-34.7224
 20
-23.7595
 30
0.0
 10
-34.7151
 20
-23.6738
 30
0.0
 10
-34.7232
 20
-23.5834
 30
0.0
 10
-34.7232
 20
-23.5834
 30
0.0
 10
-34.7412
 20
-23.3838
 30
0.0
 10
-34.8262
 20
-23.2257
 30
0.0
 10
-34.9789
 20
-23.1082
 30
0.0
 10
-34.9789
 20
-23.1082
 30
0.0
 10
-35.1316
 20
-22.9911
 30
0.0
 10
-35.3352
 20
-22.9437
 30
0.0
 10
-35.5895
 20
-22.9666
 30
0.0
 10
-35.5895
 20
-22.9666
 30
0.0
 10
-35.7797
 20
-22.9837
 30
0.0
 10
-35.9444
 20
-23.0377
 30
0.0
 10
-36.0826
 20
-23.1285
 30
0.0
  0
SPLINE
  5
137
330
1F
100
AcDbEntity
  8
AXIS
 62
   250
100
AcDbSpline
210
0.0
220
0.0
230
1.0
 70
    11
 71
     3
 72
    92
 73
    88
 74
     0
 42
0.0000000001
 43
0.0000000001
 40
0.0
 40
0.0
 40
0.0
 40
0.0
 40
0.0434782608695652
 40
0.0434782608695652
 40
0.0434782608695652
 40
0.0434782608695652
 40
0.0869565217391304
 40
0.0869565217391304
 40
0.0869565217391304
 40
0.0869565217391304
 40
0.1304347826086956
 40
0.1304347826086956
 40
0.1304347826086956
 40
0.1304347826086956
 40
0.1739130434782609
 40
0.1739130434782609
 40
0.1739130434782609
 40
0.1739130434782609
 40
0.2173913043478261
 40
0.2173913043478261
 40
0.2173913043478261
 40
0.2173913043478261
 40
0.2608695652173913
 40
0.2608695652173913
 40
0.2608695652173913
 40
0.2608695652173913
 40
0.3043478260869565
 40
0.3043478260869565
 40
0.3043478260869565
 40
0.3043478260869565
 40
0.3478260869565217
 40
0.3478260869565217
 40
0.3478260869565217
 40
0.3478260869565217
 40
0.391304347826087
 40
0.391304347826087
 40
0.391304347826087
 40
0.391304347826087
 40
0.4347826086956522
 40
0.4347826086956522
 40
0.4347826086956522
 40
0.4347826086956522
 40
0.4782608695652174
 40
0.4782608695652174
 40
0.4782608695652174
 40
0.4782608695652174
 40
0.5217391304347826
 40
0.5217391304347826
 40
0.5217391304347826
 40
0.5217391304347826
 40
0.5652173913043478
 40
0.5652173913043478
 40
0.5652173913043478
 40
0.5652173913043478
 40
0.6086956521739131
 40
0.6086956521739131
 40
0.6086956521739131
 40
0.6086956521739131
 40
0.6521739130434783
 40
0.6521739130434783
 40
0.6521739130434783
 40
0.6521739130434783
 40
0.6956521739130435
 40
0.6956521739130435
 40
0.6956521739130435
 40
0.6956521739130435
 40
0.7391304347826086
 40
0.7391304347826086
 40
0.7391304347826086
 40
0.7391304347826086
 40
0.782608695652174
 40
0.782608695652174
 40
0.782608695652174
 40
0.782608695652174
 40
0.8260869565217391
 40
0.8260869565217391
 40
0.8260869565217391
 40
0.8260869565217391
 40
0.8695652173913043
 40
0.8695652173913043
 40
0.8695652173913043
 40
0.8695652173913043
 40
0.9130434782608695
 40
0.9130434782608695
 40
0.9130434782608695
 40
0.9130434782608695
 40
1.0
 40
1.0
 40
1.0
 40
1.0
 10
-35.1657
 20
-22.4015
 30
0.0
 10
-35.1657
 20
-22.4015
 30
0.0
 10
-35.2111
 20
-22.1439
 30
0.0
 10
-35.2111
 20
-22.1439
 30
0.0
 10
-35.2111
 20
-22.1439
 30
0.0
 10
-35.0863
 20
-22.1133
 30
0.0
 10
-34.9957
 20
-22.0603
 30
0.0
 10
-34.9382
 20
-21.9847
 30
0.0
 10
-34.9382
 20
-21.9847
 30
0.0
 10
-34.8808
 20
-21.9088
 30
0.0
 10
-34.8565
 20
-21.8216
 30
0.0
 10
-34.8654
 20
-21.7228
 30
0.0
 10
-34.8654
 20
-21.7228
 30
0.0
 10
-34.8761
 20
-21.6037
 30
0.0
 10
-34.9302
 20
-21.5071
 30
0.0
 10
-35.027
 20
-21.4332
 30
0.0
 10
-35.027
 20
-21.4332
 30
0.0
 10
-35.1243
 20
-21.3588
 30
0.0
 10
-35.2471
 20
-21.3283
 30
0.0
 10
-35.3951
 20
-21.3416
 30
0.0
 10
-35.3951
 20
-21.3416
 30
0.0
 10
-35.5361
 20
-21.3542
 30
0.0
 10
-35.6436
 20
-21.4036
 30
0.0
 10
-35.718
 20
-21.4901
 30
0.0
 10
-35.718
 20
-21.4901
 30
0.0
 10
-35.7924
 20
-21.5766
 30
0.0
 10
-35.8239
 20
-21.6837
 30
0.0
 10
-35.8123
 20
-21.8121
 30
0.0
 10
-35.8123
 20
-21.8121
 30
0.0
 10
-35.8051
 20
-21.8918
 30
0.0
 10
-35.7805
 20
-21.9618
 30
0.0
 10
-35.7387
 20
-22.0228
 30
0.0
 10
-35.7387
 20
-22.0228
 30
0.0
 10
-35.6967
 20
-22.0837
 30
0.0
 10
-35.6454
 20
-22.1295
 30
0.0
 10
-35.5845
 20
-22.1609
 30
0.0
 10
-35.5845
 20
-22.1609
 30
0.0
 10
-35.5845
 20
-22.1609
 30
0.0
 10
-35.5936
 20
-22.3956
 30
0.0
 10
-35.5936
 20
-22.3956
 30
0.0
 10
-35.5936
 20
-22.3956
 30
0.0
 10
-35.5936
 20
-22.3956
 30
0.0
 10
-36.6446
 20
-22.2936
 30
0.0
 10
-36.6446
 20
-22.2936
 30
0.0
 10
-36.6446
 20
-22.2936
 30
0.0
 10
-36.6446
 20
-22.2936
 30
0.0
 10
-36.7346
 20
-21.2929
 30
0.0
 10
-36.7346
 20
-21.2929
 30
0.0
 10
-36.7346
 20
-21.2929
 30
0.0
 10
-36.7346
 20
-21.2929
 30
0.0
 10
-36.4985
 20
-21.2717
 30
0.0
 10
-36.4985
 20
-21.2717
 30
0.0
 10
-36.4985
 20
-21.2717
 30
0.0
 10
-36.4985
 20
-21.2717
 30
0.0
 10
-36.4263
 20
-22.0746
 30
0.0
 10
-36.4263
 20
-22.0746
 30
0.0
 10
-36.4263
 20
-22.0746
 30
0.0
 10
-36.4263
 20
-22.0746
 30
0.0
 10
-35.8759
 20
-22.1347
 30
0.0
 10
-35.8759
 20
-22.1347
 30
0.0
 10
-35.8759
 20
-22.1347
 30
0.0
 10
-35.9711
 20
-22.0215
 30
0.0
 10
-36.0246
 20
-21.8983
 30
0.0
 10
-36.0366
 20
-21.7657
 30
0.0
 10
-36.0366
 20
-21.7657
 30
0.0
 10
-36.0524
 20
-21.59
 30
0.0
 10
-36.0048
 20
-21.4365
 30
0.0
 10
-35.8939
 20
-21.3047
 30
0.0
 10
-35.8939
 20
-21.3047
 30
0.0
 10
-35.7829
 20
-21.1729
 30
0.0
 10
-35.6319
 20
-21.0984
 30
0.0
 10
-35.4408
 20
-21.0812
 30
0.0
 10
-35.4408
 20
-21.0812
 30
0.0
 10
-35.2585
 20
-21.0648
 30
0.0
 10
-35.0962
 20
-21.104
 30
0.0
 10
-34.9542
 20
-21.198
 30
0.0
 10
-34.9542
 20
-21.198
 30
0.0
 10
-34.78
 20
-21.3127
 30
0.0
 10
-34.6827
 20
-21.4815
 30
0.0
 10
-34.6626
 20
-21.7045
 30
0.0
 10
-34.6626
 20
-21.7045
 30
0.0
 10
-34.6462
 20
-21.8877
 30
0.0
 10
-34.6837
 20
-22.0417
 30
0.0
 10
-34.7759
 20
-22.1666
 30
0.0
 10
-34.7759
 20
-22.1666
 30
0.0
 10
-34.8682
 20
-22.2916
 30
0.0
 10
-34.9981
 20
-22.3698
 30
0.0
 10
-35.1657
 20
-22.4015
 30
0.0
  0
SPLINE
  5
138
330
1F
100
AcDbEntity
  8
AXIS
 62
   250
100
AcDbSpline
210
0.0
220
0.0
230
1.0
 70
    11
 71
     3
 72
    52
 73
    48
 74
     0
 42
0.0000000001
 43
0.0000000001
 40
0.0
 40
0.0
 40
0.0
 40
0.0
 40
0.0769230769230769
 40
0.0769230769230769
 40
0.0769230769230769
 40
0.0769230769230769
 40
0.1538461538461539
 40
0.1538461538461539
 40
0.1538461538461539
 40
0.1538461538461539
 40
0.2307692307692308
 40
0.2307692307692308
 40
0.2307692307692308
 40
0.2307692307692308
 40
0.3076923076923077
 40
0.3076923076923077
 40
0.3076923076923077
 40
0.3076923076923077
 40
0.3846153846153846
 40
0.3846153846153846
 40
0.3846153846153846
 40
0.3846153846153846
 40
0.4615384615384616
 40
0.4615384615384616
 40
0.4615384615384616
 40
0.4615384615384616
 40
0.5384615384615384
 40
0.5384615384615384
 40
0.5384615384615384
 40
0.5384615384615384
 40
0.6153846153846154
 40
0.6153846153846154
 40
0.6153846153846154
 40
0.6153846153846154
 40
0.6923076923076923
 40
0.6923076923076923
 40
0.6923076923076923
 40
0.6923076923076923
 40
0.7692307692307693
 40
0.7692307692307693
 40
0.7692307692307693
 40
0.7692307692307693
 40
0.8461538461538461
 40
0.8461538461538461
 40
0.8461538461538461
 40
0.8461538461538461
 40
1.0
 40
1.0
 40
1.0
 40
1.0
 10
-35.7714
 20
-20.88
 30
0.0
 10
-36.0095
 20
-20.9014
 30
0.0
 10
-36.2033
 20
-20.8942
 30
0.0
 10
-36.3524
 20
-20.858
 30
0.0
 10
-36.3524
 20
-20.858
 30
0.0
 10
-36.502
 20
-20.8224
 30
0.0
 10
-36.6205
 20
-20.7594
 30
0.0
 10
-36.708
 20
-20.6699
 30
0.0
 10
-36.708
 20
-20.6699
 30
0.0
 10
-36.7953
 20
-20.5805
 30
0.0
 10
-36.8456
 20
-20.4627
 30
0.0
 10
-36.8587
 20
-20.3166
 30
0.0
 10
-36.8587
 20
-20.3166
 30
0.0
 10
-36.8685
 20
-20.2083
 30
0.0
 10
-36.855
 20
-20.1117
 30
0.0
 10
-36.8187
 20
-20.0264
 30
0.0
 10
-36.8187
 20
-20.0264
 30
0.0
 10
-36.783
 20
-19.9409
 30
0.0
 10
-36.7262
 20
-19.8682
 30
0.0
 10
-36.649
 20
-19.8075
 30
0.0
 10
-36.649
 20
-19.8075
 30
0.0
 10
-36.5718
 20
-19.7472
 30
0.0
 10
-36.4757
 20
-19.6965
 30
0.0
 10
-36.3609
 20
-19.656
 30
0.0
 10
-36.3609
 20
-19.656
 30
0.0
 10
-36.246
 20
-19.6149
 30
0.0
 10
-36.089
 20
-19.5857
 30
0.0
 10
-35.8894
 20
-19.5678
 30
0.0
 10
-35.8894
 20
-19.5678
 30
0.0
 10
-35.6533
 20
-19.5466
 30
0.0
 10
-35.4609
 20
-19.5538
 30
0.0
 10
-35.3114
 20
-19.589
 30
0.0
 10
-35.3114
 20
-19.589
 30
0.0
 10
-35.1618
 20
-19.6247
 30
0.0
 10
-35.0433
 20
-19.6872
 30
0.0
 10
-34.9554
 20
-19.7766
 30
0.0
 10
-34.9554
 20
-19.7766
 30
0.0
 10
-34.8676
 20
-19.866
 30
0.0
 10
-34.8173
 20
-19.9843
 30
0.0
 10
-34.804
 20
-20.1319
 30
0.0
 10
-34.804
 20
-20.1319
 30
0.0
 10
-34.7866
 20
-20.3258
 30
0.0
 10
-34.8422
 20
-20.4843
 30
0.0
 10
-34.9714
 20
-20.6074
 30
0.0
 10
-34.9714
 20
-20.6074
 30
0.0
 10
-35.1267
 20
-20.755
 30
0.0
 10
-35.3938
 20
-20.8461
 30
0.0
 10
-35.7714
 20
-20.88
 30
0.0
  0
SPLINE
  5
139
330
1F
100
AcDbEntity
  8
AXIS
 62
   250
100
AcDbSpline
210
0.0
220
0.0
230
1.0
 70
    11
 71
     3
 72
    36
 73
    32
 74
     0
 42
0.0000000001
 43
0.0000000001
 40
0.0
 40
0.0
 40
0.0
 40
0.0
 40
0.1111111111111111
 40
0.1111111111111111
 40
0.1111111111111111
 40
0.1111111111111111
 40
0.2222222222222222
 40
0.2222222222222222
 40
0.2222222222222222
 40
0.2222222222222222
 40
0.3333333333333333
 40
0.3333333333333333
 40
0.3333333333333333
 40
0.3333333333333333
 40
0.4444444444444444
 40
0.4444444444444444
 40
0.4444444444444444
 40
0.4444444444444444
 40
0.5555555555555556
 40
0.5555555555555556
 40
0.5555555555555556
 40
0.5555555555555556
 40
0.6666666666666666
 40
0.6666666666666666
 40
0.6666666666666666
 40
0.6666666666666666
 40
0.7777777777777778
 40
0.7777777777777778
 40
0.7777777777777778
 40
0.7777777777777778
 40
1.0
 40
1.0
 40
1.0
 40
1.0
 10
-35.7943
 20
-20.626
 30
0.0
 10
-35.464
 20
-20.5963
 30
0.0
 10
-35.2478
 20
-20.5377
 30
0.0
 10
-35.1452
 20
-20.4506
 30
0.0
 10
-35.1452
 20
-20.4506
 30
0.0
 10
-35.0429
 20
-20.3635
 30
0.0
 10
-34.9966
 20
-20.2634
 30
0.0
 10
-35.0068
 20
-20.1501
 30
0.0
 10
-35.0068
 20
-20.1501
 30
0.0
 10
-35.017
 20
-20.0363
 30
0.0
 10
-35.0809
 20
-19.9461
 30
0.0
 10
-35.1975
 20
-19.8787
 30
0.0
 10
-35.1975
 20
-19.8787
 30
0.0
 10
-35.3141
 20
-19.8113
 30
0.0
 10
-35.5373
 20
-19.7921
 30
0.0
 10
-35.8666
 20
-19.8217
 30
0.0
 10
-35.8666
 20
-19.8217
 30
0.0
 10
-36.1978
 20
-19.8515
 30
0.0
 10
-36.4145
 20
-19.9102
 30
0.0
 10
-36.5163
 20
-19.9973
 30
0.0
 10
-36.5163
 20
-19.9973
 30
0.0
 10
-36.6185
 20
-20.0844
 30
0.0
 10
-36.6641
 20
-20.1853
 30
0.0
 10
-36.6538
 20
-20.3005
 30
0.0
 10
-36.6538
 20
-20.3005
 30
0.0
 10
-36.6435
 20
-20.4143
 30
0.0
 10
-36.5872
 20
-20.5004
 30
0.0
 10
-36.4851
 20
-20.5597
 30
0.0
 10
-36.4851
 20
-20.5597
 30
0.0
 10
-36.3551
 20
-20.6335
 30
0.0
 10
-36.1245
 20
-20.6557
 30
0.0
 10
-35.7943
 20
-20.626
 30
0.0
  0
SPLINE
  5
13A
330
1F
100
AcDbEntity
  8
AXIS
 62
   250
100
AcDbSpline
210
0.0
220
0.0
230
1.0
 70
    11
 71
     3
 72
    28
 73
    24
 74
     0
 42
0.0000000001
 43
0.0000000001
 40
0.0
 40
0.0
 40
0.0
 40
0.0
 40
0.1428571428571428
 40
0.1428571428571428
 40
0.1428571428571428
 40
0.1428571428571428
 40
0.2857142857142857
 40
0.2857142857142857
 40
0.2857142857142857
 40
0.2857142857142857
 40
0.4285714285714285
 40
0.4285714285714285
 40
0.4285714285714285
 40
0.4285714285714285
 40
0.5714285714285714
 40
0.5714285714285714
 40
0.5714285714285714
 40
0.5714285714285714
 40
0.7142857142857143
 40
0.7142857142857143
 40
0.7142857142857143
 40
0.7142857142857143
 40
1.0
 40
1.0
 40
1.0
 40
1.0
 10
13.2948
 20
37.3602
 30
0.0
 10
13.2948
 20
37.3602
 30
0.0
 10
13.2948
 20
40.3658
 30
0.0
 10
13.2948
 20
40.3658
 30
0.0
 10
13.2948
 20
40.3658
 30
0.0
 10
13.2948
 20
40.3658
 30
0.0
 10
13.9065
 20
40.3658
 30
0.0
 10
13.9065
 20
40.3658
 30
0.0
 10
13.9065
 20
40.3658
 30
0.0
 10
13.9065
 20
40.3658
 30
0.0
 10
13.9065
 20
37.871
 30
0.0
 10
13.9065
 20
37.871
 30
0.0
 10
13.9065
 20
37.871
 30
0.0
 10
13.9065
 20
37.871
 30
0.0
 10
15.4276
 20
37.871
 30
0.0
 10
15.4276
 20
37.871
 30
0.0
 10
15.4276
 20
37.871
 30
0.0
 10
15.4276
 20
37.871
 30
0.0
 10
15.4276
 20
37.3602
 30
0.0
 10
15.4276
 20
37.3602
 30
0.0
 10
15.4276
 20
37.3602
 30
0.0
 10
15.4276
 20
37.3602
 30
0.0
 10
13.2948
 20
37.3602
 30
0.0
 10
13.2948
 20
37.3602
 30
0.0
  0
SPLINE
  5
13B
330
1F
100
AcDbEntity
  8
AXIS
 62
   250
100
AcDbSpline
210
0.0
220
0.0
230
1.0
 70
    11
 71
     3
 72
    52
 73
    48
 74
     0
 42
0.0000000001
 43
0.0000000001
 40
0.0
 40
0.0
 40
0.0
 40
0.0
 40
0.0769230769230769
 40
0.0769230769230769
 40
0.0769230769230769
 40
0.0769230769230769
 40
0.1538461538461539
 40
0.1538461538461539
 40
0.1538461538461539
 40
0.1538461538461539
 40
0.2307692307692308
 40
0.2307692307692308
 40
0.2307692307692308
 40
0.2307692307692308
 40
0.3076923076923077
 40
0.3076923076923077
 40
0.3076923076923077
 40
0.3076923076923077
 40
0.3846153846153846
 40
0.3846153846153846
 40
0.3846153846153846
 40
0.3846153846153846
 40
0.4615384615384616
 40
0.4615384615384616
 40
0.4615384615384616
 40
0.4615384615384616
 40
0.5384615384615384
 40
0.5384615384615384
 40
0.5384615384615384
 40
0.5384615384615384
 40
0.6153846153846154
 40
0.6153846153846154
 40
0.6153846153846154
 40
0.6153846153846154
 40
0.6923076923076923
 40
0.6923076923076923
 40
0.6923076923076923
 40
0.6923076923076923
 40
0.7692307692307693
 40
0.7692307692307693
 40
0.7692307692307693
 40
0.7692307692307693
 40
0.8461538461538461
 40
0.8461538461538461
 40
0.8461538461538461
 40
0.8461538461538461
 40
1.0
 40
1.0
 40
1.0
 40
1.0
 10
-22.7317
 20
-1.4462
 30
0.0
 10
-22.7317
 20
-1.4462
 30
0.0
 10
-25.7619
 20
-1.4559
 30
0.0
 10
-25.7619
 20
-1.4559
 30
0.0
 10
-25.7619
 20
-1.4559
 30
0.0
 10
-25.7619
 20
-1.4559
 30
0.0
 10
-25.7639
 20
-0.8434
 30
0.0
 10
-25.7639
 20
-0.8434
 30
0.0
 10
-25.7639
 20
-0.8434
 30
0.0
 10
-25.7639
 20
-0.8434
 30
0.0
 10
-24.5716
 20
-0.8396
 30
0.0
 10
-24.5716
 20
-0.8396
 30
0.0
 10
-24.5716
 20
-0.8396
 30
0.0
 10
-24.5716
 20
-0.8396
 30
0.0
 10
-24.5755
 20
0.3591
 30
0.0
 10
-24.5755
 20
0.3591
 30
0.0
 10
-24.5755
 20
0.3591
 30
0.0
 10
-24.5755
 20
0.3591
 30
0.0
 10
-25.7677
 20
0.3553
 30
0.0
 10
-25.7677
 20
0.3553
 30
0.0
 10
-25.7677
 20
0.3553
 30
0.0
 10
-25.7677
 20
0.3553
 30
0.0
 10
-25.7697
 20
0.967
 30
0.0
 10
-25.7697
 20
0.967
 30
0.0
 10
-25.7697
 20
0.967
 30
0.0
 10
-25.7697
 20
0.967
 30
0.0
 10
-22.7394
 20
0.9767
 30
0.0
 10
-22.7394
 20
0.9767
 30
0.0
 10
-22.7394
 20
0.9767
 30
0.0
 10
-22.7394
 20
0.9767
 30
0.0
 10
-22.7375
 20
0.365
 30
0.0
 10
-22.7375
 20
0.365
 30
0.0
 10
-22.7375
 20
0.365
 30
0.0
 10
-22.7375
 20
0.365
 30
0.0
 10
-24.0625
 20
0.3608
 30
0.0
 10
-24.0625
 20
0.3608
 30
0.0
 10
-24.0625
 20
0.3608
 30
0.0
 10
-24.0625
 20
0.3608
 30
0.0
 10
-24.0586
 20
-0.8379
 30
0.0
 10
-24.0586
 20
-0.8379
 30
0.0
 10
-24.0586
 20
-0.8379
 30
0.0
 10
-24.0586
 20
-0.8379
 30
0.0
 10
-22.7336
 20
-0.8337
 30
0.0
 10
-22.7336
 20
-0.8337
 30
0.0
 10
-22.7336
 20
-0.8337
 30
0.0
 10
-22.7336
 20
-0.8337
 30
0.0
 10
-22.7317
 20
-1.4462
 30
0.0
 10
-22.7317
 20
-1.4462
 30
0.0
  0
SPLINE
  5
13C
330
1F
100
AcDbEntity
  8
AXIS
 62
   250
100
AcDbSpline
210
0.0
220
0.0
230
1.0
 70
    11
 71
     3
 72
    92
 73
    88
 74
     0
 42
0.0000000001
 43
0.0000000001
 40
0.0
 40
0.0
 40
0.0
 40
0.0
 40
0.0434782608695652
 40
0.0434782608695652
 40
0.0434782608695652
 40
0.0434782608695652
 40
0.0869565217391304
 40
0.0869565217391304
 40
0.0869565217391304
 40
0.0869565217391304
 40
0.1304347826086956
 40
0.1304347826086956
 40
0.1304347826086956
 40
0.1304347826086956
 40
0.1739130434782609
 40
0.1739130434782609
 40
0.1739130434782609
 40
0.1739130434782609
 40
0.2173913043478261
 40
0.2173913043478261
 40
0.2173913043478261
 40
0.2173913043478261
 40
0.2608695652173913
 40
0.2608695652173913
 40
0.2608695652173913
 40
0.2608695652173913
 40
0.3043478260869565
 40
0.3043478260869565
 40
0.3043478260869565
 40
0.3043478260869565
 40
0.3478260869565217
 40
0.3478260869565217
 40
0.3478260869565217
 40
0.3478260869565217
 40
0.391304347826087
 40
0.391304347826087
 40
0.391304347826087
 40
0.391304347826087
 40
0.4347826086956522
 40
0.4347826086956522
 40
0.4347826086956522
 40
0.4347826086956522
 40
0.4782608695652174
 40
0.4782608695652174
 40
0.4782608695652174
 40
0.4782608695652174
 40
0.5217391304347826
 40
0.5217391304347826
 40
0.5217391304347826
 40
0.5217391304347826
 40
0.5652173913043478
 40
0.5652173913043478
 40
0.5652173913043478
 40
0.5652173913043478
 40
0.6086956521739131
 40
0.6086956521739131
 40
0.6086956521739131
 40
0.6086956521739131
 40
0.6521739130434783
 40
0.6521739130434783
 40
0.6521739130434783
 40
0.6521739130434783
 40
0.6956521739130435
 40
0.6956521739130435
 40
0.6956521739130435
 40
0.6956521739130435
 40
0.7391304347826086
 40
0.7391304347826086
 40
0.7391304347826086
 40
0.7391304347826086
 40
0.782608695652174
 40
0.782608695652174
 40
0.782608695652174
 40
0.782608695652174
 40
0.8260869565217391
 40
0.8260869565217391
 40
0.8260869565217391
 40
0.8260869565217391
 40
0.8695652173913043
 40
0.8695652173913043
 40
0.8695652173913043
 40
0.8695652173913043
 40
0.9130434782608695
 40
0.9130434782608695
 40
0.9130434782608695
 40
0.9130434782608695
 40
1.0
 40
1.0
 40
1.0
 40
1.0
 10
35.6109
 20
34.3866
 30
0.0
 10
35.6109
 20
34.3866
 30
0.0
 10
35.5901
 20
34.1491
 30
0.0
 10
35.5901
 20
34.1491
 30
0.0
 10
35.5901
 20
34.1491
 30
0.0
 10
35.5901
 20
34.1491
 30
0.0
 10
34.2598
 20
34.2654
 30
0.0
 10
34.2598
 20
34.2654
 30
0.0
 10
34.2598
 20
34.2654
 30
0.0
 10
34.2631
 20
34.3251
 30
0.0
 10
34.2774
 20
34.3814
 30
0.0
 10
34.3034
 20
34.4345
 30
0.0
 10
34.3034
 20
34.4345
 30
0.0
 10
34.3451
 20
34.5224
 30
0.0
 10
34.4072
 20
34.6067
 30
0.0
 10
34.4894
 20
34.6882
 30
0.0
 10
34.4894
 20
34.6882
 30
0.0
 10
34.5721
 20
34.7693
 30
0.0
 10
34.6887
 20
34.8615
 30
0.0
 10
34.8394
 20
34.9645
 30
0.0
 10
34.8394
 20
34.9645
 30
0.0
 10
35.0739
 20
35.1249
 30
0.0
 10
35.2344
 20
35.2539
 30
0.0
 10
35.3204
 20
35.3521
 30
0.0
 10
35.3204
 20
35.3521
 30
0.0
 10
35.4064
 20
35.4499
 30
0.0
 10
35.4535
 20
35.5459
 30
0.0
 10
35.4617
 20
35.6391
 30
0.0
 10
35.4617
 20
35.6391
 30
0.0
 10
35.4702
 20
35.737
 30
0.0
 10
35.4423
 20
35.8226
 30
0.0
 10
35.3784
 20
35.8961
 30
0.0
 10
35.3784
 20
35.8961
 30
0.0
 10
35.314
 20
35.9693
 30
0.0
 10
35.2256
 20
36.011
 30
0.0
 10
35.1131
 20
36.0209
 30
0.0
 10
35.1131
 20
36.0209
 30
0.0
 10
34.9941
 20
36.0313
 30
0.0
 10
34.8958
 20
36.004
 30
0.0
 10
34.8183
 20
35.9385
 30
0.0
 10
34.8183
 20
35.9385
 30
0.0
 10
34.7405
 20
35.8736
 30
0.0
 10
34.6957
 20
35.7779
 30
0.0
 10
34.6837
 20
35.652
 30
0.0
 10
34.6837
 20
35.652
 30
0.0
 10
34.6837
 20
35.652
 30
0.0
 10
34.432
 20
35.6999
 30
0.0
 10
34.432
 20
35.6999
 30
0.0
 10
34.432
 20
35.6999
 30
0.0
 10
34.466
 20
35.8881
 30
0.0
 10
34.5442
 20
36.0268
 30
0.0
 10
34.6663
 20
36.1162
 30
0.0
 10
34.6663
 20
36.1162
 30
0.0
 10
34.7884
 20
36.2056
 30
0.0
 10
34.9454
 20
36.2419
 30
0.0
 10
35.1366
 20
36.2252
 30
0.0
 10
35.1366
 20
36.2252
 30
0.0
 10
35.3297
 20
36.2083
 30
0.0
 10
35.4778
 20
36.141
 30
0.0
 10
35.5809
 20
36.0244
 30
0.0
 10
35.5809
 20
36.0244
 30
0.0
 10
35.6844
 20
35.9071
 30
0.0
 10
35.7291
 20
35.7696
 30
0.0
 10
35.7152
 20
35.6112
 30
0.0
 10
35.7152
 20
35.6112
 30
0.0
 10
35.7081
 20
35.5306
 30
0.0
 10
35.6848
 20
35.4529
 30
0.0
 10
35.6447
 20
35.3781
 30
0.0
 10
35.6447
 20
35.3781
 30
0.0
 10
35.6051
 20
35.3031
 30
0.0
 10
35.5431
 20
35.226
 30
0.0
 10
35.4592
 20
35.1469
 30
0.0
 10
35.4592
 20
35.1469
 30
0.0
 10
35.3753
 20
35.0673
 30
0.0
 10
35.238
 20
34.9603
 30
0.0
 10
35.0473
 20
34.8259
 30
0.0
 10
35.0473
 20
34.8259
 30
0.0
 10
34.8883
 20
34.7143
 30
0.0
 10
34.7858
 20
34.6382
 30
0.0
 10
34.7397
 20
34.5974
 30
0.0
 10
34.7397
 20
34.5974
 30
0.0
 10
34.6937
 20
34.557
 30
0.0
 10
34.6552
 20
34.5155
 30
0.0
 10
34.6235
 20
34.473
 30
0.0
 10
34.6235
 20
34.473
 30
0.0
 10
34.6235
 20
34.473
 30
0.0
 10
35.6109
 20
34.3866
 30
0.0
 10
35.6109
 20
34.3866
 30
0.0
  0
SPLINE
  5
13D
330
1F
100
AcDbEntity
  8
AXIS
 62
   250
100
AcDbSpline
210
0.0
220
0.0
230
1.0
 70
    11
 71
     3
 72
   124
 73
   120
 74
     0
 42
0.0000000001
 43
0.0000000001
 40
0.0
 40
0.0
 40
0.0
 40
0.0
 40
0.032258064516129
 40
0.032258064516129
 40
0.032258064516129
 40
0.032258064516129
 40
0.0645161290322581
 40
0.0645161290322581
 40
0.0645161290322581
 40
0.0645161290322581
 40
0.0967741935483871
 40
0.0967741935483871
 40
0.0967741935483871
 40
0.0967741935483871
 40
0.1290322580645161
 40
0.1290322580645161
 40
0.1290322580645161
 40
0.1290322580645161
 40
0.1612903225806452
 40
0.1612903225806452
 40
0.1612903225806452
 40
0.1612903225806452
 40
0.1935483870967742
 40
0.1935483870967742
 40
0.1935483870967742
 40
0.1935483870967742
 40
0.2258064516129032
 40
0.2258064516129032
 40
0.2258064516129032
 40
0.2258064516129032
 40
0.2580645161290323
 40
0.2580645161290323
 40
0.2580645161290323
 40
0.2580645161290323
 40
0.2903225806451613
 40
0.2903225806451613
 40
0.2903225806451613
 40
0.2903225806451613
 40
0.3225806451612903
 40
0.3225806451612903
 40
0.3225806451612903
 40
0.3225806451612903
 40
0.3548387096774194
 40
0.3548387096774194
 40
0.3548387096774194
 40
0.3548387096774194
 40
0.3870967741935484
 40
0.3870967741935484
 40
0.3870967741935484
 40
0.3870967741935484
 40
0.4193548387096774
 40
0.4193548387096774
 40
0.4193548387096774
 40
0.4193548387096774
 40
0.4516129032258064
 40
0.4516129032258064
 40
0.4516129032258064
 40
0.4516129032258064
 40
0.4838709677419355
 40
0.4838709677419355
 40
0.4838709677419355
 40
0.4838709677419355
 40
0.5161290322580645
 40
0.5161290322580645
 40
0.5161290322580645
 40
0.5161290322580645
 40
0.5483870967741935
 40
0.5483870967741935
 40
0.5483870967741935
 40
0.5483870967741935
 40
0.5806451612903226
 40
0.5806451612903226
 40
0.5806451612903226
 40
0.5806451612903226
 40
0.6129032258064516
 40
0.6129032258064516
 40
0.6129032258064516
 40
0.6129032258064516
 40
0.6451612903225806
 40
0.6451612903225806
 40
0.6451612903225806
 40
0.6451612903225806
 40
0.6774193548387096
 40
0.6774193548387096
 40
0.6774193548387096
 40
0.6774193548387096
 40
0.7096774193548387
 40
0.7096774193548387
 40
0.7096774193548387
 40
0.7096774193548387
 40
0.7419354838709677
 40
0.7419354838709677
 40
0.7419354838709677
 40
0.7419354838709677
 40
0.7741935483870968
 40
0.7741935483870968
 40
0.7741935483870968
 40
0.7741935483870968
 40
0.8064516129032258
 40
0.8064516129032258
 40
0.8064516129032258
 40
0.8064516129032258
 40
0.8387096774193549
 40
0.8387096774193549
 40
0.8387096774193549
 40
0.8387096774193549
 40
0.8709677419354839
 40
0.8709677419354839
 40
0.8709677419354839
 40
0.8709677419354839
 40
0.9032258064516129
 40
0.9032258064516129
 40
0.9032258064516129
 40
0.9032258064516129
 40
0.9354838709677419
 40
0.9354838709677419
 40
0.9354838709677419
 40
0.9354838709677419
 40
1.0
 40
1.0
 40
1.0
 40
1.0
 10
35.9027
 20
34.6571
 30
0.0
 10
35.9027
 20
34.6571
 30
0.0
 10
36.1525
 20
34.6683
 30
0.0
 10
36.1525
 20
34.6683
 30
0.0
 10
36.1525
 20
34.6683
 30
0.0
 10
36.1688
 20
34.5257
 30
0.0
 10
36.2083
 20
34.4208
 30
0.0
 10
36.2708
 20
34.353
 30
0.0
 10
36.2708
 20
34.353
 30
0.0
 10
36.3338
 20
34.2852
 30
0.0
 10
36.414
 20
34.2469
 30
0.0
 10
36.512
 20
34.2383
 30
0.0
 10
36.512
 20
34.2383
 30
0.0
 10
36.6281
 20
34.2282
 30
0.0
 10
36.7301
 20
34.2599
 30
0.0
 10
36.8173
 20
34.3335
 30
0.0
 10
36.8173
 20
34.3335
 30
0.0
 10
36.904
 20
34.4071
 30
0.0
 10
36.9531
 20
34.5034
 30
0.0
 10
36.9635
 20
34.6225
 30
0.0
 10
36.9635
 20
34.6225
 30
0.0
 10
36.9734
 20
34.7358
 30
0.0
 10
36.9445
 20
34.8328
 30
0.0
 10
36.8769
 20
34.9128
 30
0.0
 10
36.8769
 20
34.9128
 30
0.0
 10
36.8089
 20
34.9928
 30
0.0
 10
36.718
 20
35.0381
 30
0.0
 10
36.6036
 20
35.0481
 30
0.0
 10
36.6036
 20
35.0481
 30
0.0
 10
36.5568
 20
35.0522
 30
0.0
 10
36.4978
 20
35.048
 30
0.0
 10
36.4269
 20
35.0358
 30
0.0
 10
36.4269
 20
35.0358
 30
0.0
 10
36.4269
 20
35.0358
 30
0.0
 10
36.4735
 20
35.2503
 30
0.0
 10
36.4735
 20
35.2503
 30
0.0
 10
36.4735
 20
35.2503
 30
0.0
 10
36.4897
 20
35.247
 30
0.0
 10
36.5028
 20
35.2449
 30
0.0
 10
36.513
 20
35.244
 30
0.0
 10
36.513
 20
35.244
 30
0.0
 10
36.618
 20
35.2348
 30
0.0
 10
36.7151
 20
35.2542
 30
0.0
 10
36.8043
 20
35.3016
 30
0.0
 10
36.8043
 20
35.3016
 30
0.0
 10
36.8934
 20
35.349
 30
0.0
 10
36.943
 20
35.4302
 30
0.0
 10
36.953
 20
35.5445
 30
0.0
 10
36.953
 20
35.5445
 30
0.0
 10
36.9609
 20
35.6349
 30
0.0
 10
36.9365
 20
35.7131
 30
0.0
 10
36.8803
 20
35.7775
 30
0.0
 10
36.8803
 20
35.7775
 30
0.0
 10
36.8242
 20
35.8423
 30
0.0
 10
36.7476
 20
35.8794
 30
0.0
 10
36.6506
 20
35.8878
 30
0.0
 10
36.6506
 20
35.8878
 30
0.0
 10
36.5545
 20
35.8962
 30
0.0
 10
36.4718
 20
35.8728
 30
0.0
 10
36.4028
 20
35.8184
 30
0.0
 10
36.4028
 20
35.8184
 30
0.0
 10
36.3333
 20
35.7635
 30
0.0
 10
36.2841
 20
35.6762
 30
0.0
 10
36.2552
 20
35.5569
 30
0.0
 10
36.2552
 20
35.5569
 30
0.0
 10
36.2552
 20
35.5569
 30
0.0
 10
36.0122
 20
35.6226
 30
0.0
 10
36.0122
 20
35.6226
 30
0.0
 10
36.0122
 20
35.6226
 30
0.0
 10
36.0567
 20
35.7858
 30
0.0
 10
36.1368
 20
35.9082
 30
0.0
 10
36.2516
 20
35.9897
 30
0.0
 10
36.2516
 20
35.9897
 30
0.0
 10
36.3669
 20
36.0713
 30
0.0
 10
36.504
 20
36.1056
 30
0.0
 10
36.6633
 20
36.0916
 30
0.0
 10
36.6633
 20
36.0916
 30
0.0
 10
36.7729
 20
36.082
 30
0.0
 10
36.872
 20
36.0493
 30
0.0
 10
36.9602
 20
35.9944
 30
0.0
 10
36.9602
 20
35.9944
 30
0.0
 10
37.0484
 20
35.939
 30
0.0
 10
37.1135
 20
35.8685
 30
0.0
 10
37.1556
 20
35.7827
 30
0.0
 10
37.1556
 20
35.7827
 30
0.0
 10
37.1972
 20
35.6969
 30
0.0
 10
37.2145
 20
35.6085
 30
0.0
 10
37.2064
 20
35.5167
 30
0.0
 10
37.2064
 20
35.5167
 30
0.0
 10
37.1988
 20
35.43
 30
0.0
 10
37.1685
 20
35.3529
 30
0.0
 10
37.1154
 20
35.2852
 30
0.0
 10
37.1154
 20
35.2852
 30
0.0
 10
37.0623
 20
35.2181
 30
0.0
 10
36.9885
 20
35.1675
 30
0.0
 10
36.8934
 20
35.1333
 30
0.0
 10
36.8934
 20
35.1333
 30
0.0
 10
37.01
 20
35.0957
 30
0.0
 10
37.0973
 20
35.0304
 30
0.0
 10
37.1558
 20
34.938
 30
0.0
 10
37.1558
 20
34.938
 30
0.0
 10
37.2139
 20
34.846
 30
0.0
 10
37.2372
 20
34.7349
 30
0.0
 10
37.2259
 20
34.6051
 30
0.0
 10
37.2259
 20
34.6051
 30
0.0
 10
37.2105
 20
34.4294
 30
0.0
 10
37.1337
 20
34.2859
 30
0.0
 10
36.9947
 20
34.1749
 30
0.0
 10
36.9947
 20
34.1749
 30
0.0
 10
36.856
 20
34.0638
 30
0.0
 10
36.6886
 20
34.0171
 30
0.0
 10
36.4927
 20
34.0343
 30
0.0
 10
36.4927
 20
34.0343
 30
0.0
 10
36.3161
 20
34.0497
 30
0.0
 10
36.1739
 20
34.1149
 30
0.0
 10
36.0665
 20
34.2306
 30
0.0
 10
36.0665
 20
34.2306
 30
0.0
 10
35.959
 20
34.3457
 30
0.0
 10
35.9044
 20
34.488
 30
0.0
 10
35.9027
 20
34.6571
 30
0.0
  0
SPLINE
  5
13E
330
1F
100
AcDbEntity
  8
AXIS
 62
   250
100
AcDbSpline
210
0.0
220
0.0
230
1.0
 70
    24
 71
     3
 72
     8
 73
     4
 74
     0
 42
0.0000000001
 43
0.0000000001
 40
0.0
 40
0.0
 40
0.0
 40
0.0
 40
1.0
 40
1.0
 40
1.0
 40
1.0
 10
29.989
 20
34.5903
 30
0.0
 10
29.989
 20
34.5903
 30
0.0
 10
29.7475
 20
31.8303
 30
0.0
 10
29.7475
 20
31.8303
 30
0.0
  0
SPLINE
  5
13F
330
1F
100
AcDbEntity
  8
AXIS
 62
   250
100
AcDbSpline
210
0.0
220
0.0
230
1.0
 70
    24
 71
     3
 72
     8
 73
     4
 74
     0
 42
0.0000000001
 43
0.0000000001
 40
0.0
 40
0.0
 40
0.0
 40
0.0
 40
1.0
 40
1.0
 40
1.0
 40
1.0
 10
26.5573
 20
35.04
 30
0.0
 10
26.5573
 20
35.04
 30
0.0
 10
25.8894
 20
27.4051
 30
0.0
 10
25.8894
 20
27.4051
 30
0.0
  0
SPLINE
  5
140
330
1F
100
AcDbEntity
  8
AXIS
 62
   250
100
AcDbSpline
210
0.0
220
0.0
230
1.0
 70
    24
 71
     3
 72
     8
 73
     4
 74
     0
 42
0.0000000001
 43
0.0000000001
 40
0.0
 40
0.0
 40
0.0
 40
0.0
 40
1.0
 40
1.0
 40
1.0
 40
1.0
 10
22.3308
 20
34.9281
 30
0.0
 10
22.3308
 20
34.9281
 30
0.0
 10
38.79
 20
33.4881
 30
0.0
 10
38.79
 20
33.4881
 30
0.0
  0
SPLINE
  5
141
330
1F
100
AcDbEntity
  8
AXIS
 62
   250
100
AcDbSpline
210
0.0
220
0.0
230
1.0
 70
    11
 71
     3
 72
    20
 73
    16
 74
     0
 42
0.0000000001
 43
0.0000000001
 40
0.0
 40
0.0
 40
0.0
 40
0.0
 40
0.2
 40
0.2
 40
0.2
 40
0.2
 40
0.4
 40
0.4
 40
0.4
 40
0.4
 40
0.6
 40
0.6
 40
0.6
 40
0.6
 40
1.0
 40
1.0
 40
1.0
 40
1.0
 10
23.4637
 20
35.3621
 30
0.0
 10
23.4637
 20
35.3621
 30
0.0
 10
26.4091
 20
34.6074
 30
0.0
 10
26.4091
 20
34.6074
 30
0.0
 10
26.4091
 20
34.6074
 30
0.0
 10
26.4091
 20
34.6074
 30
0.0
 10
26.3995
 20
34.4978
 30
0.0
 10
26.3995
 20
34.4978
 30
0.0
 10
26.3995
 20
34.4978
 30
0.0
 10
26.3995
 20
34.4978
 30
0.0
 10
23.3649
 20
34.2332
 30
0.0
 10
23.3649
 20
34.2332
 30
0.0
 10
23.3649
 20
34.2332
 30
0.0
 10
23.3649
 20
34.2332
 30
0.0
 10
23.4637
 20
35.3621
 30
0.0
 10
23.4637
 20
35.3621
 30
0.0
  0
SPLINE
  5
142
330
1F
100
AcDbEntity
  8
AXIS
 62
   250
100
AcDbSpline
210
0.0
220
0.0
230
1.0
 70
    11
 71
     3
 72
    20
 73
    16
 74
     0
 42
0.0000000001
 43
0.0000000001
 40
0.0
 40
0.0
 40
0.0
 40
0.0
 40
0.2
 40
0.2
 40
0.2
 40
0.2
 40
0.4
 40
0.4
 40
0.4
 40
0.4
 40
0.6
 40
0.6
 40
0.6
 40
0.6
 40
1.0
 40
1.0
 40
1.0
 40
1.0
 10
33.0013
 20
33.4177
 30
0.0
 10
33.0013
 20
33.4177
 30
0.0
 10
30.0559
 20
34.1724
 30
0.0
 10
30.0559
 20
34.1724
 30
0.0
 10
30.0559
 20
34.1724
 30
0.0
 10
30.0559
 20
34.1724
 30
0.0
 10
30.0655
 20
34.282
 30
0.0
 10
30.0655
 20
34.282
 30
0.0
 10
30.0655
 20
34.282
 30
0.0
 10
30.0655
 20
34.282
 30
0.0
 10
33.1001
 20
34.5466
 30
0.0
 10
33.1001
 20
34.5466
 30
0.0
 10
33.1001
 20
34.5466
 30
0.0
 10
33.1001
 20
34.5466
 30
0.0
 10
33.0013
 20
33.4177
 30
0.0
 10
33.0013
 20
33.4177
 30
0.0
  0
ENDSEC
  0
SECTION
  2
OBJECTS
  0
DICTIONARY
  5
C
330
0
100
AcDbDictionary
  3
ACAD_GROUP
350
D
  3
ACAD_LAYOUT
350
1A
  3
ACAD_MATERIAL
350
3B
  3
ACAD_MLEADERSTYLE
350
165
  3
ACAD_MLINESTYLE
350
17
  3
ACAD_PLOTSETTINGS
350
19
  3
ACAD_VISUALSTYLE
350
2A
  3
ACDBHEADERROUNDTRIPXREC
350
143
  3
ACDBVARIABLEDICTIONARY
350
163
  0
DICTIONARY
  5
D
102
{ACAD_REACTORS
330
C
102
}
330
C
100
AcDbDictionary
  0
DICTIONARY
  5
1A
102
{ACAD_REACTORS
330
C
102
}
330
C
100
AcDbDictionary
  0
DICTIONARY
  5
3B
102
{ACAD_REACTORS
330
C
102
}
330
C
100
AcDbDictionary
  3
BYBLOCK
350
3D
  3
BYLAYER
350
3C
  3
GLOBAL
350
3E
  0
DICTIONARY
  5
165
102
{ACAD_REACTORS
330
C
102
}
330
C
100
AcDbDictionary
  0
DICTIONARY
  5
17
102
{ACAD_REACTORS
330
C
102
}
330
C
100
AcDbDictionary
  3
STANDARD
350
18
  0
DICTIONARY
  5
19
102
{ACAD_REACTORS
330
C
102
}
330
C
100
AcDbDictionary
  0
DICTIONARY
  5
2A
102
{ACAD_REACTORS
330
C
102
}
330
C
100
AcDbDictionary
  3
2DWIREFRAME
350
2F
  3
3D_HIDDEN
350
31
  3
3DWIREFRAME
350
30
  3
BASIC
350
32
  3
BRIGHTEN
350
36
  3
COLORCHANGE
350
3A
  3
CONCEPTUAL
350
34
  3
DIM
350
35
  3
FACEPATTERN
350
39
  3
FLAT
350
2B
  3
FLATWITHEDGES
350
2C
  3
GOURAUD
350
2D
  3
GOURAUDWITHEDGES
350
2E
  3
LINEPATTERN
350
38
  3
REALISTIC
350
33
  3
THICKEN
350
37
  0
DICTIONARY
  5
143
102
{ACAD_REACTORS
330
C
102
}
330
C
100
AcDbDictionary
  3
CEPSNTYPE
350
14C
  3
DIMSTYLEDATA
350
162
  3
FINGERPRINTGUID
350
14D
  3
HYPERLINKBASE
350
146
  3
INSUNITS
350
14B
  3
LAYOUTDICT
350
148
  3
LWETCUNION
350
14A
  3
PLOTSETDICT
350
149
  3
PSVPSCALE
350
14F
  3
PUCSBASE
350
152
  3
PUCSORGBACK
350
158
  3
PUCSORGBOTTOM
350
154
  3
PUCSORGFRONT
350
157
  3
PUCSORGLEFT
350
155
  3
PUCSORGRIGHT
350
156
  3
PUCSORGTOP
350
153
  3
PUCSORTHOREF
350
150
  3
PUCSORTHOVIEW
350
151
  3
STYLESHEET
350
147
  3
TSTACKALIGN
350
144
  3
TSTACKSIZE
350
145
  3
UCSBASE
350
15B
  3
UCSORGBACK
350
161
  3
UCSORGBOTTOM
350
15D
  3
UCSORGFRONT
350
160
  3
UCSORGLEFT
350
15E
  3
UCSORGRIGHT
350
15F
  3
UCSORGTOP
350
15C
  3
UCSORTHOREF
350
159
  3
UCSORTHOVIEW
350
15A
  3
VERSIONGUID
350
14E
  0
DICTIONARY
  5
163
102
{ACAD_REACTORS
330
C
102
}
330
C
100
AcDbDictionary
  3
DIMASSOC
350
166
  3
HIDETEXT
350
167
  0
MATERIAL
  5
3D
102
{ACAD_REACTORS
330
3B
102
}
102
{ACAD_XDICTIONARY
360
16A
102
}
330
3B
100
AcDbMaterial
  1
ByBlock
  0
MATERIAL
  5
3C
102
{ACAD_REACTORS
330
3B
102
}
102
{ACAD_XDICTIONARY
360
168
102
}
330
3B
100
AcDbMaterial
  1
ByLayer
  0
MATERIAL
  5
3E
102
{ACAD_REACTORS
330
3B
102
}
102
{ACAD_XDICTIONARY
360
16C
102
}
330
3B
100
AcDbMaterial
  1
Global
  0
MLINESTYLE
  5
18
102
{ACAD_REACTORS
330
17
102
}
330
17
100
AcDbMlineStyle
  2
Standard
 70
     0
  3

 62
   256
 51
90.0
 52
90.0
 71
     2
 49
0.5
 62
   256
  6
BYLAYER
 49
-0.5
 62
   256
  6
BYLAYER
  0
ACAD_PROXY_OBJECT
  5
2F
102
{ACAD_REACTORS
330
2A
102
}
330
2A
100
AcDbProxyObject
 90
      499
 91
      501
 93
      436
310
42CC9915DA5C99599C985B595049028333333333333E3BF0000000000000FB0107901411070040501600405405064090741402480A0340
1001
ACAD
1000
AcDbSavedByObjectVersion
1070
     0
  0
ACAD_PROXY_OBJECT
  5
31
102
{ACAD_REACTORS
330
2A
102
}
330
2A
100
AcDbProxyObject
 90
      499
 91
      501
 93
      500
310
424CD108121A5919195B90640502408333333333333E3BF0000000000000FB01079024090700405020000000000001110200405405064090740C02480A0340
1001
ACAD
1000
AcDbSavedByObjectVersion
1070
     0
  0
ACAD_PROXY_OBJECT
  5
30
102
{ACAD_REACTORS
330
2A
102
}
330
2A
100
AcDbProxyObject
 90
      499
 91
      501
 93
      436
310
42CCD915DA5C99599C985B595059028333333333333E3BF0000000000000FB0107901411070040501600405405064090741402480A0340
1001
ACAD
1000
AcDbSavedByObjectVersion
1070
     0
  0
ACAD_PROXY_OBJECT
  5
32
102
{ACAD_REACTORS
330
2A
102
}
330
2A
100
AcDbProxyObject
 90
      499
 91
      501
 93
      388
310
4150985CDA58D07406404333333333333E3BF0000000000000FB0107A41107004050150841D405064090741402480A0350
1001
ACAD
1000
AcDbSavedByObjectVersion
1070
     0
  0
ACAD_PROXY_OBJECT
  5
36
102
{ACAD_REACTORS
330
2A
102
}
330
2A
100
AcDbProxyObject
 90
      499
 91
      501
 93
      428
310
42109C9A59DA1D195B90C409028333333333333E3BF0000000000000FB010790141107004050150841D405064090741402480A029950
1001
ACAD
1000
AcDbSavedByObjectVersion
1070
     0
  0
ACAD_PROXY_OBJECT
  5
3A
102
{ACAD_REACTORS
330
2A
102
}
330
2A
100
AcDbProxyObject
 90
      499
 91
      501
 93
      452
310
42D0DBDB1BDC90DA185B99D95104090240C333333333333E3BF0000000000000FB0108901411070040501508421405064090741402480A0350
1001
ACAD
1000
AcDbSavedByObjectVersion
1070
     0
  0
ACAD_PROXY_OBJECT
  5
34
102
{ACAD_REACTORS
330
2A
102
}
330
2A
100
AcDbProxyObject
 90
      499
 91
      501
 93
      500
310
4290DBDB98D95C1D1D585B10940D028333333333333E3BF0000000000000FB0107902409070040501000000000000111010841D405064090740C02480A0340
1001
ACAD
1000
AcDbSavedByObjectVersion
1070
     0
  0
ACAD_PROXY_OBJECT
  5
35
102
{ACAD_REACTORS
330
2A
102
}
330
2A
100
AcDbProxyObject
 90
      499
 91
      501
 93
      412
310
40D11A5B50B409028333333333333E3BF0000000000000FB010790141107004050150841D405064090741402480A02677FFFFFD0
1001
ACAD
1000
AcDbSavedByObjectVersion
1070
     0
  0
ACAD_PROXY_OBJECT
  5
39
102
{ACAD_REACTORS
330
2A
102
}
330
2A
100
AcDbProxyObject
 90
      499
 91
      501
 93
      444
310
42D19858D95C185D1D195C9B90F409028333333333333E3BF0000000000000FB010790141107004050150841D405064090741402480A0350
1001
ACAD
1000
AcDbSavedByObjectVersion
1070
     0
  0
ACAD_PROXY_OBJECT
  5
2B
102
{ACAD_REACTORS
330
2A
102
}
330
2A
100
AcDbProxyObject
 90
      499
 91
      501
 93
      388
310
41119B185D240901404333333333333E3BF0000000000000F9010740A41107004050150841D405064090741402480A1B50
1001
ACAD
1000
AcDbSavedByObjectVersion
1070
     0
  0
ACAD_PROXY_OBJECT
  5
2C
102
{ACAD_REACTORS
330
2A
102
}
330
2A
100
AcDbProxyObject
 90
      499
 91
      501
 93
      476
310
43519B185D15DA5D1A115919D95CD0140901404333333333333E3BF0000000000000F9010740901411070040501600405405064090741402480A1B50
1001
ACAD
1000
AcDbSavedByObjectVersion
1070
     0
  0
ACAD_PROXY_OBJECT
  5
2D
102
{ACAD_REACTORS
330
2A
102
}
330
2A
100
AcDbProxyObject
 90
      499
 91
      501
 93
      412
310
41D1DBDD5C985D5910240902404333333333333E3BF0000000000000F9010740A411070040501641D405064090741402480A1B50
1001
ACAD
1000
AcDbSavedByObjectVersion
1070
     0
  0
ACAD_PROXY_OBJECT
  5
2E
102
{ACAD_REACTORS
330
2A
102
}
330
2A
100
AcDbProxyObject
 90
      499
 91
      501
 93
      500
310
4411DBDD5C985D5915DA5D1A115919D95CD0340902404333333333333E3BF0000000000000F9010740901411070040501600405405064090741402480A1B50
1001
ACAD
1000
AcDbSavedByObjectVersion
1070
     0
  0
ACAD_PROXY_OBJECT
  5
38
102
{ACAD_REACTORS
330
2A
102
}
330
2A
100
AcDbProxyObject
 90
      499
 91
      501
 93
      444
310
42D31A5B995C185D1D195C9B90E409028333333333333E3BF0000000000000FB010790141107004050750841D405064090741402483A0350
1001
ACAD
1000
AcDbSavedByObjectVersion
1070
     0
  0
ACAD_PROXY_OBJECT
  5
33
102
{ACAD_REACTORS
330
2A
102
}
330
2A
100
AcDbProxyObject
 90
      499
 91
      501
 93
      420
310
425499585B1A5CDD1A58D08409028333333333333E3BF0000000000000FB01079019070040501508421405064090741402480A1B40
1001
ACAD
1000
AcDbSavedByObjectVersion
1070
     0
  0
ACAD_PROXY_OBJECT
  5
37
102
{ACAD_REACTORS
330
2A
102
}
330
2A
100
AcDbProxyObject
 90
      499
 91
      501
 93
      412
310
41D51A1A58DAD95B90D409028333333333333E3BF0000000000000FB010790141107004050150C41D405064090741402480A0350
1001
ACAD
1000
AcDbSavedByObjectVersion
1070
     0
  0
XRECORD
  5
14C
102
{ACAD_REACTORS
330
143
102
}
330
143
100
AcDbXrecord
 90
        0
  0
XRECORD
  5
162
102
{ACAD_REACTORS
330
143
102
}
330
143
100
AcDbXrecord
1000
DSTYLE
1002
{
1070
   340
340
11
1002
}
  0
XRECORD
  5
14D
102
{ACAD_REACTORS
330
143
102
}
330
143
100
AcDbXrecord
  1
{11B2C1A9-71FE-4761-859B-7A9AD8FFBCB3}
  0
XRECORD
  5
146
102
{ACAD_REACTORS
330
143
102
}
330
143
100
AcDbXrecord
  1

  0
XRECORD
  5
14B
102
{ACAD_REACTORS
330
143
102
}
330
143
100
AcDbXrecord
 90
        4
  0
XRECORD
  5
148
102
{ACAD_REACTORS
330
143
102
}
330
143
100
AcDbXrecord
340
1A
  0
XRECORD
  5
14A
102
{ACAD_REACTORS
330
143
102
}
330
143
100
AcDbXrecord
 90
    10781
  0
XRECORD
  5
149
102
{ACAD_REACTORS
330
143
102
}
330
143
100
AcDbXrecord
340
19
  0
XRECORD
  5
14F
102
{ACAD_REACTORS
330
143
102
}
330
143
100
AcDbXrecord
 40
0.0
  0
XRECORD
  5
152
102
{ACAD_REACTORS
330
143
102
}
330
143
100
AcDbXrecord
340
0
  0
XRECORD
  5
158
102
{ACAD_REACTORS
330
143
102
}
330
143
100
AcDbXrecord
 10
0.0
 20
0.0
 30
0.0
  0
XRECORD
  5
154
102
{ACAD_REACTORS
330
143
102
}
330
143
100
AcDbXrecord
 10
0.0
 20
0.0
 30
0.0
  0
XRECORD
  5
157
102
{ACAD_REACTORS
330
143
102
}
330
143
100
AcDbXrecord
 10
0.0
 20
0.0
 30
0.0
  0
XRECORD
  5
155
102
{ACAD_REACTORS
330
143
102
}
330
143
100
AcDbXrecord
 10
0.0
 20
0.0
 30
0.0
  0
XRECORD
  5
156
102
{ACAD_REACTORS
330
143
102
}
330
143
100
AcDbXrecord
 10
0.0
 20
0.0
 30
0.0
  0
XRECORD
  5
153
102
{ACAD_REACTORS
330
143
102
}
330
143
100
AcDbXrecord
 10
0.0
 20
0.0
 30
0.0
  0
XRECORD
  5
150
102
{ACAD_REACTORS
330
143
102
}
330
143
100
AcDbXrecord
340
0
  0
XRECORD
  5
151
102
{ACAD_REACTORS
330
143
102
}
330
143
100
AcDbXrecord
 70
     0
  0
XRECORD
  5
147
102
{ACAD_REACTORS
330
143
102
}
330
143
100
AcDbXrecord
  1

  0
XRECORD
  5
144
102
{ACAD_REACTORS
330
143
102
}
330
143
100
AcDbXrecord
 90
        1
  0
XRECORD
  5
145
102
{ACAD_REACTORS
330
143
102
}
330
143
100
AcDbXrecord
 90
       70
  0
XRECORD
  5
15B
102
{ACAD_REACTORS
330
143
102
}
330
143
100
AcDbXrecord
340
0
  0
XRECORD
  5
161
102
{ACAD_REACTORS
330
143
102
}
330
143
100
AcDbXrecord
 10
0.0
 20
0.0
 30
0.0
  0
XRECORD
  5
15D
102
{ACAD_REACTORS
330
143
102
}
330
143
100
AcDbXrecord
 10
0.0
 20
0.0
 30
0.0
  0
XRECORD
  5
160
102
{ACAD_REACTORS
330
143
102
}
330
143
100
AcDbXrecord
 10
0.0
 20
0.0
 30
0.0
  0
XRECORD
  5
15E
102
{ACAD_REACTORS
330
143
102
}
330
143
100
AcDbXrecord
 10
0.0
 20
0.0
 30
0.0
  0
XRECORD
  5
15F
102
{ACAD_REACTORS
330
143
102
}
330
143
100
AcDbXrecord
 10
0.0
 20
0.0
 30
0.0
  0
XRECORD
  5
15C
102
{ACAD_REACTORS
330
143
102
}
330
143
100
AcDbXrecord
 10
0.0
 20
0.0
 30
0.0
  0
XRECORD
  5
159
102
{ACAD_REACTORS
330
143
102
}
330
143
100
AcDbXrecord
340
0
  0
XRECORD
  5
15A
102
{ACAD_REACTORS
330
143
102
}
330
143
100
AcDbXrecord
 70
     0
  0
XRECORD
  5
14E
102
{ACAD_REACTORS
330
143
102
}
330
143
100
AcDbXrecord
  1
{FAEB1C32-E019-11D5-929B-00C0DF256EC4}
  0
DICTIONARYVAR
  5
166
102
{ACAD_REACTORS
330
163
102
}
330
163
100
DictionaryVariables
280
     0
  1
2
  0
DICTIONARYVAR
  5
167
102
{ACAD_REACTORS
330
163
102
}
330
163
100
DictionaryVariables
280
     0
  1
1
  0
DICTIONARY
  5
16A
330
3D
100
AcDbDictionary
280
     1
  3
ACAD_XREC_ROUNDTRIP
360
16B
  0
DICTIONARY
  5
168
330
3C
100
AcDbDictionary
280
     1
  3
ACAD_XREC_ROUNDTRIP
360
169
  0
DICTIONARY
  5
16C
330
3E
100
AcDbDictionary
280
     1
  3
ACAD_XREC_ROUNDTRIP
360
16D
  0
XRECORD
  5
16B
102
{ACAD_REACTORS
330
16A
102
}
330
16A
100
AcDbXrecord
102
MATERIAL
148
0.0
149
0.0
149
0.0
 93
        0
 94
      127
282
     0
 72
     1
 77
     1
171
     1
175
     1
179
     1
273
     0
  0
XRECORD
  5
169
102
{ACAD_REACTORS
330
168
102
}
330
168
100
AcDbXrecord
102
MATERIAL
148
0.0
149
0.0
149
0.0
 93
        0
 94
      127
282
     0
 72
     1
 77
     1
171
     1
175
     1
179
     1
273
     0
  0
XRECORD
  5
16D
102
{ACAD_REACTORS
330
16C
102
}
330
16C
100
AcDbXrecord
102
MATERIAL
148
0.0
149
0.0
149
0.0
 93
        0
 94
      127
282
     0
 72
     1
 77
     1
171
     1
175
     1
179
     1
273
     0
  0
ENDSEC
  0
EOF
