  0
SECTION
  2
HEADER
  9
$ACADVER
  1
AC1014
  9
$ACADMAINTVER
 70
     9
  9
$DWGCODEPAGE
  3
ANSI_1250
  9
$INSBASE
 10
0.0
 20
0.0
 30
0.0
  9
$EXTMIN
 10
-58.5003
 20
-39.748
 30
0.0
  9
$EXTMAX
 10
58.6413
 20
39.6071
 30
0.0
  9
$LIMMIN
 10
0.0
 20
0.0
  9
$LIMMAX
 10
12.0
 20
9.0
  9
$ORTHOMODE
 70
     0
  9
$REGENMODE
 70
     1
  9
$FILLMODE
 70
     1
  9
$QTEXTMODE
 70
     0
  9
$MIRRTEXT
 70
     1
  9
$DRAGMODE
 70
     2
  9
$LTSCALE
 40
1.0
  9
$OSMODE
 70
    37
  9
$ATTMODE
 70
     1
  9
$TEXTSIZE
 40
0.2
  9
$TRACEWID
 40
0.05
  9
$TEXTSTYLE
  7
STANDARD
  9
$CLAYER
  8
0
  9
$CELTYPE
  6
BYLAYER
  9
$CECOLOR
 62
   256
  9
$CELTSCALE
 40
1.0
  9
$DELOBJ
 70
     1
  9
$DISPSILH
 70
     0
  9
$DIMSCALE
 40
1.0
  9
$DIMASZ
 40
0.18
  9
$DIMEXO
 40
0.0625
  9
$DIMDLI
 40
0.38
  9
$DIMRND
 40
0.0
  9
$DIMDLE
 40
0.0
  9
$DIMEXE
 40
0.18
  9
$DIMTP
 40
0.0
  9
$DIMTM
 40
0.0
  9
$DIMTXT
 40
0.18
  9
$DIMCEN
 40
0.09
  9
$DIMTSZ
 40
0.0
  9
$DIMTOL
 70
     0
  9
$DIMLIM
 70
     0
  9
$DIMTIH
 70
     1
  9
$DIMTOH
 70
     1
  9
$DIMSE1
 70
     0
  9
$DIMSE2
 70
     0
  9
$DIMTAD
 70
     0
  9
$DIMZIN
 70
     0
  9
$DIMBLK
  1

  9
$DIMASO
 70
     1
  9
$DIMSHO
 70
     1
  9
$DIMPOST
  1

  9
$DIMAPOST
  1

  9
$DIMALT
 70
     0
  9
$DIMALTD
 70
     2
  9
$DIMALTF
 40
25.4
  9
$DIMLFAC
 40
1.0
  9
$DIMTOFL
 70
     0
  9
$DIMTVP
 40
0.0
  9
$DIMTIX
 70
     0
  9
$DIMSOXD
 70
     0
  9
$DIMSAH
 70
     0
  9
$DIMBLK1
  1

  9
$DIMBLK2
  1

  9
$DIMSTYLE
  2
STANDARD
  9
$DIMCLRD
 70
     0
  9
$DIMCLRE
 70
     0
  9
$DIMCLRT
 70
     0
  9
$DIMTFAC
 40
1.0
  9
$DIMGAP
 40
0.09
  9
$DIMJUST
 70
     0
  9
$DIMSD1
 70
     0
  9
$DIMSD2
 70
     0
  9
$DIMTOLJ
 70
     1
  9
$DIMTZIN
 70
     0
  9
$DIMALTZ
 70
     0
  9
$DIMALTTZ
 70
     0
  9
$DIMFIT
 70
     3
  9
$DIMUPT
 70
     0
  9
$DIMUNIT
 70
     2
  9
$DIMDEC
 70
     4
  9
$DIMTDEC
 70
     4
  9
$DIMALTU
 70
     2
  9
$DIMALTTD
 70
     2
  9
$DIMTXSTY
  7
STANDARD
  9
$DIMAUNIT
 70
     0
  9
$LUNITS
 70
     2
  9
$LUPREC
 70
     4
  9
$SKETCHINC
 40
0.1
  9
$FILLETRAD
 40
0.5
  9
$AUNITS
 70
     0
  9
$AUPREC
 70
     0
  9
$MENU
  1
.
  9
$ELEVATION
 40
0.0
  9
$PELEVATION
 40
0.0
  9
$THICKNESS
 40
0.0
  9
$LIMCHECK
 70
     0
  9
$CHAMFERA
 40
0.5
  9
$CHAMFERB
 40
0.5
  9
$CHAMFERC
 40
1.0
  9
$CHAMFERD
 40
0.0
  9
$SKPOLY
 70
     0
  9
$TDCREATE
 40
2456302.618155798
  9
$TDUPDATE
 40
2456302.61815581
  9
$TDINDWG
 40
0.0000000116
  9
$TDUSRTIMER
 40
0.0000000116
  9
$USRTIMER
 70
     1
  9
$ANGBASE
 50
0.0
  9
$ANGDIR
 70
     0
  9
$PDMODE
 70
     0
  9
$PDSIZE
 40
0.0
  9
$PLINEWID
 40
0.0
  9
$COORDS
 70
     1
  9
$SPLFRAME
 70
     0
  9
$SPLINETYPE
 70
     6
  9
$SPLINESEGS
 70
     8
  9
$ATTDIA
 70
     0
  9
$ATTREQ
 70
     1
  9
$HANDLING
 70
     1
  9
$HANDSEED
  5
15B
  9
$SURFTAB1
 70
     6
  9
$SURFTAB2
 70
     6
  9
$SURFTYPE
 70
     6
  9
$SURFU
 70
     6
  9
$SURFV
 70
     6
  9
$UCSNAME
  2

  9
$UCSORG
 10
0.0
 20
0.0
 30
0.0
  9
$UCSXDIR
 10
1.0
 20
0.0
 30
0.0
  9
$UCSYDIR
 10
0.0
 20
1.0
 30
0.0
  9
$PUCSNAME
  2

  9
$PUCSORG
 10
0.0
 20
0.0
 30
0.0
  9
$PUCSXDIR
 10
1.0
 20
0.0
 30
0.0
  9
$PUCSYDIR
 10
0.0
 20
1.0
 30
0.0
  9
$USERI1
 70
     0
  9
$USERI2
 70
     0
  9
$USERI3
 70
     0
  9
$USERI4
 70
     0
  9
$USERI5
 70
     0
  9
$USERR1
 40
0.0
  9
$USERR2
 40
0.0
  9
$USERR3
 40
0.0
  9
$USERR4
 40
0.0
  9
$USERR5
 40
0.0
  9
$WORLDVIEW
 70
     1
  9
$SHADEDGE
 70
     3
  9
$SHADEDIF
 70
    70
  9
$TILEMODE
 70
     1
  9
$MAXACTVP
 70
    64
  9
$PINSBASE
 10
0.0
 20
0.0
 30
0.0
  9
$PLIMCHECK
 70
     0
  9
$PEXTMIN
 10
1.000000000000000E+20
 20
1.000000000000000E+20
 30
1.000000000000000E+20
  9
$PEXTMAX
 10
-1.000000000000000E+20
 20
-1.000000000000000E+20
 30
-1.000000000000000E+20
  9
$PLIMMIN
 10
0.0
 20
0.0
  9
$PLIMMAX
 10
12.0
 20
9.0
  9
$UNITMODE
 70
     0
  9
$VISRETAIN
 70
     1
  9
$PLINEGEN
 70
     0
  9
$PSLTSCALE
 70
     1
  9
$TREEDEPTH
 70
  3020
  9
$PICKSTYLE
 70
     1
  9
$CMLSTYLE
  2
STANDARD
  9
$CMLJUST
 70
     0
  9
$CMLSCALE
 40
1.0
  9
$PROXYGRAPHICS
 70
     1
  9
$MEASUREMENT
 70
     0
  0
ENDSEC
  0
SECTION
  2
CLASSES
  0
CLASS
  1
ACDBDICTIONARYWDFLT
  2
AcDbDictionaryWithDefault
  3
ObjectDBX Classes
 90
        0
280
     0
281
     0
  0
CLASS
  1
VISUALSTYLE
  2
AcDbVisualStyle
  3
ObjectDBX Classes
 90
     4095
280
     0
281
     0
  0
CLASS
  1
MATERIAL
  2
AcDbMaterial
  3
ObjectDBX Classes
 90
     1153
280
     0
281
     0
  0
CLASS
  1
DICTIONARYVAR
  2
AcDbDictionaryVar
  3
ObjectDBX Classes
 90
        0
280
     0
281
     0
  0
CLASS
  1
XRECORD
  2
AcDbXrecord
  3
AutoCAD 2000
 90
        0
280
     0
281
     0
  0
CLASS
  1
LWPOLYLINE
  2
AcDbPolyline
  3
AutoCAD 2000
 90
        0
280
     0
281
     1
  0
CLASS
  1
HATCH
  2
AcDbHatch
  3
AutoCAD 2000
 90
        0
280
     0
281
     1
  0
CLASS
  1
ACDBPLACEHOLDER
  2
AcDbPlaceHolder
  3
ObjectDBX Classes
 90
        0
280
     0
281
     0
  0
CLASS
  1
LAYOUT
  2
AcDbLayout
  3
ObjectDBX Classes
 90
        0
280
     0
281
     0
  0
ENDSEC
  0
SECTION
  2
TABLES
  0
TABLE
  2
VPORT
  5
8
330
0
100
AcDbSymbolTable
 70
     1
  0
VPORT
  5
29
330
8
100
AcDbSymbolTableRecord
100
AcDbViewportTableRecord
  2
*ACTIVE
 70
     0
 10
0.0
 20
0.0
 11
1.0
 21
1.0
 12
10.42990654205607
 22
4.5
 13
0.0
 23
0.0
 14
0.5
 24
0.5
 15
0.5
 25
0.5
 16
0.0
 26
0.0
 36
1.0
 17
0.0
 27
0.0
 37
0.0
 40
9.0
 41
1.972972972850329
 42
50.0
 43
0.0
 44
0.0
 50
0.0
 51
0.0
 71
     0
 72
   100
 73
     1
 74
     3
 75
     0
 76
     0
 77
     0
 78
     0
  0
ENDTAB
  0
TABLE
  2
LTYPE
  5
5
330
0
100
AcDbSymbolTable
 70
     5
  0
LTYPE
  5
14
330
5
100
AcDbSymbolTableRecord
100
AcDbLinetypeTableRecord
  2
BYBLOCK
 70
     0
  3

 72
    65
 73
     0
 40
0.0
  0
LTYPE
  5
15
330
5
100
AcDbSymbolTableRecord
100
AcDbLinetypeTableRecord
  2
BYLAYER
 70
     0
  3

 72
    65
 73
     0
 40
0.0
  0
LTYPE
  5
16
330
5
100
AcDbSymbolTableRecord
100
AcDbLinetypeTableRecord
  2
CONTINUOUS
 70
     0
  3
Solid line
 72
    65
 73
     0
 40
0.0
  0
LTYPE
  5
66
330
5
100
AcDbSymbolTableRecord
100
AcDbLinetypeTableRecord
  2
NEW_LINE1
 70
     0
  3

 72
    65
 73
     4
 40
1.2
 49
0.5
 74
     4
 75
     0
340
0
 46
1.0
 50
0.0
 44
0.0
 45
0.0
 49
-0.3
 74
     4
 75
     0
340
0
 46
1.0
 50
0.0
 44
0.0
 45
0.0
 49
0.1
 74
     4
 75
     0
340
0
 46
1.0
 50
0.0
 44
0.0
 45
0.0
 49
-0.3
 74
     4
 75
     0
340
0
 46
1.0
 50
0.0
 44
0.0
 45
0.0
  0
LTYPE
  5
68
330
5
100
AcDbSymbolTableRecord
100
AcDbLinetypeTableRecord
  2
NEW_LINE2
 70
     0
  3

 72
    65
 73
     4
 40
1.2
 49
0.5
 74
     4
 75
     0
340
0
 46
1.0
 50
0.0
 44
0.0
 45
0.0
 49
-0.3
 74
     4
 75
     0
340
0
 46
1.0
 50
0.0
 44
0.0
 45
0.0
 49
0.1
 74
     4
 75
     0
340
0
 46
1.0
 50
0.0
 44
0.0
 45
0.0
 49
-0.3
 74
     4
 75
     0
340
0
 46
1.0
 50
0.0
 44
0.0
 45
0.0
  0
LTYPE
  5
109
330
5
100
AcDbSymbolTableRecord
100
AcDbLinetypeTableRecord
  2
NEW_LINE3
 70
     0
  3

 72
    65
 73
     4
 40
1.2
 49
0.5
 74
     4
 75
     0
340
0
 46
1.0
 50
0.0
 44
0.0
 45
0.0
 49
-0.3
 74
     4
 75
     0
340
0
 46
1.0
 50
0.0
 44
0.0
 45
0.0
 49
0.1
 74
     4
 75
     0
340
0
 46
1.0
 50
0.0
 44
0.0
 45
0.0
 49
-0.3
 74
     4
 75
     0
340
0
 46
1.0
 50
0.0
 44
0.0
 45
0.0
  0
LTYPE
  5
12F
330
5
100
AcDbSymbolTableRecord
100
AcDbLinetypeTableRecord
  2
NEW_LINE4
 70
     0
  3

 72
    65
 73
     4
 40
1.2
 49
0.5
 74
     4
 75
     0
340
0
 46
1.0
 50
0.0
 44
0.0
 45
0.0
 49
-0.3
 74
     4
 75
     0
340
0
 46
1.0
 50
0.0
 44
0.0
 45
0.0
 49
0.1
 74
     4
 75
     0
340
0
 46
1.0
 50
0.0
 44
0.0
 45
0.0
 49
-0.3
 74
     4
 75
     0
340
0
 46
1.0
 50
0.0
 44
0.0
 45
0.0
  0
ENDTAB
  0
TABLE
  2
LAYER
  5
2
330
0
100
AcDbSymbolTable
 70
     2
  0
LAYER
  5
10
330
2
100
AcDbSymbolTableRecord
100
AcDbLayerTableRecord
  2
0
 70
     0
 62
     7
  6
CONTINUOUS
  0
LAYER
  5
40
330
2
100
AcDbSymbolTableRecord
100
AcDbLayerTableRecord
  2
VRSTVA_1
 70
     0
 62
     7
  6
CONTINUOUS
  0
ENDTAB
  0
TABLE
  2
STYLE
  5
3
330
0
100
AcDbSymbolTable
 70
     1
  0
STYLE
  5
11
330
3
100
AcDbSymbolTableRecord
100
AcDbTextStyleTableRecord
  2
STANDARD
 70
     0
 40
0.0
 41
1.0
 50
0.0
 71
     0
 42
0.2
  3
txt
  4

  0
ENDTAB
  0
TABLE
  2
VIEW
  5
6
330
0
100
AcDbSymbolTable
 70
     0
  0
ENDTAB
  0
TABLE
  2
UCS
  5
7
330
0
100
AcDbSymbolTable
 70
     0
  0
ENDTAB
  0
TABLE
  2
APPID
  5
9
330
0
100
AcDbSymbolTable
 70
     2
  0
APPID
  5
12
330
9
100
AcDbSymbolTableRecord
100
AcDbRegAppTableRecord
  2
ACAD
 70
     0
  0
APPID
  5
3F
330
9
100
AcDbSymbolTableRecord
100
AcDbRegAppTableRecord
  2
ODA
 70
     0
  0
ENDTAB
  0
TABLE
  2
DIMSTYLE
  5
A
330
0
100
AcDbSymbolTable
 70
     1
  0
DIMSTYLE
105
27
330
A
100
AcDbSymbolTableRecord
100
AcDbDimStyleTableRecord
  2
STANDARD
 70
     0
  3

  4

  5

  6

  7

 40
1.0
 41
0.18
 42
0.0625
 43
0.38
 44
0.18
 45
0.0
 46
0.0
 47
0.0
 48
0.0
140
0.18
141
0.09
142
0.0
143
25.4
144
1.0
145
0.0
146
1.0
147
0.09
 71
     0
 72
     0
 73
     1
 74
     1
 75
     0
 76
     0
 77
     0
 78
     0
170
     0
171
     2
172
     0
173
     0
174
     0
175
     0
176
     0
177
     0
178
     0
270
     2
271
     4
272
     4
273
     2
274
     2
340
11
275
     0
280
     0
281
     0
282
     0
283
     1
284
     0
285
     0
286
     0
287
     3
288
     0
  0
ENDTAB
  0
TABLE
  2
BLOCK_RECORD
  5
1
330
0
100
AcDbSymbolTable
 70
     1
  0
BLOCK_RECORD
  5
1F
330
1
100
AcDbSymbolTableRecord
100
AcDbBlockTableRecord
  2
*MODEL_SPACE
  0
BLOCK_RECORD
  5
1B
330
1
100
AcDbSymbolTableRecord
100
AcDbBlockTableRecord
  2
*PAPER_SPACE
  0
ENDTAB
  0
ENDSEC
  0
SECTION
  2
BLOCKS
  0
BLOCK
  5
20
330
1F
100
AcDbEntity
  8
0
100
AcDbBlockBegin
  2
*MODEL_SPACE
 70
     0
 10
0.0
 20
0.0
 30
0.0
  3
*MODEL_SPACE
  1

  0
ENDBLK
  5
21
330
1F
100
AcDbEntity
  8
0
100
AcDbBlockEnd
  0
BLOCK
  5
1C
330
1B
100
AcDbEntity
 67
     1
  8
0
100
AcDbBlockBegin
  2
*PAPER_SPACE
 70
     0
 10
0.0
 20
0.0
 30
0.0
  3
*PAPER_SPACE
  1

  0
ENDBLK
  5
1D
330
1B
100
AcDbEntity
 67
     1
  8
0
100
AcDbBlockEnd
  0
ENDSEC
  0
SECTION
  2
ENTITIES
  0
SPLINE
  5
41
330
1F
100
AcDbEntity
  8
VRSTVA_1
 62
   250
100
AcDbSpline
210
0.0
220
0.0
230
1.0
 70
     8
 71
     3
 72
     8
 73
     4
 74
     0
 42
0.0000000001
 43
0.0000000001
 40
0.0
 40
0.0
 40
0.0
 40
0.0
 40
1.0
 40
1.0
 40
1.0
 40
1.0
 10
-7.8947
 20
30.3092
 30
0.0
 10
-7.9098
 20
30.4881
 30
0.0
 10
-8.0418
 20
30.6435
 30
0.0
 10
-8.2157
 20
30.687
 30
0.0
  0
SPLINE
  5
42
330
1F
100
AcDbEntity
  8
VRSTVA_1
 62
   250
100
AcDbSpline
210
0.0
220
0.0
230
1.0
 70
     8
 71
     3
 72
     8
 73
     4
 74
     0
 42
0.0000000001
 43
0.0000000001
 40
0.0
 40
0.0
 40
0.0
 40
0.0
 40
1.0
 40
1.0
 40
1.0
 40
1.0
 10
-7.8947
 20
30.3092
 30
0.0
 10
-7.9098
 20
30.4881
 30
0.0
 10
-8.0418
 20
30.6435
 30
0.0
 10
-8.2157
 20
30.687
 30
0.0
  0
SPLINE
  5
43
330
1F
100
AcDbEntity
  8
VRSTVA_1
 62
   250
100
AcDbSpline
210
0.0
220
0.0
230
1.0
 70
     8
 71
     3
 72
     8
 73
     4
 74
     0
 42
0.0000000001
 43
0.0000000001
 40
0.0
 40
0.0
 40
0.0
 40
0.0
 40
1.0
 40
1.0
 40
1.0
 40
1.0
 10
-46.1389
 20
30.687
 30
0.0
 10
-46.3127
 20
30.6435
 30
0.0
 10
-46.4448
 20
30.4881
 30
0.0
 10
-46.4598
 20
30.3092
 30
0.0
  0
SPLINE
  5
44
330
1F
100
AcDbEntity
  8
VRSTVA_1
 62
   250
100
AcDbSpline
210
0.0
220
0.0
230
1.0
 70
     8
 71
     3
 72
     8
 73
     4
 74
     0
 42
0.0000000001
 43
0.0000000001
 40
0.0
 40
0.0
 40
0.0
 40
0.0
 40
1.0
 40
1.0
 40
1.0
 40
1.0
 10
-46.1389
 20
30.687
 30
0.0
 10
-46.3127
 20
30.6435
 30
0.0
 10
-46.4448
 20
30.4881
 30
0.0
 10
-46.4598
 20
30.3092
 30
0.0
  0
SPLINE
  5
45
330
1F
100
AcDbEntity
  8
VRSTVA_1
 62
   250
100
AcDbSpline
210
0.0
220
0.0
230
1.0
 70
     8
 71
     3
 72
     8
 73
     4
 74
     0
 42
0.0000000001
 43
0.0000000001
 40
0.0
 40
0.0
 40
0.0
 40
0.0
 40
1.0
 40
1.0
 40
1.0
 40
1.0
 10
-8.222
 20
30.6506
 30
0.0
 10
-13.3369
 20
31.8541
 30
0.0
 10
-19.6553
 20
33.0576
 30
0.0
 10
-25.0711
 20
33.0576
 30
0.0
  0
SPLINE
  5
46
330
1F
100
AcDbEntity
  8
VRSTVA_1
 62
   250
100
AcDbSpline
210
0.0
220
0.0
230
1.0
 70
     8
 71
     3
 72
     8
 73
     4
 74
     0
 42
0.0000000001
 43
0.0000000001
 40
0.0
 40
0.0
 40
0.0
 40
0.0
 40
1.0
 40
1.0
 40
1.0
 40
1.0
 10
-8.222
 20
30.6506
 30
0.0
 10
-13.3369
 20
31.8541
 30
0.0
 10
-19.6553
 20
33.0576
 30
0.0
 10
-25.0711
 20
33.0576
 30
0.0
  0
SPLINE
  5
47
330
1F
100
AcDbEntity
  8
VRSTVA_1
 62
   250
100
AcDbSpline
210
0.0
220
0.0
230
1.0
 70
     8
 71
     3
 72
     8
 73
     4
 74
     0
 42
0.0000000001
 43
0.0000000001
 40
0.0
 40
0.0
 40
0.0
 40
0.0
 40
1.0
 40
1.0
 40
1.0
 40
1.0
 10
-29.2834
 20
33.0576
 30
0.0
 10
-34.6992
 20
33.0576
 30
0.0
 10
-41.0176
 20
31.8541
 30
0.0
 10
-46.1326
 20
30.6506
 30
0.0
  0
SPLINE
  5
48
330
1F
100
AcDbEntity
  8
VRSTVA_1
 62
   250
100
AcDbSpline
210
0.0
220
0.0
230
1.0
 70
     8
 71
     3
 72
     8
 73
     4
 74
     0
 42
0.0000000001
 43
0.0000000001
 40
0.0
 40
0.0
 40
0.0
 40
0.0
 40
1.0
 40
1.0
 40
1.0
 40
1.0
 10
-29.2834
 20
33.0576
 30
0.0
 10
-34.6992
 20
33.0576
 30
0.0
 10
-41.0176
 20
31.8541
 30
0.0
 10
-46.1326
 20
30.6506
 30
0.0
  0
SPLINE
  5
49
330
1F
100
AcDbEntity
  8
VRSTVA_1
 62
   250
100
AcDbSpline
210
0.0
220
0.0
230
1.0
 70
    24
 71
     3
 72
     8
 73
     4
 74
     0
 42
0.0000000001
 43
0.0000000001
 40
0.0
 40
0.0
 40
0.0
 40
0.0
 40
1.0
 40
1.0
 40
1.0
 40
1.0
 10
-46.4599
 20
30.3097
 30
0.0
 10
-46.4599
 20
30.3097
 30
0.0
 10
-46.5523
 20
29.2538
 30
0.0
 10
-46.5523
 20
29.2538
 30
0.0
  0
SPLINE
  5
4A
330
1F
100
AcDbEntity
  8
VRSTVA_1
 62
   250
100
AcDbSpline
210
0.0
220
0.0
230
1.0
 70
    24
 71
     3
 72
     8
 73
     4
 74
     0
 42
0.0000000001
 43
0.0000000001
 40
0.0
 40
0.0
 40
0.0
 40
0.0
 40
1.0
 40
1.0
 40
1.0
 40
1.0
 10
-29.3288
 20
33.0276
 30
0.0
 10
-29.3288
 20
33.0276
 30
0.0
 10
-25.0258
 20
33.0276
 30
0.0
 10
-25.0258
 20
33.0276
 30
0.0
  0
SPLINE
  5
4B
330
1F
100
AcDbEntity
  8
VRSTVA_1
 62
   250
100
AcDbSpline
210
0.0
220
0.0
230
1.0
 70
    24
 71
     3
 72
     8
 73
     4
 74
     0
 42
0.0000000001
 43
0.0000000001
 40
0.0
 40
0.0
 40
0.0
 40
0.0
 40
1.0
 40
1.0
 40
1.0
 40
1.0
 10
-8.2156
 20
30.6872
 30
0.0
 10
-8.2156
 20
30.6872
 30
0.0
 10
-46.1389
 20
30.6872
 30
0.0
 10
-46.1389
 20
30.6872
 30
0.0
  0
SPLINE
  5
4C
330
1F
100
AcDbEntity
  8
VRSTVA_1
 62
   250
100
AcDbSpline
210
0.0
220
0.0
230
1.0
 70
    24
 71
     3
 72
     8
 73
     4
 74
     0
 42
0.0000000001
 43
0.0000000001
 40
0.0
 40
0.0
 40
0.0
 40
0.0
 40
1.0
 40
1.0
 40
1.0
 40
1.0
 10
-7.8947
 20
30.3097
 30
0.0
 10
-7.8947
 20
30.3097
 30
0.0
 10
-46.4599
 20
30.3097
 30
0.0
 10
-46.4599
 20
30.3097
 30
0.0
  0
SPLINE
  5
4D
330
1F
100
AcDbEntity
  8
VRSTVA_1
 62
   250
100
AcDbSpline
210
0.0
220
0.0
230
1.0
 70
    24
 71
     3
 72
     8
 73
     4
 74
     0
 42
0.0000000001
 43
0.0000000001
 40
0.0
 40
0.0
 40
0.0
 40
0.0
 40
1.0
 40
1.0
 40
1.0
 40
1.0
 10
-7.8023
 20
29.2538
 30
0.0
 10
-7.8023
 20
29.2538
 30
0.0
 10
-46.5523
 20
29.2538
 30
0.0
 10
-46.5523
 20
29.2538
 30
0.0
  0
SPLINE
  5
4E
330
1F
100
AcDbEntity
  8
VRSTVA_1
 62
   250
100
AcDbSpline
210
0.0
220
0.0
230
1.0
 70
    24
 71
     3
 72
     8
 73
     4
 74
     0
 42
0.0000000001
 43
0.0000000001
 40
0.0
 40
0.0
 40
0.0
 40
0.0
 40
1.0
 40
1.0
 40
1.0
 40
1.0
 10
-40.3452
 20
29.2538
 30
0.0
 10
-40.3452
 20
29.2538
 30
0.0
 10
-40.2287
 20
27.9226
 30
0.0
 10
-40.2287
 20
27.9226
 30
0.0
  0
SPLINE
  5
4F
330
1F
100
AcDbEntity
  8
VRSTVA_1
 62
   250
100
AcDbSpline
210
0.0
220
0.0
230
1.0
 70
    24
 71
     3
 72
     8
 73
     4
 74
     0
 42
0.0000000001
 43
0.0000000001
 40
0.0
 40
0.0
 40
0.0
 40
0.0
 40
1.0
 40
1.0
 40
1.0
 40
1.0
 10
-40.3382
 20
29.2538
 30
0.0
 10
-40.3382
 20
29.2538
 30
0.0
 10
-40.2217
 20
27.9226
 30
0.0
 10
-40.2217
 20
27.9226
 30
0.0
  0
SPLINE
  5
50
330
1F
100
AcDbEntity
  8
VRSTVA_1
 62
   250
100
AcDbSpline
210
0.0
220
0.0
230
1.0
 70
    24
 71
     3
 72
     8
 73
     4
 74
     0
 42
0.0000000001
 43
0.0000000001
 40
0.0
 40
0.0
 40
0.0
 40
0.0
 40
1.0
 40
1.0
 40
1.0
 40
1.0
 10
-38.7889
 20
29.2538
 30
0.0
 10
-38.7889
 20
29.2538
 30
0.0
 10
-38.688
 20
27.9226
 30
0.0
 10
-38.688
 20
27.9226
 30
0.0
  0
SPLINE
  5
51
330
1F
100
AcDbEntity
  8
VRSTVA_1
 62
   250
100
AcDbSpline
210
0.0
220
0.0
230
1.0
 70
    24
 71
     3
 72
     8
 73
     4
 74
     0
 42
0.0000000001
 43
0.0000000001
 40
0.0
 40
0.0
 40
0.0
 40
0.0
 40
1.0
 40
1.0
 40
1.0
 40
1.0
 10
-38.361
 20
29.2538
 30
0.0
 10
-38.361
 20
29.2538
 30
0.0
 10
-38.2601
 20
27.9226
 30
0.0
 10
-38.2601
 20
27.9226
 30
0.0
  0
SPLINE
  5
52
330
1F
100
AcDbEntity
  8
VRSTVA_1
 62
   250
100
AcDbSpline
210
0.0
220
0.0
230
1.0
 70
    24
 71
     3
 72
     8
 73
     4
 74
     0
 42
0.0000000001
 43
0.0000000001
 40
0.0
 40
0.0
 40
0.0
 40
0.0
 40
1.0
 40
1.0
 40
1.0
 40
1.0
 10
-35.3553
 20
27.9226
 30
0.0
 10
-35.3553
 20
27.9226
 30
0.0
 10
-35.2543
 20
29.2538
 30
0.0
 10
-35.2543
 20
29.2538
 30
0.0
  0
SPLINE
  5
53
330
1F
100
AcDbEntity
  8
VRSTVA_1
 62
   250
100
AcDbSpline
210
0.0
220
0.0
230
1.0
 70
    24
 71
     3
 72
     8
 73
     4
 74
     0
 42
0.0000000001
 43
0.0000000001
 40
0.0
 40
0.0
 40
0.0
 40
0.0
 40
1.0
 40
1.0
 40
1.0
 40
1.0
 10
-34.1283
 20
29.2538
 30
0.0
 10
-34.1283
 20
29.2538
 30
0.0
 10
-34.0701
 20
27.9226
 30
0.0
 10
-34.0701
 20
27.9226
 30
0.0
  0
SPLINE
  5
54
330
1F
100
AcDbEntity
  8
VRSTVA_1
 62
   250
100
AcDbSpline
210
0.0
220
0.0
230
1.0
 70
    24
 71
     3
 72
     8
 73
     4
 74
     0
 42
0.0000000001
 43
0.0000000001
 40
0.0
 40
0.0
 40
0.0
 40
0.0
 40
1.0
 40
1.0
 40
1.0
 40
1.0
 10
-33.3871
 20
29.2538
 30
0.0
 10
-33.3871
 20
29.2538
 30
0.0
 10
-33.3289
 20
27.9226
 30
0.0
 10
-33.3289
 20
27.9226
 30
0.0
  0
SPLINE
  5
55
330
1F
100
AcDbEntity
  8
VRSTVA_1
 62
   250
100
AcDbSpline
210
0.0
220
0.0
230
1.0
 70
    24
 71
     3
 72
     8
 73
     4
 74
     0
 42
0.0000000001
 43
0.0000000001
 40
0.0
 40
0.0
 40
0.0
 40
0.0
 40
1.0
 40
1.0
 40
1.0
 40
1.0
 10
-34.7271
 20
27.9226
 30
0.0
 10
-34.7271
 20
27.9226
 30
0.0
 10
-34.7558
 20
29.2538
 30
0.0
 10
-34.7558
 20
29.2538
 30
0.0
  0
SPLINE
  5
56
330
1F
100
AcDbEntity
  8
VRSTVA_1
 62
   250
100
AcDbSpline
210
0.0
220
0.0
230
1.0
 70
    24
 71
     3
 72
     8
 73
     4
 74
     0
 42
0.0000000001
 43
0.0000000001
 40
0.0
 40
0.0
 40
0.0
 40
0.0
 40
1.0
 40
1.0
 40
1.0
 40
1.0
 10
-30.1596
 20
29.2538
 30
0.0
 10
-30.1596
 20
29.2538
 30
0.0
 10
-30.218
 20
27.9226
 30
0.0
 10
-30.218
 20
27.9226
 30
0.0
  0
SPLINE
  5
57
330
1F
100
AcDbEntity
  8
VRSTVA_1
 62
   250
100
AcDbSpline
210
0.0
220
0.0
230
1.0
 70
    24
 71
     3
 72
     8
 73
     4
 74
     0
 42
0.0000000001
 43
0.0000000001
 40
0.0
 40
0.0
 40
0.0
 40
0.0
 40
1.0
 40
1.0
 40
1.0
 40
1.0
 10
-28.19
 20
27.9226
 30
0.0
 10
-28.19
 20
27.9226
 30
0.0
 10
-28.2177
 20
29.2538
 30
0.0
 10
-28.2177
 20
29.2538
 30
0.0
  0
SPLINE
  5
58
330
1F
100
AcDbEntity
  8
VRSTVA_1
 62
   250
100
AcDbSpline
210
0.0
220
0.0
230
1.0
 70
    24
 71
     3
 72
     8
 73
     4
 74
     0
 42
0.0000000001
 43
0.0000000001
 40
0.0
 40
0.0
 40
0.0
 40
0.0
 40
1.0
 40
1.0
 40
1.0
 40
1.0
 10
-27.6052
 20
29.2538
 30
0.0
 10
-27.6052
 20
29.2538
 30
0.0
 10
-27.6052
 20
27.9226
 30
0.0
 10
-27.6052
 20
27.9226
 30
0.0
  0
SPLINE
  5
59
330
1F
100
AcDbEntity
  8
VRSTVA_1
 62
   250
100
AcDbSpline
210
0.0
220
0.0
230
1.0
 70
    24
 71
     3
 72
     8
 73
     4
 74
     0
 42
0.0000000001
 43
0.0000000001
 40
0.0
 40
0.0
 40
0.0
 40
0.0
 40
1.0
 40
1.0
 40
1.0
 40
1.0
 10
-26.7493
 20
29.2538
 30
0.0
 10
-26.7493
 20
29.2538
 30
0.0
 10
-26.7493
 20
27.9226
 30
0.0
 10
-26.7493
 20
27.9226
 30
0.0
  0
SPLINE
  5
5A
330
1F
100
AcDbEntity
  8
VRSTVA_1
 62
   250
100
AcDbSpline
210
0.0
220
0.0
230
1.0
 70
    24
 71
     3
 72
     8
 73
     4
 74
     0
 42
0.0000000001
 43
0.0000000001
 40
0.0
 40
0.0
 40
0.0
 40
0.0
 40
1.0
 40
1.0
 40
1.0
 40
1.0
 10
-26.1289
 20
27.9226
 30
0.0
 10
-26.1289
 20
27.9226
 30
0.0
 10
-26.0956
 20
29.2538
 30
0.0
 10
-26.0956
 20
29.2538
 30
0.0
  0
SPLINE
  5
5B
330
1F
100
AcDbEntity
  8
VRSTVA_1
 62
   250
100
AcDbSpline
210
0.0
220
0.0
230
1.0
 70
    24
 71
     3
 72
     8
 73
     4
 74
     0
 42
0.0000000001
 43
0.0000000001
 40
0.0
 40
0.0
 40
0.0
 40
0.0
 40
1.0
 40
1.0
 40
1.0
 40
1.0
 10
-24.1949
 20
29.2538
 30
0.0
 10
-24.1949
 20
29.2538
 30
0.0
 10
-24.1366
 20
27.9226
 30
0.0
 10
-24.1366
 20
27.9226
 30
0.0
  0
SPLINE
  5
5C
330
1F
100
AcDbEntity
  8
VRSTVA_1
 62
   250
100
AcDbSpline
210
0.0
220
0.0
230
1.0
 70
    24
 71
     3
 72
     8
 73
     4
 74
     0
 42
0.0000000001
 43
0.0000000001
 40
0.0
 40
0.0
 40
0.0
 40
0.0
 40
1.0
 40
1.0
 40
1.0
 40
1.0
 10
-20.9674
 20
29.2538
 30
0.0
 10
-20.9674
 20
29.2538
 30
0.0
 10
-21.0257
 20
27.9226
 30
0.0
 10
-21.0257
 20
27.9226
 30
0.0
  0
SPLINE
  5
5D
330
1F
100
AcDbEntity
  8
VRSTVA_1
 62
   250
100
AcDbSpline
210
0.0
220
0.0
230
1.0
 70
    24
 71
     3
 72
     8
 73
     4
 74
     0
 42
0.0000000001
 43
0.0000000001
 40
0.0
 40
0.0
 40
0.0
 40
0.0
 40
1.0
 40
1.0
 40
1.0
 40
1.0
 10
-20.2262
 20
29.2538
 30
0.0
 10
-20.2262
 20
29.2538
 30
0.0
 10
-20.2845
 20
27.9226
 30
0.0
 10
-20.2845
 20
27.9226
 30
0.0
  0
SPLINE
  5
5E
330
1F
100
AcDbEntity
  8
VRSTVA_1
 62
   250
100
AcDbSpline
210
0.0
220
0.0
230
1.0
 70
    24
 71
     3
 72
     8
 73
     4
 74
     0
 42
0.0000000001
 43
0.0000000001
 40
0.0
 40
0.0
 40
0.0
 40
0.0
 40
1.0
 40
1.0
 40
1.0
 40
1.0
 10
-19.6807
 20
27.9226
 30
0.0
 10
-19.6807
 20
27.9226
 30
0.0
 10
-19.6603
 20
29.2538
 30
0.0
 10
-19.6603
 20
29.2538
 30
0.0
  0
SPLINE
  5
5F
330
1F
100
AcDbEntity
  8
VRSTVA_1
 62
   250
100
AcDbSpline
210
0.0
220
0.0
230
1.0
 70
    24
 71
     3
 72
     8
 73
     4
 74
     0
 42
0.0000000001
 43
0.0000000001
 40
0.0
 40
0.0
 40
0.0
 40
0.0
 40
1.0
 40
1.0
 40
1.0
 40
1.0
 10
-19.1002
 20
29.2538
 30
0.0
 10
-19.1002
 20
29.2538
 30
0.0
 10
-18.9992
 20
27.9226
 30
0.0
 10
-18.9992
 20
27.9226
 30
0.0
  0
SPLINE
  5
60
330
1F
100
AcDbEntity
  8
VRSTVA_1
 62
   250
100
AcDbSpline
210
0.0
220
0.0
230
1.0
 70
    24
 71
     3
 72
     8
 73
     4
 74
     0
 42
0.0000000001
 43
0.0000000001
 40
0.0
 40
0.0
 40
0.0
 40
0.0
 40
1.0
 40
1.0
 40
1.0
 40
1.0
 10
-15.9936
 20
29.2538
 30
0.0
 10
-15.9936
 20
29.2538
 30
0.0
 10
-16.0945
 20
27.9226
 30
0.0
 10
-16.0945
 20
27.9226
 30
0.0
  0
SPLINE
  5
61
330
1F
100
AcDbEntity
  8
VRSTVA_1
 62
   250
100
AcDbSpline
210
0.0
220
0.0
230
1.0
 70
    24
 71
     3
 72
     8
 73
     4
 74
     0
 42
0.0000000001
 43
0.0000000001
 40
0.0
 40
0.0
 40
0.0
 40
0.0
 40
1.0
 40
1.0
 40
1.0
 40
1.0
 10
-15.5656
 20
29.2538
 30
0.0
 10
-15.5656
 20
29.2538
 30
0.0
 10
-15.6666
 20
27.9226
 30
0.0
 10
-15.6666
 20
27.9226
 30
0.0
  0
SPLINE
  5
62
330
1F
100
AcDbEntity
  8
VRSTVA_1
 62
   250
100
AcDbSpline
210
0.0
220
0.0
230
1.0
 70
    24
 71
     3
 72
     8
 73
     4
 74
     0
 42
0.0000000001
 43
0.0000000001
 40
0.0
 40
0.0
 40
0.0
 40
0.0
 40
1.0
 40
1.0
 40
1.0
 40
1.0
 10
-14.0164
 20
29.2538
 30
0.0
 10
-14.0164
 20
29.2538
 30
0.0
 10
-14.1329
 20
27.9226
 30
0.0
 10
-14.1329
 20
27.9226
 30
0.0
  0
SPLINE
  5
63
330
1F
100
AcDbEntity
  8
VRSTVA_1
 62
   250
100
AcDbSpline
210
0.0
220
0.0
230
1.0
 70
    24
 71
     3
 72
     8
 73
     4
 74
     0
 42
0.0000000001
 43
0.0000000001
 40
0.0
 40
0.0
 40
0.0
 40
0.0
 40
1.0
 40
1.0
 40
1.0
 40
1.0
 10
-14.0094
 20
29.2538
 30
0.0
 10
-14.0094
 20
29.2538
 30
0.0
 10
-14.1259
 20
27.9226
 30
0.0
 10
-14.1259
 20
27.9226
 30
0.0
  0
SPLINE
  5
64
330
1F
100
AcDbEntity
  8
VRSTVA_1
 62
   250
100
AcDbSpline
210
0.0
220
0.0
230
1.0
 70
    24
 71
     3
 72
     8
 73
     4
 74
     0
 42
0.0000000001
 43
0.0000000001
 40
0.0
 40
0.0
 40
0.0
 40
0.0
 40
1.0
 40
1.0
 40
1.0
 40
1.0
 10
-7.8947
 20
30.3097
 30
0.0
 10
-7.8947
 20
30.3097
 30
0.0
 10
-7.8023
 20
29.2538
 30
0.0
 10
-7.8023
 20
29.2538
 30
0.0
  0
SPLINE
  5
65
330
1F
100
AcDbEntity
  8
VRSTVA_1
  6
NEW_LINE1
 62
   250
100
AcDbSpline
210
0.0
220
0.0
230
1.0
 70
    24
 71
     3
 72
     8
 73
     4
 74
     0
 42
0.0000000001
 43
0.0000000001
 40
0.0
 40
0.0
 40
0.0
 40
0.0
 40
1.0
 40
1.0
 40
1.0
 40
1.0
 10
-30.1305
 20
3.8121
 30
0.0
 10
-30.1305
 20
3.8121
 30
0.0
 10
3.9818
 20
3.8121
 30
0.0
 10
3.9818
 20
3.8121
 30
0.0
  0
SPLINE
  5
67
330
1F
100
AcDbEntity
  8
VRSTVA_1
  6
NEW_LINE2
 62
   250
100
AcDbSpline
210
0.0
220
0.0
230
1.0
 70
    24
 71
     3
 72
     8
 73
     4
 74
     0
 42
0.0000000001
 43
0.0000000001
 40
0.0
 40
0.0
 40
0.0
 40
0.0
 40
1.0
 40
1.0
 40
1.0
 40
1.0
 10
-27.2282
 20
-4.1286
 30
0.0
 10
-27.2282
 20
-4.1286
 30
0.0
 10
-27.2282
 20
34.081
 30
0.0
 10
-27.2282
 20
34.081
 30
0.0
  0
SPLINE
  5
69
330
1F
100
AcDbEntity
  8
VRSTVA_1
 62
   250
100
AcDbSpline
210
0.0
220
0.0
230
1.0
 70
    24
 71
     3
 72
     8
 73
     4
 74
     0
 42
0.0000000001
 43
0.0000000001
 40
0.0
 40
0.0
 40
0.0
 40
0.0
 40
1.0
 40
1.0
 40
1.0
 40
1.0
 10
-7.6791
 20
30.5358
 30
0.0
 10
-7.6791
 20
30.5358
 30
0.0
 10
-7.6791
 20
37.5503
 30
0.0
 10
-7.6791
 20
37.5503
 30
0.0
  0
SPLINE
  5
6A
330
1F
100
AcDbEntity
  8
VRSTVA_1
 62
   250
100
AcDbSpline
210
0.0
220
0.0
230
1.0
 70
    24
 71
     3
 72
     8
 73
     4
 74
     0
 42
0.0000000001
 43
0.0000000001
 40
0.0
 40
0.0
 40
0.0
 40
0.0
 40
1.0
 40
1.0
 40
1.0
 40
1.0
 10
-46.7171
 20
30.6599
 30
0.0
 10
-46.7171
 20
30.6599
 30
0.0
 10
-46.7171
 20
37.354
 30
0.0
 10
-46.7171
 20
37.354
 30
0.0
  0
SPLINE
  5
6B
330
1F
100
AcDbEntity
  8
VRSTVA_1
 62
   250
100
AcDbSpline
210
0.0
220
0.0
230
1.0
 70
    24
 71
     3
 72
     8
 73
     4
 74
     0
 42
0.0000000001
 43
0.0000000001
 40
0.0
 40
0.0
 40
0.0
 40
0.0
 40
1.0
 40
1.0
 40
1.0
 40
1.0
 10
-46.1675
 20
19.2954
 30
0.0
 10
-46.1675
 20
19.2954
 30
0.0
 10
-56.7508
 20
19.2954
 30
0.0
 10
-56.7508
 20
19.2954
 30
0.0
  0
SPLINE
  5
6C
330
1F
100
AcDbEntity
  8
VRSTVA_1
 62
   250
100
AcDbSpline
210
0.0
220
0.0
230
1.0
 70
    24
 71
     3
 72
     8
 73
     4
 74
     0
 42
0.0000000001
 43
0.0000000001
 40
0.0
 40
0.0
 40
0.0
 40
0.0
 40
1.0
 40
1.0
 40
1.0
 40
1.0
 10
-43.7906
 20
-8.7464
 30
0.0
 10
-43.7906
 20
-8.7464
 30
0.0
 10
-56.4888
 20
-8.7464
 30
0.0
 10
-56.4888
 20
-8.7464
 30
0.0
  0
SPLINE
  5
6D
330
1F
100
AcDbEntity
  8
VRSTVA_1
 62
   250
100
AcDbSpline
210
0.0
220
0.0
230
1.0
 70
    24
 71
     3
 72
     8
 73
     4
 74
     0
 42
0.0000000001
 43
0.0000000001
 40
0.0
 40
0.0
 40
0.0
 40
0.0
 40
1.0
 40
1.0
 40
1.0
 40
1.0
 10
-17.2154
 20
20.1365
 30
0.0
 10
-17.2154
 20
20.1365
 30
0.0
 10
-37.1927
 20
19.3997
 30
0.0
 10
-37.1927
 20
19.3997
 30
0.0
  0
SPLINE
  5
6E
330
1F
100
AcDbEntity
  8
VRSTVA_1
 62
   250
100
AcDbSpline
210
0.0
220
0.0
230
1.0
 70
    24
 71
     3
 72
     8
 73
     4
 74
     0
 42
0.0000000001
 43
0.0000000001
 40
0.0
 40
0.0
 40
0.0
 40
0.0
 40
1.0
 40
1.0
 40
1.0
 40
1.0
 10
-17.2425
 20
21.0355
 30
0.0
 10
-17.2425
 20
21.0355
 30
0.0
 10
-37.2198
 20
20.2987
 30
0.0
 10
-37.2198
 20
20.2987
 30
0.0
  0
SPLINE
  5
6F
330
1F
100
AcDbEntity
  8
VRSTVA_1
 62
   250
100
AcDbSpline
210
0.0
220
0.0
230
1.0
 70
    24
 71
     3
 72
     8
 73
     4
 74
     0
 42
0.0000000001
 43
0.0000000001
 40
0.0
 40
0.0
 40
0.0
 40
0.0
 40
1.0
 40
1.0
 40
1.0
 40
1.0
 10
-17.2696
 20
21.9345
 30
0.0
 10
-17.2696
 20
21.9345
 30
0.0
 10
-37.2469
 20
21.1977
 30
0.0
 10
-37.2469
 20
21.1977
 30
0.0
  0
SPLINE
  5
70
330
1F
100
AcDbEntity
  8
VRSTVA_1
 62
   250
100
AcDbSpline
210
0.0
220
0.0
230
1.0
 70
    24
 71
     3
 72
     8
 73
     4
 74
     0
 42
0.0000000001
 43
0.0000000001
 40
0.0
 40
0.0
 40
0.0
 40
0.0
 40
1.0
 40
1.0
 40
1.0
 40
1.0
 10
-17.2967
 20
22.8335
 30
0.0
 10
-17.2967
 20
22.8335
 30
0.0
 10
-37.274
 20
22.0967
 30
0.0
 10
-37.274
 20
22.0967
 30
0.0
  0
SPLINE
  5
71
330
1F
100
AcDbEntity
  8
VRSTVA_1
 62
   250
100
AcDbSpline
210
0.0
220
0.0
230
1.0
 70
    24
 71
     3
 72
     8
 73
     4
 74
     0
 42
0.0000000001
 43
0.0000000001
 40
0.0
 40
0.0
 40
0.0
 40
0.0
 40
1.0
 40
1.0
 40
1.0
 40
1.0
 10
-17.3238
 20
23.7325
 30
0.0
 10
-17.3238
 20
23.7325
 30
0.0
 10
-37.3011
 20
22.9957
 30
0.0
 10
-37.3011
 20
22.9957
 30
0.0
  0
SPLINE
  5
72
330
1F
100
AcDbEntity
  8
VRSTVA_1
 62
   250
100
AcDbSpline
210
0.0
220
0.0
230
1.0
 70
    24
 71
     3
 72
     8
 73
     4
 74
     0
 42
0.0000000001
 43
0.0000000001
 40
0.0
 40
0.0
 40
0.0
 40
0.0
 40
1.0
 40
1.0
 40
1.0
 40
1.0
 10
-17.3509
 20
24.6315
 30
0.0
 10
-17.3509
 20
24.6315
 30
0.0
 10
-37.3282
 20
23.8947
 30
0.0
 10
-37.3282
 20
23.8947
 30
0.0
  0
SPLINE
  5
73
330
1F
100
AcDbEntity
  8
VRSTVA_1
 62
   250
100
AcDbSpline
210
0.0
220
0.0
230
1.0
 70
    24
 71
     3
 72
     8
 73
     4
 74
     0
 42
0.0000000001
 43
0.0000000001
 40
0.0
 40
0.0
 40
0.0
 40
0.0
 40
1.0
 40
1.0
 40
1.0
 40
1.0
 10
-17.378
 20
25.5305
 30
0.0
 10
-17.378
 20
25.5305
 30
0.0
 10
-37.3553
 20
24.7937
 30
0.0
 10
-37.3553
 20
24.7937
 30
0.0
  0
SPLINE
  5
74
330
1F
100
AcDbEntity
  8
VRSTVA_1
 62
   250
100
AcDbSpline
210
0.0
220
0.0
230
1.0
 70
    24
 71
     3
 72
     8
 73
     4
 74
     0
 42
0.0000000001
 43
0.0000000001
 40
0.0
 40
0.0
 40
0.0
 40
0.0
 40
1.0
 40
1.0
 40
1.0
 40
1.0
 10
-51.1619
 20
15.0626
 30
0.0
 10
-51.1619
 20
15.0626
 30
0.0
 10
-51.1619
 20
-8.1317
 30
0.0
 10
-51.1619
 20
-8.1317
 30
0.0
  0
SPLINE
  5
75
330
1F
100
AcDbEntity
  8
VRSTVA_1
 62
   250
100
AcDbSpline
210
0.0
220
0.0
230
1.0
 70
    24
 71
     3
 72
     8
 73
     4
 74
     0
 42
0.0000000001
 43
0.0000000001
 40
0.0
 40
0.0
 40
0.0
 40
0.0
 40
1.0
 40
1.0
 40
1.0
 40
1.0
 10
-7.8559
 20
36.9992
 30
0.0
 10
-7.8559
 20
36.9992
 30
0.0
 10
-46.4519
 20
36.9992
 30
0.0
 10
-46.4519
 20
36.9992
 30
0.0
  0
SPLINE
  5
76
330
1F
100
AcDbEntity
  8
VRSTVA_1
 62
   250
100
AcDbSpline
210
0.0
220
0.0
230
1.0
 70
    11
 71
     3
 72
    84
 73
    80
 74
     0
 42
0.0000000001
 43
0.0000000001
 40
0.0
 40
0.0
 40
0.0
 40
0.0
 40
0.0476190476190476
 40
0.0476190476190476
 40
0.0476190476190476
 40
0.0476190476190476
 40
0.0952380952380952
 40
0.0952380952380952
 40
0.0952380952380952
 40
0.0952380952380952
 40
0.1428571428571428
 40
0.1428571428571428
 40
0.1428571428571428
 40
0.1428571428571428
 40
0.1904761904761905
 40
0.1904761904761905
 40
0.1904761904761905
 40
0.1904761904761905
 40
0.2380952380952381
 40
0.2380952380952381
 40
0.2380952380952381
 40
0.2380952380952381
 40
0.2857142857142857
 40
0.2857142857142857
 40
0.2857142857142857
 40
0.2857142857142857
 40
0.3333333333333333
 40
0.3333333333333333
 40
0.3333333333333333
 40
0.3333333333333333
 40
0.3809523809523809
 40
0.3809523809523809
 40
0.3809523809523809
 40
0.3809523809523809
 40
0.4285714285714285
 40
0.4285714285714285
 40
0.4285714285714285
 40
0.4285714285714285
 40
0.4761904761904762
 40
0.4761904761904762
 40
0.4761904761904762
 40
0.4761904761904762
 40
0.5238095238095238
 40
0.5238095238095238
 40
0.5238095238095238
 40
0.5238095238095238
 40
0.5714285714285714
 40
0.5714285714285714
 40
0.5714285714285714
 40
0.5714285714285714
 40
0.6190476190476191
 40
0.6190476190476191
 40
0.6190476190476191
 40
0.6190476190476191
 40
0.6666666666666666
 40
0.6666666666666666
 40
0.6666666666666666
 40
0.6666666666666666
 40
0.7142857142857143
 40
0.7142857142857143
 40
0.7142857142857143
 40
0.7142857142857143
 40
0.7619047619047619
 40
0.7619047619047619
 40
0.7619047619047619
 40
0.7619047619047619
 40
0.8095238095238095
 40
0.8095238095238095
 40
0.8095238095238095
 40
0.8095238095238095
 40
0.8571428571428571
 40
0.8571428571428571
 40
0.8571428571428571
 40
0.8571428571428571
 40
0.9047619047619048
 40
0.9047619047619048
 40
0.9047619047619048
 40
0.9047619047619048
 40
1.0
 40
1.0
 40
1.0
 40
1.0
 10
-27.9689
 20
39.348
 30
0.0
 10
-27.9689
 20
39.348
 30
0.0
 10
-27.7375
 20
39.6071
 30
0.0
 10
-27.7375
 20
39.6071
 30
0.0
 10
-27.7375
 20
39.6071
 30
0.0
 10
-27.7375
 20
39.6071
 30
0.0
 10
-27.6011
 20
39.4914
 30
0.0
 10
-27.6011
 20
39.4914
 30
0.0
 10
-27.6011
 20
39.4914
 30
0.0
 10
-27.6011
 20
39.4914
 30
0.0
 10
-27.8433
 20
39.2186
 30
0.0
 10
-27.8433
 20
39.2186
 30
0.0
 10
-27.8433
 20
39.2186
 30
0.0
 10
-27.7643
 20
39.101
 30
0.0
 10
-27.7112
 20
38.998
 30
0.0
 10
-27.6834
 20
38.9101
 30
0.0
 10
-27.6834
 20
38.9101
 30
0.0
 10
-27.6467
 20
38.7943
 30
0.0
 10
-27.6284
 20
38.6645
 30
0.0
 10
-27.6284
 20
38.5215
 30
0.0
 10
-27.6284
 20
38.5215
 30
0.0
 10
-27.6284
 20
38.3146
 30
0.0
 10
-27.6702
 20
38.1302
 30
0.0
 10
-27.754
 20
37.9689
 30
0.0
 10
-27.754
 20
37.9689
 30
0.0
 10
-27.8377
 20
37.807
 30
0.0
 10
-27.9548
 20
37.6848
 30
0.0
 10
-28.1058
 20
37.602
 30
0.0
 10
-28.1058
 20
37.602
 30
0.0
 10
-28.2573
 20
37.5197
 30
0.0
 10
-28.4176
 20
37.4783
 30
0.0
 10
-28.5874
 20
37.4783
 30
0.0
 10
-28.5874
 20
37.4783
 30
0.0
 10
-28.7144
 20
37.4783
 30
0.0
 10
-28.8292
 20
37.4961
 30
0.0
 10
-28.9322
 20
37.5319
 30
0.0
 10
-28.9322
 20
37.5319
 30
0.0
 10
-29.0112
 20
37.5596
 30
0.0
 10
-29.1034
 20
37.6123
 30
0.0
 10
-29.2093
 20
37.6904
 30
0.0
 10
-29.2093
 20
37.6904
 30
0.0
 10
-29.2093
 20
37.6904
 30
0.0
 10
-29.4407
 20
37.4312
 30
0.0
 10
-29.4407
 20
37.4312
 30
0.0
 10
-29.4407
 20
37.4312
 30
0.0
 10
-29.4407
 20
37.4312
 30
0.0
 10
-29.5771
 20
37.5469
 30
0.0
 10
-29.5771
 20
37.5469
 30
0.0
 10
-29.5771
 20
37.5469
 30
0.0
 10
-29.5771
 20
37.5469
 30
0.0
 10
-29.3344
 20
37.8183
 30
0.0
 10
-29.3344
 20
37.8183
 30
0.0
 10
-29.3344
 20
37.8183
 30
0.0
 10
-29.4247
 20
37.9552
 30
0.0
 10
-29.4849
 20
38.0723
 30
0.0
 10
-29.515
 20
38.1692
 30
0.0
 10
-29.515
 20
38.1692
 30
0.0
 10
-29.5451
 20
38.2661
 30
0.0
 10
-29.5606
 20
38.3828
 30
0.0
 10
-29.5606
 20
38.5187
 30
0.0
 10
-29.5606
 20
38.5187
 30
0.0
 10
-29.5606
 20
38.7261
 30
0.0
 10
-29.5192
 20
38.911
 30
0.0
 10
-29.4365
 20
39.0733
 30
0.0
 10
-29.4365
 20
39.0733
 30
0.0
 10
-29.3537
 20
39.2356
 30
0.0
 10
-29.238
 20
39.3583
 30
0.0
 10
-29.0884
 20
39.442
 30
0.0
 10
-29.0884
 20
39.442
 30
0.0
 10
-28.9393
 20
39.5253
 30
0.0
 10
-28.7732
 20
39.5672
 30
0.0
 10
-28.5903
 20
39.5672
 30
0.0
 10
-28.5903
 20
39.5672
 30
0.0
 10
-28.467
 20
39.5672
 30
0.0
 10
-28.3593
 20
39.5512
 30
0.0
 10
-28.2671
 20
39.5182
 30
0.0
 10
-28.2671
 20
39.5182
 30
0.0
 10
-28.1749
 20
39.4858
 30
0.0
 10
-28.0752
 20
39.4289
 30
0.0
 10
-27.9689
 20
39.348
 30
0.0
  0
SPLINE
  5
77
330
1F
100
AcDbEntity
  8
VRSTVA_1
 62
   250
100
AcDbSpline
210
0.0
220
0.0
230
1.0
 70
    11
 71
     3
 72
    32
 73
    28
 74
     0
 42
0.0000000001
 43
0.0000000001
 40
0.0
 40
0.0
 40
0.0
 40
0.0
 40
0.125
 40
0.125
 40
0.125
 40
0.125
 40
0.25
 40
0.25
 40
0.25
 40
0.25
 40
0.375
 40
0.375
 40
0.375
 40
0.375
 40
0.5
 40
0.5
 40
0.5
 40
0.5
 40
0.625
 40
0.625
 40
0.625
 40
0.625
 40
0.75
 40
0.75
 40
0.75
 40
0.75
 40
1.0
 40
1.0
 40
1.0
 40
1.0
 10
-28.134
 20
39.1622
 30
0.0
 10
-28.2206
 20
39.2299
 30
0.0
 10
-28.2963
 20
39.2765
 30
0.0
 10
-28.3607
 20
39.3014
 30
0.0
 10
-28.3607
 20
39.3014
 30
0.0
 10
-28.4256
 20
39.3259
 30
0.0
 10
-28.5018
 20
39.3386
 30
0.0
 10
-28.5889
 20
39.3386
 30
0.0
 10
-28.5889
 20
39.3386
 30
0.0
 10
-28.7902
 20
39.3386
 30
0.0
 10
-28.9562
 20
39.2704
 30
0.0
 10
-29.0879
 20
39.134
 30
0.0
 10
-29.0879
 20
39.134
 30
0.0
 10
-29.2192
 20
38.9975
 30
0.0
 10
-29.285
 20
38.7939
 30
0.0
 10
-29.285
 20
38.5225
 30
0.0
 10
-29.285
 20
38.5225
 30
0.0
 10
-29.285
 20
38.4162
 30
0.0
 10
-29.2747
 20
38.3216
 30
0.0
 10
-29.2544
 20
38.2388
 30
0.0
 10
-29.2544
 20
38.2388
 30
0.0
 10
-29.2398
 20
38.1772
 30
0.0
 10
-29.2093
 20
38.1015
 30
0.0
 10
-29.1622
 20
38.0117
 30
0.0
 10
-29.1622
 20
38.0117
 30
0.0
 10
-29.1622
 20
38.0117
 30
0.0
 10
-28.134
 20
39.1622
 30
0.0
 10
-28.134
 20
39.1622
 30
0.0
  0
SPLINE
  5
78
330
1F
100
AcDbEntity
  8
VRSTVA_1
 62
   250
100
AcDbSpline
210
0.0
220
0.0
230
1.0
 70
    11
 71
     3
 72
    28
 73
    24
 74
     0
 42
0.0000000001
 43
0.0000000001
 40
0.0
 40
0.0
 40
0.0
 40
0.0
 40
0.1428571428571428
 40
0.1428571428571428
 40
0.1428571428571428
 40
0.1428571428571428
 40
0.2857142857142857
 40
0.2857142857142857
 40
0.2857142857142857
 40
0.2857142857142857
 40
0.4285714285714285
 40
0.4285714285714285
 40
0.4285714285714285
 40
0.4285714285714285
 40
0.5714285714285714
 40
0.5714285714285714
 40
0.5714285714285714
 40
0.5714285714285714
 40
0.7142857142857143
 40
0.7142857142857143
 40
0.7142857142857143
 40
0.7142857142857143
 40
1.0
 40
1.0
 40
1.0
 40
1.0
 10
-28.0211
 20
39.0201
 30
0.0
 10
-28.0211
 20
39.0201
 30
0.0
 10
-29.0451
 20
37.8738
 30
0.0
 10
-29.0451
 20
37.8738
 30
0.0
 10
-29.0451
 20
37.8738
 30
0.0
 10
-28.9746
 20
37.816
 30
0.0
 10
-28.9092
 20
37.7755
 30
0.0
 10
-28.8494
 20
37.7525
 30
0.0
 10
-28.8494
 20
37.7525
 30
0.0
 10
-28.7714
 20
37.7219
 30
0.0
 10
-28.6867
 20
37.7069
 30
0.0
 10
-28.5959
 20
37.7069
 30
0.0
 10
-28.5959
 20
37.7069
 30
0.0
 10
-28.3955
 20
37.7069
 30
0.0
 10
-28.2304
 20
37.7774
 30
0.0
 10
-28.0997
 20
37.919
 30
0.0
 10
-28.0997
 20
37.919
 30
0.0
 10
-27.9694
 20
38.0606
 30
0.0
 10
-27.904
 20
38.2591
 30
0.0
 10
-27.904
 20
38.5145
 30
0.0
 10
-27.904
 20
38.5145
 30
0.0
 10
-27.904
 20
38.7054
 30
0.0
 10
-27.943
 20
38.8743
 30
0.0
 10
-28.0211
 20
39.0201
 30
0.0
  0
SPLINE
  5
79
330
1F
100
AcDbEntity
  8
VRSTVA_1
 62
   250
100
AcDbSpline
210
0.0
220
0.0
230
1.0
 70
    11
 71
     3
 72
    92
 73
    88
 74
     0
 42
0.0000000001
 43
0.0000000001
 40
0.0
 40
0.0
 40
0.0
 40
0.0
 40
0.0434782608695652
 40
0.0434782608695652
 40
0.0434782608695652
 40
0.0434782608695652
 40
0.0869565217391304
 40
0.0869565217391304
 40
0.0869565217391304
 40
0.0869565217391304
 40
0.1304347826086956
 40
0.1304347826086956
 40
0.1304347826086956
 40
0.1304347826086956
 40
0.1739130434782609
 40
0.1739130434782609
 40
0.1739130434782609
 40
0.1739130434782609
 40
0.2173913043478261
 40
0.2173913043478261
 40
0.2173913043478261
 40
0.2173913043478261
 40
0.2608695652173913
 40
0.2608695652173913
 40
0.2608695652173913
 40
0.2608695652173913
 40
0.3043478260869565
 40
0.3043478260869565
 40
0.3043478260869565
 40
0.3043478260869565
 40
0.3478260869565217
 40
0.3478260869565217
 40
0.3478260869565217
 40
0.3478260869565217
 40
0.391304347826087
 40
0.391304347826087
 40
0.391304347826087
 40
0.391304347826087
 40
0.4347826086956522
 40
0.4347826086956522
 40
0.4347826086956522
 40
0.4347826086956522
 40
0.4782608695652174
 40
0.4782608695652174
 40
0.4782608695652174
 40
0.4782608695652174
 40
0.5217391304347826
 40
0.5217391304347826
 40
0.5217391304347826
 40
0.5217391304347826
 40
0.5652173913043478
 40
0.5652173913043478
 40
0.5652173913043478
 40
0.5652173913043478
 40
0.6086956521739131
 40
0.6086956521739131
 40
0.6086956521739131
 40
0.6086956521739131
 40
0.6521739130434783
 40
0.6521739130434783
 40
0.6521739130434783
 40
0.6521739130434783
 40
0.6956521739130435
 40
0.6956521739130435
 40
0.6956521739130435
 40
0.6956521739130435
 40
0.7391304347826086
 40
0.7391304347826086
 40
0.7391304347826086
 40
0.7391304347826086
 40
0.782608695652174
 40
0.782608695652174
 40
0.782608695652174
 40
0.782608695652174
 40
0.8260869565217391
 40
0.8260869565217391
 40
0.8260869565217391
 40
0.8260869565217391
 40
0.8695652173913043
 40
0.8695652173913043
 40
0.8695652173913043
 40
0.8695652173913043
 40
0.9130434782608695
 40
0.9130434782608695
 40
0.9130434782608695
 40
0.9130434782608695
 40
1.0
 40
1.0
 40
1.0
 40
1.0
 10
-27.3419
 20
37.9797
 30
0.0
 10
-27.3419
 20
37.9797
 30
0.0
 10
-27.1034
 20
38.0018
 30
0.0
 10
-27.1034
 20
38.0018
 30
0.0
 10
-27.1034
 20
38.0018
 30
0.0
 10
-27.0832
 20
37.8898
 30
0.0
 10
-27.0446
 20
37.8085
 30
0.0
 10
-26.9877
 20
37.7577
 30
0.0
 10
-26.9877
 20
37.7577
 30
0.0
 10
-26.9308
 20
37.7073
 30
0.0
 10
-26.8579
 20
37.6819
 30
0.0
 10
-26.7685
 20
37.6819
 30
0.0
 10
-26.7685
 20
37.6819
 30
0.0
 10
-26.6923
 20
37.6819
 30
0.0
 10
-26.6256
 20
37.6993
 30
0.0
 10
-26.5682
 20
37.7346
 30
0.0
 10
-26.5682
 20
37.7346
 30
0.0
 10
-26.5108
 20
37.7694
 30
0.0
 10
-26.4637
 20
37.816
 30
0.0
 10
-26.4271
 20
37.8743
 30
0.0
 10
-26.4271
 20
37.8743
 30
0.0
 10
-26.3899
 20
37.9326
 30
0.0
 10
-26.3593
 20
38.0117
 30
0.0
 10
-26.3344
 20
38.1104
 30
0.0
 10
-26.3344
 20
38.1104
 30
0.0
 10
-26.3099
 20
38.2097
 30
0.0
 10
-26.2972
 20
38.3108
 30
0.0
 10
-26.2972
 20
38.4138
 30
0.0
 10
-26.2972
 20
38.4138
 30
0.0
 10
-26.2972
 20
38.4246
 30
0.0
 10
-26.2977
 20
38.4416
 30
0.0
 10
-26.2986
 20
38.4632
 30
0.0
 10
-26.2986
 20
38.4632
 30
0.0
 10
-26.3485
 20
38.3847
 30
0.0
 10
-26.4162
 20
38.3202
 30
0.0
 10
-26.5018
 20
38.2713
 30
0.0
 10
-26.5018
 20
38.2713
 30
0.0
 10
-26.5879
 20
38.2219
 30
0.0
 10
-26.6811
 20
38.1975
 30
0.0
 10
-26.7808
 20
38.1975
 30
0.0
 10
-26.7808
 20
38.1975
 30
0.0
 10
-26.9482
 20
38.1975
 30
0.0
 10
-27.0898
 20
38.2581
 30
0.0
 10
-27.2055
 20
38.3795
 30
0.0
 10
-27.2055
 20
38.3795
 30
0.0
 10
-27.3212
 20
38.5008
 30
0.0
 10
-27.3791
 20
38.6603
 30
0.0
 10
-27.3791
 20
38.8588
 30
0.0
 10
-27.3791
 20
38.8588
 30
0.0
 10
-27.3791
 20
39.0639
 30
0.0
 10
-27.3189
 20
39.2285
 30
0.0
 10
-27.198
 20
39.3536
 30
0.0
 10
-27.198
 20
39.3536
 30
0.0
 10
-27.0771
 20
39.4787
 30
0.0
 10
-26.9256
 20
39.5413
 30
0.0
 10
-26.7436
 20
39.5413
 30
0.0
 10
-26.7436
 20
39.5413
 30
0.0
 10
-26.6124
 20
39.5413
 30
0.0
 10
-26.4924
 20
39.5055
 30
0.0
 10
-26.3833
 20
39.435
 30
0.0
 10
-26.3833
 20
39.435
 30
0.0
 10
-26.2747
 20
39.3644
 30
0.0
 10
-26.1919
 20
39.2633
 30
0.0
 10
-26.1354
 20
39.1325
 30
0.0
 10
-26.1354
 20
39.1325
 30
0.0
 10
-26.079
 20
39.0018
 30
0.0
 10
-26.0508
 20
38.8122
 30
0.0
 10
-26.0508
 20
38.5639
 30
0.0
 10
-26.0508
 20
38.5639
 30
0.0
 10
-26.0508
 20
38.3061
 30
0.0
 10
-26.0785
 20
38.1006
 30
0.0
 10
-26.1345
 20
37.9472
 30
0.0
 10
-26.1345
 20
37.9472
 30
0.0
 10
-26.1909
 20
37.7943
 30
0.0
 10
-26.2742
 20
37.6782
 30
0.0
 10
-26.3847
 20
37.5982
 30
0.0
 10
-26.3847
 20
37.5982
 30
0.0
 10
-26.4957
 20
37.5182
 30
0.0
 10
-26.6251
 20
37.4783
 30
0.0
 10
-26.7742
 20
37.4783
 30
0.0
 10
-26.7742
 20
37.4783
 30
0.0
 10
-26.9322
 20
37.4783
 30
0.0
 10
-27.0611
 20
37.522
 30
0.0
 10
-27.1613
 20
37.61
 30
0.0
 10
-27.1613
 20
37.61
 30
0.0
 10
-27.2615
 20
37.6975
 30
0.0
 10
-27.3217
 20
37.8207
 30
0.0
 10
-27.3419
 20
37.9797
 30
0.0
  0
SPLINE
  5
7A
330
1F
100
AcDbEntity
  8
VRSTVA_1
 62
   250
100
AcDbSpline
210
0.0
220
0.0
230
1.0
 70
    11
 71
     3
 72
    36
 73
    32
 74
     0
 42
0.0000000001
 43
0.0000000001
 40
0.0
 40
0.0
 40
0.0
 40
0.0
 40
0.1111111111111111
 40
0.1111111111111111
 40
0.1111111111111111
 40
0.1111111111111111
 40
0.2222222222222222
 40
0.2222222222222222
 40
0.2222222222222222
 40
0.2222222222222222
 40
0.3333333333333333
 40
0.3333333333333333
 40
0.3333333333333333
 40
0.3333333333333333
 40
0.4444444444444444
 40
0.4444444444444444
 40
0.4444444444444444
 40
0.4444444444444444
 40
0.5555555555555556
 40
0.5555555555555556
 40
0.5555555555555556
 40
0.5555555555555556
 40
0.6666666666666666
 40
0.6666666666666666
 40
0.6666666666666666
 40
0.6666666666666666
 40
0.7777777777777778
 40
0.7777777777777778
 40
0.7777777777777778
 40
0.7777777777777778
 40
1.0
 40
1.0
 40
1.0
 40
1.0
 10
-26.3264
 20
38.8715
 30
0.0
 10
-26.3264
 20
39.0135
 30
0.0
 10
-26.364
 20
39.1269
 30
0.0
 10
-26.4398
 20
39.2102
 30
0.0
 10
-26.4398
 20
39.2102
 30
0.0
 10
-26.516
 20
39.2939
 30
0.0
 10
-26.6067
 20
39.3357
 30
0.0
 10
-26.7135
 20
39.3357
 30
0.0
 10
-26.7135
 20
39.3357
 30
0.0
 10
-26.8236
 20
39.3357
 30
0.0
 10
-26.9195
 20
39.2906
 30
0.0
 10
-27.0014
 20
39.2007
 30
0.0
 10
-27.0014
 20
39.2007
 30
0.0
 10
-27.0832
 20
39.1104
 30
0.0
 10
-27.1241
 20
38.9938
 30
0.0
 10
-27.1241
 20
38.8508
 30
0.0
 10
-27.1241
 20
38.8508
 30
0.0
 10
-27.1241
 20
38.7219
 30
0.0
 10
-27.0851
 20
38.6175
 30
0.0
 10
-27.0075
 20
38.5371
 30
0.0
 10
-27.0075
 20
38.5371
 30
0.0
 10
-26.9299
 20
38.4566
 30
0.0
 10
-26.8344
 20
38.4166
 30
0.0
 10
-26.7206
 20
38.4166
 30
0.0
 10
-26.7206
 20
38.4166
 30
0.0
 10
-26.6053
 20
38.4166
 30
0.0
 10
-26.5113
 20
38.4566
 30
0.0
 10
-26.4374
 20
38.5371
 30
0.0
 10
-26.4374
 20
38.5371
 30
0.0
 10
-26.3631
 20
38.6175
 30
0.0
 10
-26.3264
 20
38.729
 30
0.0
 10
-26.3264
 20
38.8715
 30
0.0
  0
SPLINE
  5
7B
330
1F
100
AcDbEntity
  8
VRSTVA_1
 62
   250
100
AcDbSpline
210
0.0
220
0.0
230
1.0
 70
    11
 71
     3
 72
    40
 73
    36
 74
     0
 42
0.0000000001
 43
0.0000000001
 40
0.0
 40
0.0
 40
0.0
 40
0.0
 40
0.1
 40
0.1
 40
0.1
 40
0.1
 40
0.2
 40
0.2
 40
0.2
 40
0.2
 40
0.3
 40
0.3
 40
0.3
 40
0.3
 40
0.4
 40
0.4
 40
0.4
 40
0.4
 40
0.5
 40
0.5
 40
0.5
 40
0.5
 40
0.6
 40
0.6
 40
0.6
 40
0.6
 40
0.7
 40
0.7
 40
0.7
 40
0.7
 40
0.8
 40
0.8
 40
0.8
 40
0.8
 40
1.0
 40
1.0
 40
1.0
 40
1.0
 10
-24.8753
 20
37.5126
 30
0.0
 10
-24.8753
 20
37.5126
 30
0.0
 10
-25.1232
 20
37.5126
 30
0.0
 10
-25.1232
 20
37.5126
 30
0.0
 10
-25.1232
 20
37.5126
 30
0.0
 10
-25.1232
 20
37.5126
 30
0.0
 10
-25.1232
 20
39.093
 30
0.0
 10
-25.1232
 20
39.093
 30
0.0
 10
-25.1232
 20
39.093
 30
0.0
 10
-25.183
 20
39.0361
 30
0.0
 10
-25.261
 20
38.9792
 30
0.0
 10
-25.3579
 20
38.9223
 30
0.0
 10
-25.3579
 20
38.9223
 30
0.0
 10
-25.4553
 20
38.8654
 30
0.0
 10
-25.5423
 20
38.8226
 30
0.0
 10
-25.6195
 20
38.7943
 30
0.0
 10
-25.6195
 20
38.7943
 30
0.0
 10
-25.6195
 20
38.7943
 30
0.0
 10
-25.6195
 20
39.0338
 30
0.0
 10
-25.6195
 20
39.0338
 30
0.0
 10
-25.6195
 20
39.0338
 30
0.0
 10
-25.4807
 20
39.0991
 30
0.0
 10
-25.3593
 20
39.1782
 30
0.0
 10
-25.2554
 20
39.2708
 30
0.0
 10
-25.2554
 20
39.2708
 30
0.0
 10
-25.1519
 20
39.364
 30
0.0
 10
-25.0781
 20
39.4538
 30
0.0
 10
-25.0348
 20
39.5413
 30
0.0
 10
-25.0348
 20
39.5413
 30
0.0
 10
-25.0348
 20
39.5413
 30
0.0
 10
-24.8753
 20
39.5413
 30
0.0
 10
-24.8753
 20
39.5413
 30
0.0
 10
-24.8753
 20
39.5413
 30
0.0
 10
-24.8753
 20
39.5413
 30
0.0
 10
-24.8753
 20
37.5126
 30
0.0
 10
-24.8753
 20
37.5126
 30
0.0
  0
SPLINE
  5
7C
330
1F
100
AcDbEntity
  8
VRSTVA_1
 62
   250
100
AcDbSpline
210
0.0
220
0.0
230
1.0
 70
    11
 71
     3
 72
    20
 73
    16
 74
     0
 42
0.0000000001
 43
0.0000000001
 40
0.0
 40
0.0
 40
0.0
 40
0.0
 40
0.2
 40
0.2
 40
0.2
 40
0.2
 40
0.4
 40
0.4
 40
0.4
 40
0.4
 40
0.6
 40
0.6
 40
0.6
 40
0.6
 40
1.0
 40
1.0
 40
1.0
 40
1.0
 10
-10.7548
 20
37.4826
 30
0.0
 10
-10.7548
 20
37.4826
 30
0.0
 10
-7.7548
 20
37.0592
 30
0.0
 10
-7.7548
 20
37.0592
 30
0.0
 10
-7.7548
 20
37.0592
 30
0.0
 10
-7.7548
 20
37.0592
 30
0.0
 10
-7.7548
 20
36.9651
 30
0.0
 10
-7.7548
 20
36.9651
 30
0.0
 10
-7.7548
 20
36.9651
 30
0.0
 10
-7.7548
 20
36.9651
 30
0.0
 10
-10.7548
 20
36.5136
 30
0.0
 10
-10.7548
 20
36.5136
 30
0.0
 10
-10.7548
 20
36.5136
 30
0.0
 10
-10.7548
 20
36.5136
 30
0.0
 10
-10.7548
 20
37.4826
 30
0.0
 10
-10.7548
 20
37.4826
 30
0.0
  0
SPLINE
  5
7D
330
1F
100
AcDbEntity
  8
VRSTVA_1
 62
   250
100
AcDbSpline
210
0.0
220
0.0
230
1.0
 70
    11
 71
     3
 72
    20
 73
    16
 74
     0
 42
0.0000000001
 43
0.0000000001
 40
0.0
 40
0.0
 40
0.0
 40
0.0
 40
0.2
 40
0.2
 40
0.2
 40
0.2
 40
0.4
 40
0.4
 40
0.4
 40
0.4
 40
0.6
 40
0.6
 40
0.6
 40
0.6
 40
1.0
 40
1.0
 40
1.0
 40
1.0
 10
-43.6387
 20
36.5411
 30
0.0
 10
-43.6387
 20
36.5411
 30
0.0
 10
-46.6387
 20
36.9645
 30
0.0
 10
-46.6387
 20
36.9645
 30
0.0
 10
-46.6387
 20
36.9645
 30
0.0
 10
-46.6387
 20
36.9645
 30
0.0
 10
-46.6387
 20
37.0585
 30
0.0
 10
-46.6387
 20
37.0585
 30
0.0
 10
-46.6387
 20
37.0585
 30
0.0
 10
-46.6387
 20
37.0585
 30
0.0
 10
-43.6387
 20
37.5101
 30
0.0
 10
-43.6387
 20
37.5101
 30
0.0
 10
-43.6387
 20
37.5101
 30
0.0
 10
-43.6387
 20
37.5101
 30
0.0
 10
-43.6387
 20
36.5411
 30
0.0
 10
-43.6387
 20
36.5411
 30
0.0
  0
SPLINE
  5
7E
330
1F
100
AcDbEntity
  8
VRSTVA_1
 62
   250
100
AcDbSpline
210
0.0
220
0.0
230
1.0
 70
    11
 71
     3
 72
    20
 73
    16
 74
     0
 42
0.0000000001
 43
0.0000000001
 40
0.0
 40
0.0
 40
0.0
 40
0.0
 40
0.2
 40
0.2
 40
0.2
 40
0.2
 40
0.4
 40
0.4
 40
0.4
 40
0.4
 40
0.6
 40
0.6
 40
0.6
 40
0.6
 40
1.0
 40
1.0
 40
1.0
 40
1.0
 10
-51.6464
 20
13.2352
 30
0.0
 10
-51.6464
 20
13.2352
 30
0.0
 10
-51.223
 20
16.2353
 30
0.0
 10
-51.223
 20
16.2353
 30
0.0
 10
-51.223
 20
16.2353
 30
0.0
 10
-51.223
 20
16.2353
 30
0.0
 10
-51.129
 20
16.2353
 30
0.0
 10
-51.129
 20
16.2353
 30
0.0
 10
-51.129
 20
16.2353
 30
0.0
 10
-51.129
 20
16.2353
 30
0.0
 10
-50.6774
 20
13.2352
 30
0.0
 10
-50.6774
 20
13.2352
 30
0.0
 10
-50.6774
 20
13.2352
 30
0.0
 10
-50.6774
 20
13.2352
 30
0.0
 10
-51.6464
 20
13.2352
 30
0.0
 10
-51.6464
 20
13.2352
 30
0.0
  0
SPLINE
  5
7F
330
1F
100
AcDbEntity
  8
VRSTVA_1
 62
   250
100
AcDbSpline
210
0.0
220
0.0
230
1.0
 70
    11
 71
     3
 72
    20
 73
    16
 74
     0
 42
0.0000000001
 43
0.0000000001
 40
0.0
 40
0.0
 40
0.0
 40
0.0
 40
0.2
 40
0.2
 40
0.2
 40
0.2
 40
0.4
 40
0.4
 40
0.4
 40
0.4
 40
0.6
 40
0.6
 40
0.6
 40
0.6
 40
1.0
 40
1.0
 40
1.0
 40
1.0
 10
-50.6774
 20
-5.6381
 30
0.0
 10
-50.6774
 20
-5.6381
 30
0.0
 10
-51.1008
 20
-8.6381
 30
0.0
 10
-51.1008
 20
-8.6381
 30
0.0
 10
-51.1008
 20
-8.6381
 30
0.0
 10
-51.1008
 20
-8.6381
 30
0.0
 10
-51.1948
 20
-8.6381
 30
0.0
 10
-51.1948
 20
-8.6381
 30
0.0
 10
-51.1948
 20
-8.6381
 30
0.0
 10
-51.1948
 20
-8.6381
 30
0.0
 10
-51.6464
 20
-5.6381
 30
0.0
 10
-51.6464
 20
-5.6381
 30
0.0
 10
-51.6464
 20
-5.6381
 30
0.0
 10
-51.6464
 20
-5.6381
 30
0.0
 10
-50.6774
 20
-5.6381
 30
0.0
 10
-50.6774
 20
-5.6381
 30
0.0
  0
SPLINE
  5
80
330
1F
100
AcDbEntity
  8
VRSTVA_1
 62
   250
100
AcDbSpline
210
0.0
220
0.0
230
1.0
 70
    11
 71
     3
 72
    92
 73
    88
 74
     0
 42
0.0000000001
 43
0.0000000001
 40
0.0
 40
0.0
 40
0.0
 40
0.0
 40
0.0434782608695652
 40
0.0434782608695652
 40
0.0434782608695652
 40
0.0434782608695652
 40
0.0869565217391304
 40
0.0869565217391304
 40
0.0869565217391304
 40
0.0869565217391304
 40
0.1304347826086956
 40
0.1304347826086956
 40
0.1304347826086956
 40
0.1304347826086956
 40
0.1739130434782609
 40
0.1739130434782609
 40
0.1739130434782609
 40
0.1739130434782609
 40
0.2173913043478261
 40
0.2173913043478261
 40
0.2173913043478261
 40
0.2173913043478261
 40
0.2608695652173913
 40
0.2608695652173913
 40
0.2608695652173913
 40
0.2608695652173913
 40
0.3043478260869565
 40
0.3043478260869565
 40
0.3043478260869565
 40
0.3043478260869565
 40
0.3478260869565217
 40
0.3478260869565217
 40
0.3478260869565217
 40
0.3478260869565217
 40
0.391304347826087
 40
0.391304347826087
 40
0.391304347826087
 40
0.391304347826087
 40
0.4347826086956522
 40
0.4347826086956522
 40
0.4347826086956522
 40
0.4347826086956522
 40
0.4782608695652174
 40
0.4782608695652174
 40
0.4782608695652174
 40
0.4782608695652174
 40
0.5217391304347826
 40
0.5217391304347826
 40
0.5217391304347826
 40
0.5217391304347826
 40
0.5652173913043478
 40
0.5652173913043478
 40
0.5652173913043478
 40
0.5652173913043478
 40
0.6086956521739131
 40
0.6086956521739131
 40
0.6086956521739131
 40
0.6086956521739131
 40
0.6521739130434783
 40
0.6521739130434783
 40
0.6521739130434783
 40
0.6521739130434783
 40
0.6956521739130435
 40
0.6956521739130435
 40
0.6956521739130435
 40
0.6956521739130435
 40
0.7391304347826086
 40
0.7391304347826086
 40
0.7391304347826086
 40
0.7391304347826086
 40
0.782608695652174
 40
0.782608695652174
 40
0.782608695652174
 40
0.782608695652174
 40
0.8260869565217391
 40
0.8260869565217391
 40
0.8260869565217391
 40
0.8260869565217391
 40
0.8695652173913043
 40
0.8695652173913043
 40
0.8695652173913043
 40
0.8695652173913043
 40
0.9130434782608695
 40
0.9130434782608695
 40
0.9130434782608695
 40
0.9130434782608695
 40
1.0
 40
1.0
 40
1.0
 40
1.0
 10
-52.1
 20
2.7263
 30
0.0
 10
-52.1
 20
2.7263
 30
0.0
 10
-52.1221
 20
2.9869
 30
0.0
 10
-52.1221
 20
2.9869
 30
0.0
 10
-52.1221
 20
2.9869
 30
0.0
 10
-51.9951
 20
3.0062
 30
0.0
 10
-51.9001
 20
3.0508
 30
0.0
 10
-51.8362
 20
3.1209
 30
0.0
 10
-51.8362
 20
3.1209
 30
0.0
 10
-51.7722
 20
3.1915
 30
0.0
 10
-51.7402
 20
3.2761
 30
0.0
 10
-51.7402
 20
3.3754
 30
0.0
 10
-51.7402
 20
3.3754
 30
0.0
 10
-51.7402
 20
3.4948
 30
0.0
 10
-51.7854
 20
3.596
 30
0.0
 10
-51.8752
 20
3.6783
 30
0.0
 10
-51.8752
 20
3.6783
 30
0.0
 10
-51.9655
 20
3.761
 30
0.0
 10
-52.085
 20
3.8024
 30
0.0
 10
-52.2336
 20
3.8024
 30
0.0
 10
-52.2336
 20
3.8024
 30
0.0
 10
-52.3752
 20
3.8024
 30
0.0
 10
-52.4866
 20
3.7629
 30
0.0
 10
-52.5685
 20
3.6834
 30
0.0
 10
-52.5685
 20
3.6834
 30
0.0
 10
-52.6503
 20
3.604
 30
0.0
 10
-52.6912
 20
3.5
 30
0.0
 10
-52.6912
 20
3.3711
 30
0.0
 10
-52.6912
 20
3.3711
 30
0.0
 10
-52.6912
 20
3.2912
 30
0.0
 10
-52.6729
 20
3.2192
 30
0.0
 10
-52.6367
 20
3.1548
 30
0.0
 10
-52.6367
 20
3.1548
 30
0.0
 10
-52.6005
 20
3.0904
 30
0.0
 10
-52.5534
 20
3.04
 30
0.0
 10
-52.4956
 20
3.0033
 30
0.0
 10
-52.4956
 20
3.0033
 30
0.0
 10
-52.4956
 20
3.0033
 30
0.0
 10
-52.5257
 20
2.7705
 30
0.0
 10
-52.5257
 20
2.7705
 30
0.0
 10
-52.5257
 20
2.7705
 30
0.0
 10
-52.5257
 20
2.7705
 30
0.0
 10
-53.5632
 20
2.9662
 30
0.0
 10
-53.5632
 20
2.9662
 30
0.0
 10
-53.5632
 20
2.9662
 30
0.0
 10
-53.5632
 20
2.9662
 30
0.0
 10
-53.5632
 20
3.9708
 30
0.0
 10
-53.5632
 20
3.9708
 30
0.0
 10
-53.5632
 20
3.9708
 30
0.0
 10
-53.5632
 20
3.9708
 30
0.0
 10
-53.3262
 20
3.9708
 30
0.0
 10
-53.3262
 20
3.9708
 30
0.0
 10
-53.3262
 20
3.9708
 30
0.0
 10
-53.3262
 20
3.9708
 30
0.0
 10
-53.3262
 20
3.1647
 30
0.0
 10
-53.3262
 20
3.1647
 30
0.0
 10
-53.3262
 20
3.1647
 30
0.0
 10
-53.3262
 20
3.1647
 30
0.0
 10
-52.7834
 20
3.0555
 30
0.0
 10
-52.7834
 20
3.0555
 30
0.0
 10
-52.7834
 20
3.0555
 30
0.0
 10
-52.8681
 20
3.1769
 30
0.0
 10
-52.9104
 20
3.3044
 30
0.0
 10
-52.9104
 20
3.4375
 30
0.0
 10
-52.9104
 20
3.4375
 30
0.0
 10
-52.9104
 20
3.6138
 30
0.0
 10
-52.8493
 20
3.7625
 30
0.0
 10
-52.727
 20
3.8838
 30
0.0
 10
-52.727
 20
3.8838
 30
0.0
 10
-52.6047
 20
4.0051
 30
0.0
 10
-52.4476
 20
4.0658
 30
0.0
 10
-52.2557
 20
4.0658
 30
0.0
 10
-52.2557
 20
4.0658
 30
0.0
 10
-52.0727
 20
4.0658
 30
0.0
 10
-51.9147
 20
4.0122
 30
0.0
 10
-51.7816
 20
3.9059
 30
0.0
 10
-51.7816
 20
3.9059
 30
0.0
 10
-51.6184
 20
3.7761
 30
0.0
 10
-51.5366
 20
3.5993
 30
0.0
 10
-51.5366
 20
3.3754
 30
0.0
 10
-51.5366
 20
3.3754
 30
0.0
 10
-51.5366
 20
3.1915
 30
0.0
 10
-51.5878
 20
3.0414
 30
0.0
 10
-51.6908
 20
2.9253
 30
0.0
 10
-51.6908
 20
2.9253
 30
0.0
 10
-51.7938
 20
2.8091
 30
0.0
 10
-51.9302
 20
2.7428
 30
0.0
 10
-52.1
 20
2.7263
 30
0.0
  0
SPLINE
  5
81
330
1F
100
AcDbEntity
  8
VRSTVA_1
 62
   250
100
AcDbSpline
210
0.0
220
0.0
230
1.0
 70
    11
 71
     3
 72
    68
 73
    64
 74
     0
 42
0.0000000001
 43
0.0000000001
 40
0.0
 40
0.0
 40
0.0
 40
0.0
 40
0.0588235294117647
 40
0.0588235294117647
 40
0.0588235294117647
 40
0.0588235294117647
 40
0.1176470588235294
 40
0.1176470588235294
 40
0.1176470588235294
 40
0.1176470588235294
 40
0.1764705882352941
 40
0.1764705882352941
 40
0.1764705882352941
 40
0.1764705882352941
 40
0.2352941176470588
 40
0.2352941176470588
 40
0.2352941176470588
 40
0.2352941176470588
 40
0.2941176470588235
 40
0.2941176470588235
 40
0.2941176470588235
 40
0.2941176470588235
 40
0.3529411764705883
 40
0.3529411764705883
 40
0.3529411764705883
 40
0.3529411764705883
 40
0.4117647058823529
 40
0.4117647058823529
 40
0.4117647058823529
 40
0.4117647058823529
 40
0.4705882352941176
 40
0.4705882352941176
 40
0.4705882352941176
 40
0.4705882352941176
 40
0.5294117647058824
 40
0.5294117647058824
 40
0.5294117647058824
 40
0.5294117647058824
 40
0.5882352941176471
 40
0.5882352941176471
 40
0.5882352941176471
 40
0.5882352941176471
 40
0.6470588235294118
 40
0.6470588235294118
 40
0.6470588235294118
 40
0.6470588235294118
 40
0.7058823529411765
 40
0.7058823529411765
 40
0.7058823529411765
 40
0.7058823529411765
 40
0.7647058823529411
 40
0.7647058823529411
 40
0.7647058823529411
 40
0.7647058823529411
 40
0.8235294117647058
 40
0.8235294117647058
 40
0.8235294117647058
 40
0.8235294117647058
 40
0.8823529411764706
 40
0.8823529411764706
 40
0.8823529411764706
 40
0.8823529411764706
 40
1.0
 40
1.0
 40
1.0
 40
1.0
 10
-52.6663
 20
4.6777
 30
0.0
 10
-52.7039
 20
4.5747
 30
0.0
 10
-52.7576
 20
4.4985
 30
0.0
 10
-52.8276
 20
4.4487
 30
0.0
 10
-52.8276
 20
4.4487
 30
0.0
 10
-52.8972
 20
4.3993
 30
0.0
 10
-52.981
 20
4.3744
 30
0.0
 10
-53.0783
 20
4.3744
 30
0.0
 10
-53.0783
 20
4.3744
 30
0.0
 10
-53.2255
 20
4.3744
 30
0.0
 10
-53.3488
 20
4.427
 30
0.0
 10
-53.4489
 20
4.5329
 30
0.0
 10
-53.4489
 20
4.5329
 30
0.0
 10
-53.5491
 20
4.6387
 30
0.0
 10
-53.5994
 20
4.7788
 30
0.0
 10
-53.5994
 20
4.9543
 30
0.0
 10
-53.5994
 20
4.9543
 30
0.0
 10
-53.5994
 20
5.1307
 30
0.0
 10
-53.5482
 20
5.2727
 30
0.0
 10
-53.4456
 20
5.3804
 30
0.0
 10
-53.4456
 20
5.3804
 30
0.0
 10
-53.3431
 20
5.4876
 30
0.0
 10
-53.2185
 20
5.5413
 30
0.0
 10
-53.0713
 20
5.5413
 30
0.0
 10
-53.0713
 20
5.5413
 30
0.0
 10
-52.9777
 20
5.5413
 30
0.0
 10
-52.8963
 20
5.5168
 30
0.0
 10
-52.8267
 20
5.4679
 30
0.0
 10
-52.8267
 20
5.4679
 30
0.0
 10
-52.7576
 20
5.4185
 30
0.0
 10
-52.7039
 20
5.3442
 30
0.0
 10
-52.6663
 20
5.244
 30
0.0
 10
-52.6663
 20
5.244
 30
0.0
 10
-52.6259
 20
5.3677
 30
0.0
 10
-52.561
 20
5.4622
 30
0.0
 10
-52.4706
 20
5.5271
 30
0.0
 10
-52.4706
 20
5.5271
 30
0.0
 10
-52.3808
 20
5.5916
 30
0.0
 10
-52.2731
 20
5.624
 30
0.0
 10
-52.1485
 20
5.624
 30
0.0
 10
-52.1485
 20
5.624
 30
0.0
 10
-51.9754
 20
5.624
 30
0.0
 10
-51.8305
 20
5.5629
 30
0.0
 10
-51.7129
 20
5.4411
 30
0.0
 10
-51.7129
 20
5.4411
 30
0.0
 10
-51.5954
 20
5.3188
 30
0.0
 10
-51.5366
 20
5.1579
 30
0.0
 10
-51.5366
 20
4.9585
 30
0.0
 10
-51.5366
 20
4.9585
 30
0.0
 10
-51.5366
 20
4.7591
 30
0.0
 10
-51.5954
 20
4.5987
 30
0.0
 10
-51.7134
 20
4.4764
 30
0.0
 10
-51.7134
 20
4.4764
 30
0.0
 10
-51.8315
 20
4.3541
 30
0.0
 10
-51.9787
 20
4.293
 30
0.0
 10
-52.1551
 20
4.293
 30
0.0
 10
-52.1551
 20
4.293
 30
0.0
 10
-52.2863
 20
4.293
 30
0.0
 10
-52.3963
 20
4.3264
 30
0.0
 10
-52.4852
 20
4.3932
 30
0.0
 10
-52.4852
 20
4.3932
 30
0.0
 10
-52.5737
 20
4.4595
 30
0.0
 10
-52.6343
 20
4.5545
 30
0.0
 10
-52.6663
 20
4.6777
 30
0.0
  0
SPLINE
  5
82
330
1F
100
AcDbEntity
  8
VRSTVA_1
 62
   250
100
AcDbSpline
210
0.0
220
0.0
230
1.0
 70
    11
 71
     3
 72
    36
 73
    32
 74
     0
 42
0.0000000001
 43
0.0000000001
 40
0.0
 40
0.0
 40
0.0
 40
0.0
 40
0.1111111111111111
 40
0.1111111111111111
 40
0.1111111111111111
 40
0.1111111111111111
 40
0.2222222222222222
 40
0.2222222222222222
 40
0.2222222222222222
 40
0.2222222222222222
 40
0.3333333333333333
 40
0.3333333333333333
 40
0.3333333333333333
 40
0.3333333333333333
 40
0.4444444444444444
 40
0.4444444444444444
 40
0.4444444444444444
 40
0.4444444444444444
 40
0.5555555555555556
 40
0.5555555555555556
 40
0.5555555555555556
 40
0.5555555555555556
 40
0.6666666666666666
 40
0.6666666666666666
 40
0.6666666666666666
 40
0.6666666666666666
 40
0.7777777777777778
 40
0.7777777777777778
 40
0.7777777777777778
 40
0.7777777777777778
 40
1.0
 40
1.0
 40
1.0
 40
1.0
 10
-53.0868
 20
4.6279
 30
0.0
 10
-52.9913
 20
4.6279
 30
0.0
 10
-52.9132
 20
4.6589
 30
0.0
 10
-52.8526
 20
4.7201
 30
0.0
 10
-52.8526
 20
4.7201
 30
0.0
 10
-52.7919
 20
4.7817
 30
0.0
 10
-52.7613
 20
4.8616
 30
0.0
 10
-52.7613
 20
4.9599
 30
0.0
 10
-52.7613
 20
4.9599
 30
0.0
 10
-52.7613
 20
5.0554
 30
0.0
 10
-52.7914
 20
5.1339
 30
0.0
 10
-52.8516
 20
5.1951
 30
0.0
 10
-52.8516
 20
5.1951
 30
0.0
 10
-52.9118
 20
5.2562
 30
0.0
 10
-52.9857
 20
5.2863
 30
0.0
 10
-53.0727
 20
5.2863
 30
0.0
 10
-53.0727
 20
5.2863
 30
0.0
 10
-53.1639
 20
5.2863
 30
0.0
 10
-53.2401
 20
5.2553
 30
0.0
 10
-53.3022
 20
5.1923
 30
0.0
 10
-53.3022
 20
5.1923
 30
0.0
 10
-53.3643
 20
5.1292
 30
0.0
 10
-53.3953
 20
5.0512
 30
0.0
 10
-53.3953
 20
4.9571
 30
0.0
 10
-53.3953
 20
4.9571
 30
0.0
 10
-53.3953
 20
4.8626
 30
0.0
 10
-53.3648
 20
4.784
 30
0.0
 10
-53.3045
 20
4.7215
 30
0.0
 10
-53.3045
 20
4.7215
 30
0.0
 10
-53.2439
 20
4.6589
 30
0.0
 10
-53.171
 20
4.6279
 30
0.0
 10
-53.0868
 20
4.6279
 30
0.0
  0
SPLINE
  5
83
330
1F
100
AcDbEntity
  8
VRSTVA_1
 62
   250
100
AcDbSpline
210
0.0
220
0.0
230
1.0
 70
    11
 71
     3
 72
    40
 73
    36
 74
     0
 42
0.0000000001
 43
0.0000000001
 40
0.0
 40
0.0
 40
0.0
 40
0.0
 40
0.1
 40
0.1
 40
0.1
 40
0.1
 40
0.2
 40
0.2
 40
0.2
 40
0.2
 40
0.3
 40
0.3
 40
0.3
 40
0.3
 40
0.4
 40
0.4
 40
0.4
 40
0.4
 40
0.5
 40
0.5
 40
0.5
 40
0.5
 40
0.6
 40
0.6
 40
0.6
 40
0.6
 40
0.7
 40
0.7
 40
0.7
 40
0.7
 40
0.8
 40
0.8
 40
0.8
 40
0.8
 40
1.0
 40
1.0
 40
1.0
 40
1.0
 10
-52.1536
 20
4.5479
 30
0.0
 10
-52.0831
 20
4.5479
 30
0.0
 10
-52.0144
 20
4.5648
 30
0.0
 10
-51.9486
 20
4.5982
 30
0.0
 10
-51.9486
 20
4.5982
 30
0.0
 10
-51.8823
 20
4.6316
 30
0.0
 10
-51.831
 20
4.6815
 30
0.0
 10
-51.7948
 20
4.7478
 30
0.0
 10
-51.7948
 20
4.7478
 30
0.0
 10
-51.7586
 20
4.8141
 30
0.0
 10
-51.7402
 20
4.8851
 30
0.0
 10
-51.7402
 20
4.9613
 30
0.0
 10
-51.7402
 20
4.9613
 30
0.0
 10
-51.7402
 20
5.0799
 30
0.0
 10
-51.7783
 20
5.1777
 30
0.0
 10
-51.855
 20
5.2548
 30
0.0
 10
-51.855
 20
5.2548
 30
0.0
 10
-51.9312
 20
5.332
 30
0.0
 10
-52.0281
 20
5.3705
 30
0.0
 10
-52.1456
 20
5.3705
 30
0.0
 10
-52.1456
 20
5.3705
 30
0.0
 10
-52.2651
 20
5.3705
 30
0.0
 10
-52.3639
 20
5.331
 30
0.0
 10
-52.442
 20
5.2515
 30
0.0
 10
-52.442
 20
5.2515
 30
0.0
 10
-52.52
 20
5.172
 30
0.0
 10
-52.5591
 20
5.0723
 30
0.0
 10
-52.5591
 20
4.9529
 30
0.0
 10
-52.5591
 20
4.9529
 30
0.0
 10
-52.5591
 20
4.8362
 30
0.0
 10
-52.5205
 20
4.7398
 30
0.0
 10
-52.4434
 20
4.6631
 30
0.0
 10
-52.4434
 20
4.6631
 30
0.0
 10
-52.3658
 20
4.5865
 30
0.0
 10
-52.2693
 20
4.5479
 30
0.0
 10
-52.1536
 20
4.5479
 30
0.0
  0
SPLINE
  5
84
330
1F
100
AcDbEntity
  8
VRSTVA_1
 62
   250
100
AcDbSpline
210
0.0
220
0.0
230
1.0
 70
    24
 71
     3
 72
     8
 73
     4
 74
     0
 42
0.0000000001
 43
0.0000000001
 40
0.0
 40
0.0
 40
0.0
 40
0.0
 40
1.0
 40
1.0
 40
1.0
 40
1.0
 10
-37.6215
 20
22.1836
 30
0.0
 10
-37.6215
 20
22.1836
 30
0.0
 10
-41.4579
 20
22.1836
 30
0.0
 10
-41.4579
 20
22.1836
 30
0.0
  0
SPLINE
  5
85
330
1F
100
AcDbEntity
  8
VRSTVA_1
 62
   250
100
AcDbSpline
210
0.0
220
0.0
230
1.0
 70
    11
 71
     3
 72
   120
 73
   116
 74
     0
 42
0.0000000001
 43
0.0000000001
 40
0.0
 40
0.0
 40
0.0
 40
0.0
 40
0.0333333333333333
 40
0.0333333333333333
 40
0.0333333333333333
 40
0.0333333333333333
 40
0.0666666666666667
 40
0.0666666666666667
 40
0.0666666666666667
 40
0.0666666666666667
 40
0.1
 40
0.1
 40
0.1
 40
0.1
 40
0.1333333333333333
 40
0.1333333333333333
 40
0.1333333333333333
 40
0.1333333333333333
 40
0.1666666666666667
 40
0.1666666666666667
 40
0.1666666666666667
 40
0.1666666666666667
 40
0.2
 40
0.2
 40
0.2
 40
0.2
 40
0.2333333333333333
 40
0.2333333333333333
 40
0.2333333333333333
 40
0.2333333333333333
 40
0.2666666666666667
 40
0.2666666666666667
 40
0.2666666666666667
 40
0.2666666666666667
 40
0.3
 40
0.3
 40
0.3
 40
0.3
 40
0.3333333333333333
 40
0.3333333333333333
 40
0.3333333333333333
 40
0.3333333333333333
 40
0.3666666666666666
 40
0.3666666666666666
 40
0.3666666666666666
 40
0.3666666666666666
 40
0.4
 40
0.4
 40
0.4
 40
0.4
 40
0.4333333333333333
 40
0.4333333333333333
 40
0.4333333333333333
 40
0.4333333333333333
 40
0.4666666666666667
 40
0.4666666666666667
 40
0.4666666666666667
 40
0.4666666666666667
 40
0.5
 40
0.5
 40
0.5
 40
0.5
 40
0.5333333333333333
 40
0.5333333333333333
 40
0.5333333333333333
 40
0.5333333333333333
 40
0.5666666666666667
 40
0.5666666666666667
 40
0.5666666666666667
 40
0.5666666666666667
 40
0.6
 40
0.6
 40
0.6
 40
0.6
 40
0.6333333333333333
 40
0.6333333333333333
 40
0.6333333333333333
 40
0.6333333333333333
 40
0.6666666666666666
 40
0.6666666666666666
 40
0.6666666666666666
 40
0.6666666666666666
 40
0.7
 40
0.7
 40
0.7
 40
0.7
 40
0.7333333333333333
 40
0.7333333333333333
 40
0.7333333333333333
 40
0.7333333333333333
 40
0.7666666666666667
 40
0.7666666666666667
 40
0.7666666666666667
 40
0.7666666666666667
 40
0.8
 40
0.8
 40
0.8
 40
0.8
 40
0.8333333333333334
 40
0.8333333333333334
 40
0.8333333333333334
 40
0.8333333333333334
 40
0.8666666666666667
 40
0.8666666666666667
 40
0.8666666666666667
 40
0.8666666666666667
 40
0.9
 40
0.9
 40
0.9
 40
0.9
 40
0.9333333333333333
 40
0.9333333333333333
 40
0.9333333333333333
 40
0.9333333333333333
 40
1.0
 40
1.0
 40
1.0
 40
1.0
 10
-10.3795
 20
23.7311
 30
0.0
 10
-10.3795
 20
23.7311
 30
0.0
 10
-10.3795
 20
23.9677
 30
0.0
 10
-10.3795
 20
23.9677
 30
0.0
 10
-10.3795
 20
23.9677
 30
0.0
 10
-10.3795
 20
23.9677
 30
0.0
 10
-9.5239
 20
23.9691
 30
0.0
 10
-9.5239
 20
23.9691
 30
0.0
 10
-9.5239
 20
23.9691
 30
0.0
 10
-9.5239
 20
23.9691
 30
0.0
 10
-9.5239
 20
23.2198
 30
0.0
 10
-9.5239
 20
23.2198
 30
0.0
 10
-9.5239
 20
23.2198
 30
0.0
 10
-9.6551
 20
23.1149
 30
0.0
 10
-9.7906
 20
23.0363
 30
0.0
 10
-9.9303
 20
22.9832
 30
0.0
 10
-9.9303
 20
22.9832
 30
0.0
 10
-10.07
 20
22.9305
 30
0.0
 10
-10.2134
 20
22.9042
 30
0.0
 10
-10.3602
 20
22.9042
 30
0.0
 10
-10.3602
 20
22.9042
 30
0.0
 10
-10.5587
 20
22.9042
 30
0.0
 10
-10.7393
 20
22.9465
 30
0.0
 10
-10.9011
 20
23.0316
 30
0.0
 10
-10.9011
 20
23.0316
 30
0.0
 10
-11.0634
 20
23.1163
 30
0.0
 10
-11.1857
 20
23.2395
 30
0.0
 10
-11.2685
 20
23.3999
 30
0.0
 10
-11.2685
 20
23.3999
 30
0.0
 10
-11.3513
 20
23.5608
 30
0.0
 10
-11.3927
 20
23.7405
 30
0.0
 10
-11.3927
 20
23.939
 30
0.0
 10
-11.3927
 20
23.939
 30
0.0
 10
-11.3927
 20
24.1356
 30
0.0
 10
-11.3513
 20
24.319
 30
0.0
 10
-11.2689
 20
24.4893
 30
0.0
 10
-11.2689
 20
24.4893
 30
0.0
 10
-11.1871
 20
24.66
 30
0.0
 10
-11.0686
 20
24.7866
 30
0.0
 10
-10.9143
 20
24.8694
 30
0.0
 10
-10.9143
 20
24.8694
 30
0.0
 10
-10.76
 20
24.9517
 30
0.0
 10
-10.5822
 20
24.9931
 30
0.0
 10
-10.3809
 20
24.9931
 30
0.0
 10
-10.3809
 20
24.9931
 30
0.0
 10
-10.2351
 20
24.9931
 30
0.0
 10
-10.1029
 20
24.9695
 30
0.0
 10
-9.9848
 20
24.922
 30
0.0
 10
-9.9848
 20
24.922
 30
0.0
 10
-9.8668
 20
24.875
 30
0.0
 10
-9.7741
 20
24.8091
 30
0.0
 10
-9.7073
 20
24.7245
 30
0.0
 10
-9.7073
 20
24.7245
 30
0.0
 10
-9.6401
 20
24.6398
 30
0.0
 10
-9.5893
 20
24.5298
 30
0.0
 10
-9.554
 20
24.3938
 30
0.0
 10
-9.554
 20
24.3938
 30
0.0
 10
-9.554
 20
24.3938
 30
0.0
 10
-9.7953
 20
24.3275
 30
0.0
 10
-9.7953
 20
24.3275
 30
0.0
 10
-9.7953
 20
24.3275
 30
0.0
 10
-9.8259
 20
24.4305
 30
0.0
 10
-9.8635
 20
24.5114
 30
0.0
 10
-9.9082
 20
24.5702
 30
0.0
 10
-9.9082
 20
24.5702
 30
0.0
 10
-9.9533
 20
24.629
 30
0.0
 10
-10.0178
 20
24.676
 30
0.0
 10
-10.1015
 20
24.7113
 30
0.0
 10
-10.1015
 20
24.7113
 30
0.0
 10
-10.1848
 20
24.7466
 30
0.0
 10
-10.2779
 20
24.7645
 30
0.0
 10
-10.3795
 20
24.7645
 30
0.0
 10
-10.3795
 20
24.7645
 30
0.0
 10
-10.5018
 20
24.7645
 30
0.0
 10
-10.6076
 20
24.7456
 30
0.0
 10
-10.6965
 20
24.7085
 30
0.0
 10
-10.6965
 20
24.7085
 30
0.0
 10
-10.7859
 20
24.6713
 30
0.0
 10
-10.8574
 20
24.6224
 30
0.0
 10
-10.9124
 20
24.5617
 30
0.0
 10
-10.9124
 20
24.5617
 30
0.0
 10
-10.967
 20
24.5011
 30
0.0
 10
-11.0093
 20
24.4347
 30
0.0
 10
-11.0399
 20
24.3618
 30
0.0
 10
-11.0399
 20
24.3618
 30
0.0
 10
-11.0911
 20
24.2372
 30
0.0
 10
-11.117
 20
24.1017
 30
0.0
 10
-11.117
 20
23.9554
 30
0.0
 10
-11.117
 20
23.9554
 30
0.0
 10
-11.117
 20
23.7753
 30
0.0
 10
-11.086
 20
23.6248
 30
0.0
 10
-11.0239
 20
23.5034
 30
0.0
 10
-11.0239
 20
23.5034
 30
0.0
 10
-10.9618
 20
23.3821
 30
0.0
 10
-10.8715
 20
23.2922
 30
0.0
 10
-10.753
 20
23.2334
 30
0.0
 10
-10.753
 20
23.2334
 30
0.0
 10
-10.6344
 20
23.1746
 30
0.0
 10
-10.5088
 20
23.145
 30
0.0
 10
-10.3757
 20
23.145
 30
0.0
 10
-10.3757
 20
23.145
 30
0.0
 10
-10.2595
 20
23.145
 30
0.0
 10
-10.1467
 20
23.1676
 30
0.0
 10
-10.0366
 20
23.2123
 30
0.0
 10
-10.0366
 20
23.2123
 30
0.0
 10
-9.926
 20
23.2565
 30
0.0
 10
-9.8428
 20
23.304
 30
0.0
 10
-9.7859
 20
23.3548
 30
0.0
 10
-9.7859
 20
23.3548
 30
0.0
 10
-9.7859
 20
23.3548
 30
0.0
 10
-9.7859
 20
23.7311
 30
0.0
 10
-9.7859
 20
23.7311
 30
0.0
 10
-9.7859
 20
23.7311
 30
0.0
 10
-9.7859
 20
23.7311
 30
0.0
 10
-10.3795
 20
23.7311
 30
0.0
 10
-10.3795
 20
23.7311
 30
0.0
  0
SPLINE
  5
86
330
1F
100
AcDbEntity
  8
VRSTVA_1
 62
   250
100
AcDbSpline
210
0.0
220
0.0
230
1.0
 70
    11
 71
     3
 72
    80
 73
    76
 74
     0
 42
0.0000000001
 43
0.0000000001
 40
0.0
 40
0.0
 40
0.0
 40
0.0
 40
0.05
 40
0.05
 40
0.05
 40
0.05
 40
0.1
 40
0.1
 40
0.1
 40
0.1
 40
0.15
 40
0.15
 40
0.15
 40
0.15
 40
0.2
 40
0.2
 40
0.2
 40
0.2
 40
0.25
 40
0.25
 40
0.25
 40
0.25
 40
0.3
 40
0.3
 40
0.3
 40
0.3
 40
0.35
 40
0.35
 40
0.35
 40
0.35
 40
0.4
 40
0.4
 40
0.4
 40
0.4
 40
0.45
 40
0.45
 40
0.45
 40
0.45
 40
0.5
 40
0.5
 40
0.5
 40
0.5
 40
0.55
 40
0.55
 40
0.55
 40
0.55
 40
0.6
 40
0.6
 40
0.6
 40
0.6
 40
0.65
 40
0.65
 40
0.65
 40
0.65
 40
0.7
 40
0.7
 40
0.7
 40
0.7
 40
0.75
 40
0.75
 40
0.75
 40
0.75
 40
0.8
 40
0.8
 40
0.8
 40
0.8
 40
0.85
 40
0.85
 40
0.85
 40
0.85
 40
0.9
 40
0.9
 40
0.9
 40
0.9
 40
1.0
 40
1.0
 40
1.0
 40
1.0
 10
-7.9435
 20
24.4639
 30
0.0
 10
-7.9435
 20
24.4639
 30
0.0
 10
-8.1899
 20
24.4446
 30
0.0
 10
-8.1899
 20
24.4446
 30
0.0
 10
-8.1899
 20
24.4446
 30
0.0
 10
-8.212
 20
24.542
 30
0.0
 10
-8.2431
 20
24.613
 30
0.0
 10
-8.2835
 20
24.6567
 30
0.0
 10
-8.2835
 20
24.6567
 30
0.0
 10
-8.3508
 20
24.7278
 30
0.0
 10
-8.4336
 20
24.7631
 30
0.0
 10
-8.5319
 20
24.7631
 30
0.0
 10
-8.5319
 20
24.7631
 30
0.0
 10
-8.6109
 20
24.7631
 30
0.0
 10
-8.68
 20
24.7409
 30
0.0
 10
-8.7398
 20
24.6967
 30
0.0
 10
-8.7398
 20
24.6967
 30
0.0
 10
-8.8179
 20
24.6398
 30
0.0
 10
-8.8795
 20
24.5566
 30
0.0
 10
-8.9246
 20
24.4474
 30
0.0
 10
-8.9246
 20
24.4474
 30
0.0
 10
-8.9693
 20
24.3383
 30
0.0
 10
-8.9928
 20
24.1826
 30
0.0
 10
-8.9947
 20
23.9804
 30
0.0
 10
-8.9947
 20
23.9804
 30
0.0
 10
-8.935
 20
24.0711
 30
0.0
 10
-8.8621
 20
24.1389
 30
0.0
 10
-8.7755
 20
24.1831
 30
0.0
 10
-8.7755
 20
24.1831
 30
0.0
 10
-8.6895
 20
24.2268
 30
0.0
 10
-8.5987
 20
24.2489
 30
0.0
 10
-8.5041
 20
24.2489
 30
0.0
 10
-8.5041
 20
24.2489
 30
0.0
 10
-8.3386
 20
24.2489
 30
0.0
 10
-8.1979
 20
24.1883
 30
0.0
 10
-8.0817
 20
24.0664
 30
0.0
 10
-8.0817
 20
24.0664
 30
0.0
 10
-7.9656
 20
23.9446
 30
0.0
 10
-7.9072
 20
23.7875
 30
0.0
 10
-7.9072
 20
23.5947
 30
0.0
 10
-7.9072
 20
23.5947
 30
0.0
 10
-7.9072
 20
23.4677
 30
0.0
 10
-7.935
 20
23.3501
 30
0.0
 10
-7.9896
 20
23.2409
 30
0.0
 10
-7.9896
 20
23.2409
 30
0.0
 10
-8.0441
 20
23.1323
 30
0.0
 10
-8.1194
 20
23.0486
 30
0.0
 10
-8.2149
 20
22.9907
 30
0.0
 10
-8.2149
 20
22.9907
 30
0.0
 10
-8.3103
 20
22.9329
 30
0.0
 10
-8.4185
 20
22.9042
 30
0.0
 10
-8.5399
 20
22.9042
 30
0.0
 10
-8.5399
 20
22.9042
 30
0.0
 10
-8.7468
 20
22.9042
 30
0.0
 10
-8.9152
 20
22.9799
 30
0.0
 10
-9.0455
 20
23.1323
 30
0.0
 10
-9.0455
 20
23.1323
 30
0.0
 10
-9.1763
 20
23.2842
 30
0.0
 10
-9.2412
 20
23.5349
 30
0.0
 10
-9.2412
 20
23.8839
 30
0.0
 10
-9.2412
 20
23.8839
 30
0.0
 10
-9.2412
 20
24.2743
 30
0.0
 10
-9.1692
 20
24.558
 30
0.0
 10
-9.0248
 20
24.7353
 30
0.0
 10
-9.0248
 20
24.7353
 30
0.0
 10
-8.8992
 20
24.8896
 30
0.0
 10
-8.7299
 20
24.9672
 30
0.0
 10
-8.5164
 20
24.9672
 30
0.0
 10
-8.5164
 20
24.9672
 30
0.0
 10
-8.3578
 20
24.9672
 30
0.0
 10
-8.2276
 20
24.9225
 30
0.0
 10
-8.126
 20
24.8331
 30
0.0
 10
-8.126
 20
24.8331
 30
0.0
 10
-8.0244
 20
24.7442
 30
0.0
 10
-7.9637
 20
24.621
 30
0.0
 10
-7.9435
 20
24.4639
 30
0.0
  0
SPLINE
  5
87
330
1F
100
AcDbEntity
  8
VRSTVA_1
 62
   250
100
AcDbSpline
210
0.0
220
0.0
230
1.0
 70
    11
 71
     3
 72
    40
 73
    36
 74
     0
 42
0.0000000001
 43
0.0000000001
 40
0.0
 40
0.0
 40
0.0
 40
0.0
 40
0.1
 40
0.1
 40
0.1
 40
0.1
 40
0.2
 40
0.2
 40
0.2
 40
0.2
 40
0.3
 40
0.3
 40
0.3
 40
0.3
 40
0.4
 40
0.4
 40
0.4
 40
0.4
 40
0.5
 40
0.5
 40
0.5
 40
0.5
 40
0.6
 40
0.6
 40
0.6
 40
0.6
 40
0.7
 40
0.7
 40
0.7
 40
0.7
 40
0.8
 40
0.8
 40
0.8
 40
0.8
 40
1.0
 40
1.0
 40
1.0
 40
1.0
 10
-8.9562
 20
23.5933
 30
0.0
 10
-8.9562
 20
23.5076
 30
0.0
 10
-8.9378
 20
23.4258
 30
0.0
 10
-8.9016
 20
23.3477
 30
0.0
 10
-8.9016
 20
23.3477
 30
0.0
 10
-8.8654
 20
23.2696
 30
0.0
 10
-8.8146
 20
23.2104
 30
0.0
 10
-8.7497
 20
23.1695
 30
0.0
 10
-8.7497
 20
23.1695
 30
0.0
 10
-8.6843
 20
23.1285
 30
0.0
 10
-8.6156
 20
23.1078
 30
0.0
 10
-8.5441
 20
23.1078
 30
0.0
 10
-8.5441
 20
23.1078
 30
0.0
 10
-8.4392
 20
23.1078
 30
0.0
 10
-8.3494
 20
23.1502
 30
0.0
 10
-8.2741
 20
23.2348
 30
0.0
 10
-8.2741
 20
23.2348
 30
0.0
 10
-8.1989
 20
23.3195
 30
0.0
 10
-8.1612
 20
23.4343
 30
0.0
 10
-8.1612
 20
23.5791
 30
0.0
 10
-8.1612
 20
23.5791
 30
0.0
 10
-8.1612
 20
23.7188
 30
0.0
 10
-8.1984
 20
23.8289
 30
0.0
 10
-8.2727
 20
23.9093
 30
0.0
 10
-8.2727
 20
23.9093
 30
0.0
 10
-8.347
 20
23.9898
 30
0.0
 10
-8.4406
 20
24.0298
 30
0.0
 10
-8.5535
 20
24.0298
 30
0.0
 10
-8.5535
 20
24.0298
 30
0.0
 10
-8.6659
 20
24.0298
 30
0.0
 10
-8.761
 20
23.9898
 30
0.0
 10
-8.839
 20
23.9093
 30
0.0
 10
-8.839
 20
23.9093
 30
0.0
 10
-8.9171
 20
23.8289
 30
0.0
 10
-8.9562
 20
23.7235
 30
0.0
 10
-8.9562
 20
23.5933
 30
0.0
  0
SPLINE
  5
88
330
1F
100
AcDbEntity
  8
VRSTVA_1
 62
   250
100
AcDbSpline
210
0.0
220
0.0
230
1.0
 70
    11
 71
     3
 72
    20
 73
    16
 74
     0
 42
0.0000000001
 43
0.0000000001
 40
0.0
 40
0.0
 40
0.0
 40
0.0
 40
0.2
 40
0.2
 40
0.2
 40
0.2
 40
0.4
 40
0.4
 40
0.4
 40
0.4
 40
0.6
 40
0.6
 40
0.6
 40
0.6
 40
1.0
 40
1.0
 40
1.0
 40
1.0
 10
-7.7779
 20
22.9042
 30
0.0
 10
-7.7779
 20
22.9042
 30
0.0
 10
-7.1923
 20
24.9931
 30
0.0
 10
-7.1923
 20
24.9931
 30
0.0
 10
-7.1923
 20
24.9931
 30
0.0
 10
-7.1923
 20
24.9931
 30
0.0
 10
-6.9938
 20
24.9931
 30
0.0
 10
-6.9938
 20
24.9931
 30
0.0
 10
-6.9938
 20
24.9931
 30
0.0
 10
-6.9938
 20
24.9931
 30
0.0
 10
-7.578
 20
22.9042
 30
0.0
 10
-7.578
 20
22.9042
 30
0.0
 10
-7.578
 20
22.9042
 30
0.0
 10
-7.578
 20
22.9042
 30
0.0
 10
-7.7779
 20
22.9042
 30
0.0
 10
-7.7779
 20
22.9042
 30
0.0
  0
SPLINE
  5
89
330
1F
100
AcDbEntity
  8
VRSTVA_1
 62
   250
100
AcDbSpline
210
0.0
220
0.0
230
1.0
 70
    11
 71
     3
 72
    48
 73
    44
 74
     0
 42
0.0000000001
 43
0.0000000001
 40
0.0
 40
0.0
 40
0.0
 40
0.0
 40
0.0833333333333333
 40
0.0833333333333333
 40
0.0833333333333333
 40
0.0833333333333333
 40
0.1666666666666667
 40
0.1666666666666667
 40
0.1666666666666667
 40
0.1666666666666667
 40
0.25
 40
0.25
 40
0.25
 40
0.25
 40
0.3333333333333333
 40
0.3333333333333333
 40
0.3333333333333333
 40
0.3333333333333333
 40
0.4166666666666667
 40
0.4166666666666667
 40
0.4166666666666667
 40
0.4166666666666667
 40
0.5
 40
0.5
 40
0.5
 40
0.5
 40
0.5833333333333334
 40
0.5833333333333334
 40
0.5833333333333334
 40
0.5833333333333334
 40
0.6666666666666666
 40
0.6666666666666666
 40
0.6666666666666666
 40
0.6666666666666666
 40
0.75
 40
0.75
 40
0.75
 40
0.75
 40
0.8333333333333334
 40
0.8333333333333334
 40
0.8333333333333334
 40
0.8333333333333334
 40
1.0
 40
1.0
 40
1.0
 40
1.0
 10
-6.0818
 20
22.9385
 30
0.0
 10
-6.0818
 20
22.9385
 30
0.0
 10
-6.0818
 20
23.422
 30
0.0
 10
-6.0818
 20
23.422
 30
0.0
 10
-6.0818
 20
23.422
 30
0.0
 10
-6.0818
 20
23.422
 30
0.0
 10
-6.9581
 20
23.422
 30
0.0
 10
-6.9581
 20
23.422
 30
0.0
 10
-6.9581
 20
23.422
 30
0.0
 10
-6.9581
 20
23.422
 30
0.0
 10
-6.9581
 20
23.6497
 30
0.0
 10
-6.9581
 20
23.6497
 30
0.0
 10
-6.9581
 20
23.6497
 30
0.0
 10
-6.9581
 20
23.6497
 30
0.0
 10
-6.0361
 20
24.9587
 30
0.0
 10
-6.0361
 20
24.9587
 30
0.0
 10
-6.0361
 20
24.9587
 30
0.0
 10
-6.0361
 20
24.9587
 30
0.0
 10
-5.8334
 20
24.9587
 30
0.0
 10
-5.8334
 20
24.9587
 30
0.0
 10
-5.8334
 20
24.9587
 30
0.0
 10
-5.8334
 20
24.9587
 30
0.0
 10
-5.8334
 20
23.6497
 30
0.0
 10
-5.8334
 20
23.6497
 30
0.0
 10
-5.8334
 20
23.6497
 30
0.0
 10
-5.8334
 20
23.6497
 30
0.0
 10
-5.5606
 20
23.6497
 30
0.0
 10
-5.5606
 20
23.6497
 30
0.0
 10
-5.5606
 20
23.6497
 30
0.0
 10
-5.5606
 20
23.6497
 30
0.0
 10
-5.5606
 20
23.422
 30
0.0
 10
-5.5606
 20
23.422
 30
0.0
 10
-5.5606
 20
23.422
 30
0.0
 10
-5.5606
 20
23.422
 30
0.0
 10
-5.8334
 20
23.422
 30
0.0
 10
-5.8334
 20
23.422
 30
0.0
 10
-5.8334
 20
23.422
 30
0.0
 10
-5.8334
 20
23.422
 30
0.0
 10
-5.8334
 20
22.9385
 30
0.0
 10
-5.8334
 20
22.9385
 30
0.0
 10
-5.8334
 20
22.9385
 30
0.0
 10
-5.8334
 20
22.9385
 30
0.0
 10
-6.0818
 20
22.9385
 30
0.0
 10
-6.0818
 20
22.9385
 30
0.0
  0
SPLINE
  5
8A
330
1F
100
AcDbEntity
  8
VRSTVA_1
 62
   250
100
AcDbSpline
210
0.0
220
0.0
230
1.0
 70
    11
 71
     3
 72
    16
 73
    12
 74
     0
 42
0.0000000001
 43
0.0000000001
 40
0.0
 40
0.0
 40
0.0
 40
0.0
 40
0.25
 40
0.25
 40
0.25
 40
0.25
 40
0.5
 40
0.5
 40
0.5
 40
0.5
 40
1.0
 40
1.0
 40
1.0
 40
1.0
 10
-6.0818
 20
23.6497
 30
0.0
 10
-6.0818
 20
23.6497
 30
0.0
 10
-6.0818
 20
24.5603
 30
0.0
 10
-6.0818
 20
24.5603
 30
0.0
 10
-6.0818
 20
24.5603
 30
0.0
 10
-6.0818
 20
24.5603
 30
0.0
 10
-6.7139
 20
23.6497
 30
0.0
 10
-6.7139
 20
23.6497
 30
0.0
 10
-6.7139
 20
23.6497
 30
0.0
 10
-6.7139
 20
23.6497
 30
0.0
 10
-6.0818
 20
23.6497
 30
0.0
 10
-6.0818
 20
23.6497
 30
0.0
  0
SPLINE
  5
8B
330
1F
100
AcDbEntity
  8
VRSTVA_1
 62
   250
100
AcDbSpline
210
0.0
220
0.0
230
1.0
 70
    11
 71
     3
 72
    28
 73
    24
 74
     0
 42
0.0000000001
 43
0.0000000001
 40
0.0
 40
0.0
 40
0.0
 40
0.0
 40
0.1428571428571428
 40
0.1428571428571428
 40
0.1428571428571428
 40
0.1428571428571428
 40
0.2857142857142857
 40
0.2857142857142857
 40
0.2857142857142857
 40
0.2857142857142857
 40
0.4285714285714285
 40
0.4285714285714285
 40
0.4285714285714285
 40
0.4285714285714285
 40
0.5714285714285714
 40
0.5714285714285714
 40
0.5714285714285714
 40
0.5714285714285714
 40
0.7142857142857143
 40
0.7142857142857143
 40
0.7142857142857143
 40
0.7142857142857143
 40
1.0
 40
1.0
 40
1.0
 40
1.0
 10
-5.2257
 20
24.2433
 30
0.0
 10
-5.2257
 20
24.2433
 30
0.0
 10
-5.2948
 20
24.6281
 30
0.0
 10
-5.2948
 20
24.6281
 30
0.0
 10
-5.2948
 20
24.6281
 30
0.0
 10
-5.2948
 20
24.6281
 30
0.0
 10
-5.2948
 20
24.9587
 30
0.0
 10
-5.2948
 20
24.9587
 30
0.0
 10
-5.2948
 20
24.9587
 30
0.0
 10
-5.2948
 20
24.9587
 30
0.0
 10
-5.0122
 20
24.9587
 30
0.0
 10
-5.0122
 20
24.9587
 30
0.0
 10
-5.0122
 20
24.9587
 30
0.0
 10
-5.0122
 20
24.9587
 30
0.0
 10
-5.0122
 20
24.6281
 30
0.0
 10
-5.0122
 20
24.6281
 30
0.0
 10
-5.0122
 20
24.6281
 30
0.0
 10
-5.0122
 20
24.6281
 30
0.0
 10
-5.0742
 20
24.2433
 30
0.0
 10
-5.0742
 20
24.2433
 30
0.0
 10
-5.0742
 20
24.2433
 30
0.0
 10
-5.0742
 20
24.2433
 30
0.0
 10
-5.2257
 20
24.2433
 30
0.0
 10
-5.2257
 20
24.2433
 30
0.0
  0
SPLINE
  5
8C
330
1F
100
AcDbEntity
  8
VRSTVA_1
 62
   250
100
AcDbSpline
210
0.0
220
0.0
230
1.0
 70
    11
 71
     3
 72
    28
 73
    24
 74
     0
 42
0.0000000001
 43
0.0000000001
 40
0.0
 40
0.0
 40
0.0
 40
0.0
 40
0.1428571428571428
 40
0.1428571428571428
 40
0.1428571428571428
 40
0.1428571428571428
 40
0.2857142857142857
 40
0.2857142857142857
 40
0.2857142857142857
 40
0.2857142857142857
 40
0.4285714285714285
 40
0.4285714285714285
 40
0.4285714285714285
 40
0.4285714285714285
 40
0.5714285714285714
 40
0.5714285714285714
 40
0.5714285714285714
 40
0.5714285714285714
 40
0.7142857142857143
 40
0.7142857142857143
 40
0.7142857142857143
 40
0.7142857142857143
 40
1.0
 40
1.0
 40
1.0
 40
1.0
 10
-4.7694
 20
24.2433
 30
0.0
 10
-4.7694
 20
24.2433
 30
0.0
 10
-4.8372
 20
24.6281
 30
0.0
 10
-4.8372
 20
24.6281
 30
0.0
 10
-4.8372
 20
24.6281
 30
0.0
 10
-4.8372
 20
24.6281
 30
0.0
 10
-4.8372
 20
24.9587
 30
0.0
 10
-4.8372
 20
24.9587
 30
0.0
 10
-4.8372
 20
24.9587
 30
0.0
 10
-4.8372
 20
24.9587
 30
0.0
 10
-4.5545
 20
24.9587
 30
0.0
 10
-4.5545
 20
24.9587
 30
0.0
 10
-4.5545
 20
24.9587
 30
0.0
 10
-4.5545
 20
24.9587
 30
0.0
 10
-4.5545
 20
24.6281
 30
0.0
 10
-4.5545
 20
24.6281
 30
0.0
 10
-4.5545
 20
24.6281
 30
0.0
 10
-4.5545
 20
24.6281
 30
0.0
 10
-4.6208
 20
24.2433
 30
0.0
 10
-4.6208
 20
24.2433
 30
0.0
 10
-4.6208
 20
24.2433
 30
0.0
 10
-4.6208
 20
24.2433
 30
0.0
 10
-4.7694
 20
24.2433
 30
0.0
 10
-4.7694
 20
24.2433
 30
0.0
  0
SPLINE
  5
8D
330
1F
100
AcDbEntity
  8
VRSTVA_1
 62
   250
100
AcDbSpline
210
0.0
220
0.0
230
1.0
 70
    11
 71
     3
 72
    44
 73
    40
 74
     0
 42
0.0000000001
 43
0.0000000001
 40
0.0
 40
0.0
 40
0.0
 40
0.0
 40
0.0909090909090909
 40
0.0909090909090909
 40
0.0909090909090909
 40
0.0909090909090909
 40
0.1818181818181818
 40
0.1818181818181818
 40
0.1818181818181818
 40
0.1818181818181818
 40
0.2727272727272727
 40
0.2727272727272727
 40
0.2727272727272727
 40
0.2727272727272727
 40
0.3636363636363636
 40
0.3636363636363636
 40
0.3636363636363636
 40
0.3636363636363636
 40
0.4545454545454545
 40
0.4545454545454545
 40
0.4545454545454545
 40
0.4545454545454545
 40
0.5454545454545454
 40
0.5454545454545454
 40
0.5454545454545454
 40
0.5454545454545454
 40
0.6363636363636364
 40
0.6363636363636364
 40
0.6363636363636364
 40
0.6363636363636364
 40
0.7272727272727273
 40
0.7272727272727273
 40
0.7272727272727273
 40
0.7272727272727273
 40
0.8181818181818182
 40
0.8181818181818182
 40
0.8181818181818182
 40
0.8181818181818182
 40
1.0
 40
1.0
 40
1.0
 40
1.0
 10
-2.9783
 20
22.3444
 30
0.0
 10
-3.1152
 20
22.5171
 30
0.0
 10
-3.2309
 20
22.7193
 30
0.0
 10
-3.3254
 20
22.9507
 30
0.0
 10
-3.3254
 20
22.9507
 30
0.0
 10
-3.4199
 20
23.1826
 30
0.0
 10
-3.4675
 20
23.422
 30
0.0
 10
-3.4675
 20
23.6704
 30
0.0
 10
-3.4675
 20
23.6704
 30
0.0
 10
-3.4675
 20
23.8891
 30
0.0
 10
-3.4322
 20
24.0984
 30
0.0
 10
-3.3612
 20
24.2988
 30
0.0
 10
-3.3612
 20
24.2988
 30
0.0
 10
-3.2784
 20
24.5312
 30
0.0
 10
-3.1509
 20
24.7626
 30
0.0
 10
-2.9783
 20
24.9931
 30
0.0
 10
-2.9783
 20
24.9931
 30
0.0
 10
-2.9783
 20
24.9931
 30
0.0
 10
-2.8005
 20
24.9931
 30
0.0
 10
-2.8005
 20
24.9931
 30
0.0
 10
-2.8005
 20
24.9931
 30
0.0
 10
-2.9115
 20
24.8021
 30
0.0
 10
-2.9849
 20
24.6657
 30
0.0
 10
-3.0206
 20
24.5838
 30
0.0
 10
-3.0206
 20
24.5838
 30
0.0
 10
-3.0771
 20
24.4573
 30
0.0
 10
-3.1208
 20
24.3247
 30
0.0
 10
-3.1533
 20
24.1869
 30
0.0
 10
-3.1533
 20
24.1869
 30
0.0
 10
-3.1928
 20
24.0152
 30
0.0
 10
-3.2125
 20
23.8425
 30
0.0
 10
-3.2125
 20
23.669
 30
0.0
 10
-3.2125
 20
23.669
 30
0.0
 10
-3.2125
 20
23.2268
 30
0.0
 10
-3.0752
 20
22.7856
 30
0.0
 10
-2.8005
 20
22.3444
 30
0.0
 10
-2.8005
 20
22.3444
 30
0.0
 10
-2.8005
 20
22.3444
 30
0.0
 10
-2.9783
 20
22.3444
 30
0.0
 10
-2.9783
 20
22.3444
 30
0.0
  0
SPLINE
  5
8E
330
1F
100
AcDbEntity
  8
VRSTVA_1
 62
   250
100
AcDbSpline
210
0.0
220
0.0
230
1.0
 70
    11
 71
     3
 72
    84
 73
    80
 74
     0
 42
0.0000000001
 43
0.0000000001
 40
0.0
 40
0.0
 40
0.0
 40
0.0
 40
0.0476190476190476
 40
0.0476190476190476
 40
0.0476190476190476
 40
0.0476190476190476
 40
0.0952380952380952
 40
0.0952380952380952
 40
0.0952380952380952
 40
0.0952380952380952
 40
0.1428571428571428
 40
0.1428571428571428
 40
0.1428571428571428
 40
0.1428571428571428
 40
0.1904761904761905
 40
0.1904761904761905
 40
0.1904761904761905
 40
0.1904761904761905
 40
0.2380952380952381
 40
0.2380952380952381
 40
0.2380952380952381
 40
0.2380952380952381
 40
0.2857142857142857
 40
0.2857142857142857
 40
0.2857142857142857
 40
0.2857142857142857
 40
0.3333333333333333
 40
0.3333333333333333
 40
0.3333333333333333
 40
0.3333333333333333
 40
0.3809523809523809
 40
0.3809523809523809
 40
0.3809523809523809
 40
0.3809523809523809
 40
0.4285714285714285
 40
0.4285714285714285
 40
0.4285714285714285
 40
0.4285714285714285
 40
0.4761904761904762
 40
0.4761904761904762
 40
0.4761904761904762
 40
0.4761904761904762
 40
0.5238095238095238
 40
0.5238095238095238
 40
0.5238095238095238
 40
0.5238095238095238
 40
0.5714285714285714
 40
0.5714285714285714
 40
0.5714285714285714
 40
0.5714285714285714
 40
0.6190476190476191
 40
0.6190476190476191
 40
0.6190476190476191
 40
0.6190476190476191
 40
0.6666666666666666
 40
0.6666666666666666
 40
0.6666666666666666
 40
0.6666666666666666
 40
0.7142857142857143
 40
0.7142857142857143
 40
0.7142857142857143
 40
0.7142857142857143
 40
0.7619047619047619
 40
0.7619047619047619
 40
0.7619047619047619
 40
0.7619047619047619
 40
0.8095238095238095
 40
0.8095238095238095
 40
0.8095238095238095
 40
0.8095238095238095
 40
0.8571428571428571
 40
0.8571428571428571
 40
0.8571428571428571
 40
0.8571428571428571
 40
0.9047619047619048
 40
0.9047619047619048
 40
0.9047619047619048
 40
0.9047619047619048
 40
1.0
 40
1.0
 40
1.0
 40
1.0
 10
-0.9759
 20
24.7739
 30
0.0
 10
-0.9759
 20
24.7739
 30
0.0
 10
-0.7445
 20
25.033
 30
0.0
 10
-0.7445
 20
25.033
 30
0.0
 10
-0.7445
 20
25.033
 30
0.0
 10
-0.7445
 20
25.033
 30
0.0
 10
-0.6081
 20
24.9173
 30
0.0
 10
-0.6081
 20
24.9173
 30
0.0
 10
-0.6081
 20
24.9173
 30
0.0
 10
-0.6081
 20
24.9173
 30
0.0
 10
-0.8503
 20
24.6445
 30
0.0
 10
-0.8503
 20
24.6445
 30
0.0
 10
-0.8503
 20
24.6445
 30
0.0
 10
-0.7713
 20
24.5269
 30
0.0
 10
-0.7182
 20
24.4239
 30
0.0
 10
-0.6904
 20
24.336
 30
0.0
 10
-0.6904
 20
24.336
 30
0.0
 10
-0.6537
 20
24.2202
 30
0.0
 10
-0.6354
 20
24.0904
 30
0.0
 10
-0.6354
 20
23.9474
 30
0.0
 10
-0.6354
 20
23.9474
 30
0.0
 10
-0.6354
 20
23.7405
 30
0.0
 10
-0.6772
 20
23.5561
 30
0.0
 10
-0.761
 20
23.3948
 30
0.0
 10
-0.761
 20
23.3948
 30
0.0
 10
-0.8447
 20
23.2329
 30
0.0
 10
-0.9618
 20
23.1107
 30
0.0
 10
-1.1128
 20
23.0279
 30
0.0
 10
-1.1128
 20
23.0279
 30
0.0
 10
-1.2643
 20
22.9456
 30
0.0
 10
-1.4246
 20
22.9042
 30
0.0
 10
-1.5944
 20
22.9042
 30
0.0
 10
-1.5944
 20
22.9042
 30
0.0
 10
-1.7214
 20
22.9042
 30
0.0
 10
-1.8362
 20
22.922
 30
0.0
 10
-1.9392
 20
22.9578
 30
0.0
 10
-1.9392
 20
22.9578
 30
0.0
 10
-2.0182
 20
22.9855
 30
0.0
 10
-2.1104
 20
23.0382
 30
0.0
 10
-2.2163
 20
23.1163
 30
0.0
 10
-2.2163
 20
23.1163
 30
0.0
 10
-2.2163
 20
23.1163
 30
0.0
 10
-2.4477
 20
22.8571
 30
0.0
 10
-2.4477
 20
22.8571
 30
0.0
 10
-2.4477
 20
22.8571
 30
0.0
 10
-2.4477
 20
22.8571
 30
0.0
 10
-2.5841
 20
22.9728
 30
0.0
 10
-2.5841
 20
22.9728
 30
0.0
 10
-2.5841
 20
22.9728
 30
0.0
 10
-2.5841
 20
22.9728
 30
0.0
 10
-2.3414
 20
23.2442
 30
0.0
 10
-2.3414
 20
23.2442
 30
0.0
 10
-2.3414
 20
23.2442
 30
0.0
 10
-2.4317
 20
23.3811
 30
0.0
 10
-2.4919
 20
23.4982
 30
0.0
 10
-2.522
 20
23.5951
 30
0.0
 10
-2.522
 20
23.5951
 30
0.0
 10
-2.5521
 20
23.692
 30
0.0
 10
-2.5676
 20
23.8087
 30
0.0
 10
-2.5676
 20
23.9446
 30
0.0
 10
-2.5676
 20
23.9446
 30
0.0
 10
-2.5676
 20
24.152
 30
0.0
 10
-2.5262
 20
24.3369
 30
0.0
 10
-2.4435
 20
24.4992
 30
0.0
 10
-2.4435
 20
24.4992
 30
0.0
 10
-2.3607
 20
24.6615
 30
0.0
 10
-2.245
 20
24.7842
 30
0.0
 10
-2.0954
 20
24.8679
 30
0.0
 10
-2.0954
 20
24.8679
 30
0.0
 10
-1.9463
 20
24.9512
 30
0.0
 10
-1.7802
 20
24.9931
 30
0.0
 10
-1.5973
 20
24.9931
 30
0.0
 10
-1.5973
 20
24.9931
 30
0.0
 10
-1.474
 20
24.9931
 30
0.0
 10
-1.3663
 20
24.9771
 30
0.0
 10
-1.2741
 20
24.9441
 30
0.0
 10
-1.2741
 20
24.9441
 30
0.0
 10
-1.1819
 20
24.9117
 30
0.0
 10
-1.0822
 20
24.8548
 30
0.0
 10
-0.9759
 20
24.7739
 30
0.0
  0
SPLINE
  5
8F
330
1F
100
AcDbEntity
  8
VRSTVA_1
 62
   250
100
AcDbSpline
210
0.0
220
0.0
230
1.0
 70
    11
 71
     3
 72
    32
 73
    28
 74
     0
 42
0.0000000001
 43
0.0000000001
 40
0.0
 40
0.0
 40
0.0
 40
0.0
 40
0.125
 40
0.125
 40
0.125
 40
0.125
 40
0.25
 40
0.25
 40
0.25
 40
0.25
 40
0.375
 40
0.375
 40
0.375
 40
0.375
 40
0.5
 40
0.5
 40
0.5
 40
0.5
 40
0.625
 40
0.625
 40
0.625
 40
0.625
 40
0.75
 40
0.75
 40
0.75
 40
0.75
 40
1.0
 40
1.0
 40
1.0
 40
1.0
 10
-1.141
 20
24.5881
 30
0.0
 10
-1.2276
 20
24.6558
 30
0.0
 10
-1.3033
 20
24.7024
 30
0.0
 10
-1.3677
 20
24.7273
 30
0.0
 10
-1.3677
 20
24.7273
 30
0.0
 10
-1.4326
 20
24.7518
 30
0.0
 10
-1.5088
 20
24.7645
 30
0.0
 10
-1.5959
 20
24.7645
 30
0.0
 10
-1.5959
 20
24.7645
 30
0.0
 10
-1.7972
 20
24.7645
 30
0.0
 10
-1.9632
 20
24.6963
 30
0.0
 10
-2.0949
 20
24.5599
 30
0.0
 10
-2.0949
 20
24.5599
 30
0.0
 10
-2.2262
 20
24.4234
 30
0.0
 10
-2.292
 20
24.2198
 30
0.0
 10
-2.292
 20
23.9484
 30
0.0
 10
-2.292
 20
23.9484
 30
0.0
 10
-2.292
 20
23.8421
 30
0.0
 10
-2.2817
 20
23.7475
 30
0.0
 10
-2.2614
 20
23.6647
 30
0.0
 10
-2.2614
 20
23.6647
 30
0.0
 10
-2.2468
 20
23.6031
 30
0.0
 10
-2.2163
 20
23.5274
 30
0.0
 10
-2.1692
 20
23.4376
 30
0.0
 10
-2.1692
 20
23.4376
 30
0.0
 10
-2.1692
 20
23.4376
 30
0.0
 10
-1.141
 20
24.5881
 30
0.0
 10
-1.141
 20
24.5881
 30
0.0
  0
SPLINE
  5
90
330
1F
100
AcDbEntity
  8
VRSTVA_1
 62
   250
100
AcDbSpline
210
0.0
220
0.0
230
1.0
 70
    11
 71
     3
 72
    28
 73
    24
 74
     0
 42
0.0000000001
 43
0.0000000001
 40
0.0
 40
0.0
 40
0.0
 40
0.0
 40
0.1428571428571428
 40
0.1428571428571428
 40
0.1428571428571428
 40
0.1428571428571428
 40
0.2857142857142857
 40
0.2857142857142857
 40
0.2857142857142857
 40
0.2857142857142857
 40
0.4285714285714285
 40
0.4285714285714285
 40
0.4285714285714285
 40
0.4285714285714285
 40
0.5714285714285714
 40
0.5714285714285714
 40
0.5714285714285714
 40
0.5714285714285714
 40
0.7142857142857143
 40
0.7142857142857143
 40
0.7142857142857143
 40
0.7142857142857143
 40
1.0
 40
1.0
 40
1.0
 40
1.0
 10
-1.0281
 20
24.446
 30
0.0
 10
-1.0281
 20
24.446
 30
0.0
 10
-2.0521
 20
23.2997
 30
0.0
 10
-2.0521
 20
23.2997
 30
0.0
 10
-2.0521
 20
23.2997
 30
0.0
 10
-1.9816
 20
23.2419
 30
0.0
 10
-1.9162
 20
23.2014
 30
0.0
 10
-1.8564
 20
23.1784
 30
0.0
 10
-1.8564
 20
23.1784
 30
0.0
 10
-1.7784
 20
23.1478
 30
0.0
 10
-1.6937
 20
23.1328
 30
0.0
 10
-1.6029
 20
23.1328
 30
0.0
 10
-1.6029
 20
23.1328
 30
0.0
 10
-1.4025
 20
23.1328
 30
0.0
 10
-1.2374
 20
23.2033
 30
0.0
 10
-1.1067
 20
23.3449
 30
0.0
 10
-1.1067
 20
23.3449
 30
0.0
 10
-0.9764
 20
23.4865
 30
0.0
 10
-0.911
 20
23.685
 30
0.0
 10
-0.911
 20
23.9404
 30
0.0
 10
-0.911
 20
23.9404
 30
0.0
 10
-0.911
 20
24.1313
 30
0.0
 10
-0.95
 20
24.3002
 30
0.0
 10
-1.0281
 20
24.446
 30
0.0
  0
SPLINE
  5
91
330
1F
100
AcDbEntity
  8
VRSTVA_1
 62
   250
100
AcDbSpline
210
0.0
220
0.0
230
1.0
 70
    11
 71
     3
 72
    48
 73
    44
 74
     0
 42
0.0000000001
 43
0.0000000001
 40
0.0
 40
0.0
 40
0.0
 40
0.0
 40
0.0833333333333333
 40
0.0833333333333333
 40
0.0833333333333333
 40
0.0833333333333333
 40
0.1666666666666667
 40
0.1666666666666667
 40
0.1666666666666667
 40
0.1666666666666667
 40
0.25
 40
0.25
 40
0.25
 40
0.25
 40
0.3333333333333333
 40
0.3333333333333333
 40
0.3333333333333333
 40
0.3333333333333333
 40
0.4166666666666667
 40
0.4166666666666667
 40
0.4166666666666667
 40
0.4166666666666667
 40
0.5
 40
0.5
 40
0.5
 40
0.5
 40
0.5833333333333334
 40
0.5833333333333334
 40
0.5833333333333334
 40
0.5833333333333334
 40
0.6666666666666666
 40
0.6666666666666666
 40
0.6666666666666666
 40
0.6666666666666666
 40
0.75
 40
0.75
 40
0.75
 40
0.75
 40
0.8333333333333334
 40
0.8333333333333334
 40
0.8333333333333334
 40
0.8333333333333334
 40
1.0
 40
1.0
 40
1.0
 40
1.0
 10
0.4088
 20
22.9385
 30
0.0
 10
0.4088
 20
22.9385
 30
0.0
 10
0.4088
 20
23.422
 30
0.0
 10
0.4088
 20
23.422
 30
0.0
 10
0.4088
 20
23.422
 30
0.0
 10
0.4088
 20
23.422
 30
0.0
 10
-0.4675
 20
23.422
 30
0.0
 10
-0.4675
 20
23.422
 30
0.0
 10
-0.4675
 20
23.422
 30
0.0
 10
-0.4675
 20
23.422
 30
0.0
 10
-0.4675
 20
23.6497
 30
0.0
 10
-0.4675
 20
23.6497
 30
0.0
 10
-0.4675
 20
23.6497
 30
0.0
 10
-0.4675
 20
23.6497
 30
0.0
 10
0.4545
 20
24.9587
 30
0.0
 10
0.4545
 20
24.9587
 30
0.0
 10
0.4545
 20
24.9587
 30
0.0
 10
0.4545
 20
24.9587
 30
0.0
 10
0.6572
 20
24.9587
 30
0.0
 10
0.6572
 20
24.9587
 30
0.0
 10
0.6572
 20
24.9587
 30
0.0
 10
0.6572
 20
24.9587
 30
0.0
 10
0.6572
 20
23.6497
 30
0.0
 10
0.6572
 20
23.6497
 30
0.0
 10
0.6572
 20
23.6497
 30
0.0
 10
0.6572
 20
23.6497
 30
0.0
 10
0.93
 20
23.6497
 30
0.0
 10
0.93
 20
23.6497
 30
0.0
 10
0.93
 20
23.6497
 30
0.0
 10
0.93
 20
23.6497
 30
0.0
 10
0.93
 20
23.422
 30
0.0
 10
0.93
 20
23.422
 30
0.0
 10
0.93
 20
23.422
 30
0.0
 10
0.93
 20
23.422
 30
0.0
 10
0.6572
 20
23.422
 30
0.0
 10
0.6572
 20
23.422
 30
0.0
 10
0.6572
 20
23.422
 30
0.0
 10
0.6572
 20
23.422
 30
0.0
 10
0.6572
 20
22.9385
 30
0.0
 10
0.6572
 20
22.9385
 30
0.0
 10
0.6572
 20
22.9385
 30
0.0
 10
0.6572
 20
22.9385
 30
0.0
 10
0.4088
 20
22.9385
 30
0.0
 10
0.4088
 20
22.9385
 30
0.0
  0
SPLINE
  5
92
330
1F
100
AcDbEntity
  8
VRSTVA_1
 62
   250
100
AcDbSpline
210
0.0
220
0.0
230
1.0
 70
    11
 71
     3
 72
    16
 73
    12
 74
     0
 42
0.0000000001
 43
0.0000000001
 40
0.0
 40
0.0
 40
0.0
 40
0.0
 40
0.25
 40
0.25
 40
0.25
 40
0.25
 40
0.5
 40
0.5
 40
0.5
 40
0.5
 40
1.0
 40
1.0
 40
1.0
 40
1.0
 10
0.4088
 20
23.6497
 30
0.0
 10
0.4088
 20
23.6497
 30
0.0
 10
0.4088
 20
24.5603
 30
0.0
 10
0.4088
 20
24.5603
 30
0.0
 10
0.4088
 20
24.5603
 30
0.0
 10
0.4088
 20
24.5603
 30
0.0
 10
-0.2233
 20
23.6497
 30
0.0
 10
-0.2233
 20
23.6497
 30
0.0
 10
-0.2233
 20
23.6497
 30
0.0
 10
-0.2233
 20
23.6497
 30
0.0
 10
0.4088
 20
23.6497
 30
0.0
 10
0.4088
 20
23.6497
 30
0.0
  0
SPLINE
  5
93
330
1F
100
AcDbEntity
  8
VRSTVA_1
 62
   250
100
AcDbSpline
210
0.0
220
0.0
230
1.0
 70
    11
 71
     3
 72
    68
 73
    64
 74
     0
 42
0.0000000001
 43
0.0000000001
 40
0.0
 40
0.0
 40
0.0
 40
0.0
 40
0.0588235294117647
 40
0.0588235294117647
 40
0.0588235294117647
 40
0.0588235294117647
 40
0.1176470588235294
 40
0.1176470588235294
 40
0.1176470588235294
 40
0.1176470588235294
 40
0.1764705882352941
 40
0.1764705882352941
 40
0.1764705882352941
 40
0.1764705882352941
 40
0.2352941176470588
 40
0.2352941176470588
 40
0.2352941176470588
 40
0.2352941176470588
 40
0.2941176470588235
 40
0.2941176470588235
 40
0.2941176470588235
 40
0.2941176470588235
 40
0.3529411764705883
 40
0.3529411764705883
 40
0.3529411764705883
 40
0.3529411764705883
 40
0.4117647058823529
 40
0.4117647058823529
 40
0.4117647058823529
 40
0.4117647058823529
 40
0.4705882352941176
 40
0.4705882352941176
 40
0.4705882352941176
 40
0.4705882352941176
 40
0.5294117647058824
 40
0.5294117647058824
 40
0.5294117647058824
 40
0.5294117647058824
 40
0.5882352941176471
 40
0.5882352941176471
 40
0.5882352941176471
 40
0.5882352941176471
 40
0.6470588235294118
 40
0.6470588235294118
 40
0.6470588235294118
 40
0.6470588235294118
 40
0.7058823529411765
 40
0.7058823529411765
 40
0.7058823529411765
 40
0.7058823529411765
 40
0.7647058823529411
 40
0.7647058823529411
 40
0.7647058823529411
 40
0.7647058823529411
 40
0.8235294117647058
 40
0.8235294117647058
 40
0.8235294117647058
 40
0.8235294117647058
 40
0.8823529411764706
 40
0.8823529411764706
 40
0.8823529411764706
 40
0.8823529411764706
 40
1.0
 40
1.0
 40
1.0
 40
1.0
 10
1.5655
 20
24.034
 30
0.0
 10
1.4624
 20
24.0716
 30
0.0
 10
1.3862
 20
24.1252
 30
0.0
 10
1.3364
 20
24.1953
 30
0.0
 10
1.3364
 20
24.1953
 30
0.0
 10
1.287
 20
24.2649
 30
0.0
 10
1.2621
 20
24.3487
 30
0.0
 10
1.2621
 20
24.446
 30
0.0
 10
1.2621
 20
24.446
 30
0.0
 10
1.2621
 20
24.5932
 30
0.0
 10
1.3148
 20
24.7165
 30
0.0
 10
1.4206
 20
24.8167
 30
0.0
 10
1.4206
 20
24.8167
 30
0.0
 10
1.5264
 20
24.9169
 30
0.0
 10
1.6666
 20
24.9672
 30
0.0
 10
1.842
 20
24.9672
 30
0.0
 10
1.842
 20
24.9672
 30
0.0
 10
2.0184
 20
24.9672
 30
0.0
 10
2.1605
 20
24.9159
 30
0.0
 10
2.2682
 20
24.8134
 30
0.0
 10
2.2682
 20
24.8134
 30
0.0
 10
2.3754
 20
24.7108
 30
0.0
 10
2.4291
 20
24.5862
 30
0.0
 10
2.4291
 20
24.439
 30
0.0
 10
2.4291
 20
24.439
 30
0.0
 10
2.4291
 20
24.3454
 30
0.0
 10
2.4046
 20
24.264
 30
0.0
 10
2.3557
 20
24.1944
 30
0.0
 10
2.3557
 20
24.1944
 30
0.0
 10
2.3063
 20
24.1252
 30
0.0
 10
2.232
 20
24.0716
 30
0.0
 10
2.1318
 20
24.034
 30
0.0
 10
2.1318
 20
24.034
 30
0.0
 10
2.2555
 20
23.9935
 30
0.0
 10
2.35
 20
23.9286
 30
0.0
 10
2.4149
 20
23.8383
 30
0.0
 10
2.4149
 20
23.8383
 30
0.0
 10
2.4794
 20
23.7485
 30
0.0
 10
2.5118
 20
23.6408
 30
0.0
 10
2.5118
 20
23.5161
 30
0.0
 10
2.5118
 20
23.5161
 30
0.0
 10
2.5118
 20
23.343
 30
0.0
 10
2.4507
 20
23.1981
 30
0.0
 10
2.3289
 20
23.0806
 30
0.0
 10
2.3289
 20
23.0806
 30
0.0
 10
2.2066
 20
22.963
 30
0.0
 10
2.0457
 20
22.9042
 30
0.0
 10
1.8463
 20
22.9042
 30
0.0
 10
1.8463
 20
22.9042
 30
0.0
 10
1.6468
 20
22.9042
 30
0.0
 10
1.4864
 20
22.963
 30
0.0
 10
1.3641
 20
23.081
 30
0.0
 10
1.3641
 20
23.081
 30
0.0
 10
1.2418
 20
23.1991
 30
0.0
 10
1.1807
 20
23.3463
 30
0.0
 10
1.1807
 20
23.5227
 30
0.0
 10
1.1807
 20
23.5227
 30
0.0
 10
1.1807
 20
23.6539
 30
0.0
 10
1.2141
 20
23.764
 30
0.0
 10
1.2809
 20
23.8529
 30
0.0
 10
1.2809
 20
23.8529
 30
0.0
 10
1.3472
 20
23.9413
 30
0.0
 10
1.4422
 20
24.002
 30
0.0
 10
1.5655
 20
24.034
 30
0.0
  0
SPLINE
  5
94
330
1F
100
AcDbEntity
  8
VRSTVA_1
 62
   250
100
AcDbSpline
210
0.0
220
0.0
230
1.0
 70
    11
 71
     3
 72
    36
 73
    32
 74
     0
 42
0.0000000001
 43
0.0000000001
 40
0.0
 40
0.0
 40
0.0
 40
0.0
 40
0.1111111111111111
 40
0.1111111111111111
 40
0.1111111111111111
 40
0.1111111111111111
 40
0.2222222222222222
 40
0.2222222222222222
 40
0.2222222222222222
 40
0.2222222222222222
 40
0.3333333333333333
 40
0.3333333333333333
 40
0.3333333333333333
 40
0.3333333333333333
 40
0.4444444444444444
 40
0.4444444444444444
 40
0.4444444444444444
 40
0.4444444444444444
 40
0.5555555555555556
 40
0.5555555555555556
 40
0.5555555555555556
 40
0.5555555555555556
 40
0.6666666666666666
 40
0.6666666666666666
 40
0.6666666666666666
 40
0.6666666666666666
 40
0.7777777777777778
 40
0.7777777777777778
 40
0.7777777777777778
 40
0.7777777777777778
 40
1.0
 40
1.0
 40
1.0
 40
1.0
 10
1.5156
 20
24.4545
 30
0.0
 10
1.5156
 20
24.359
 30
0.0
 10
1.5466
 20
24.2809
 30
0.0
 10
1.6078
 20
24.2202
 30
0.0
 10
1.6078
 20
24.2202
 30
0.0
 10
1.6694
 20
24.1596
 30
0.0
 10
1.7494
 20
24.129
 30
0.0
 10
1.8477
 20
24.129
 30
0.0
 10
1.8477
 20
24.129
 30
0.0
 10
1.9432
 20
24.129
 30
0.0
 10
2.0217
 20
24.1591
 30
0.0
 10
2.0829
 20
24.2193
 30
0.0
 10
2.0829
 20
24.2193
 30
0.0
 10
2.144
 20
24.2795
 30
0.0
 10
2.1741
 20
24.3534
 30
0.0
 10
2.1741
 20
24.4404
 30
0.0
 10
2.1741
 20
24.4404
 30
0.0
 10
2.1741
 20
24.5316
 30
0.0
 10
2.1431
 20
24.6078
 30
0.0
 10
2.08
 20
24.6699
 30
0.0
 10
2.08
 20
24.6699
 30
0.0
 10
2.017
 20
24.732
 30
0.0
 10
1.9389
 20
24.7631
 30
0.0
 10
1.8449
 20
24.7631
 30
0.0
 10
1.8449
 20
24.7631
 30
0.0
 10
1.7503
 20
24.7631
 30
0.0
 10
1.6718
 20
24.7325
 30
0.0
 10
1.6092
 20
24.6723
 30
0.0
 10
1.6092
 20
24.6723
 30
0.0
 10
1.5466
 20
24.6116
 30
0.0
 10
1.5156
 20
24.5387
 30
0.0
 10
1.5156
 20
24.4545
 30
0.0
  0
SPLINE
  5
95
330
1F
100
AcDbEntity
  8
VRSTVA_1
 62
   250
100
AcDbSpline
210
0.0
220
0.0
230
1.0
 70
    11
 71
     3
 72
    40
 73
    36
 74
     0
 42
0.0000000001
 43
0.0000000001
 40
0.0
 40
0.0
 40
0.0
 40
0.0
 40
0.1
 40
0.1
 40
0.1
 40
0.1
 40
0.2
 40
0.2
 40
0.2
 40
0.2
 40
0.3
 40
0.3
 40
0.3
 40
0.3
 40
0.4
 40
0.4
 40
0.4
 40
0.4
 40
0.5
 40
0.5
 40
0.5
 40
0.5
 40
0.6
 40
0.6
 40
0.6
 40
0.6
 40
0.7
 40
0.7
 40
0.7
 40
0.7
 40
0.8
 40
0.8
 40
0.8
 40
0.8
 40
1.0
 40
1.0
 40
1.0
 40
1.0
 10
1.4356
 20
23.5213
 30
0.0
 10
1.4356
 20
23.4507
 30
0.0
 10
1.4526
 20
23.3821
 30
0.0
 10
1.486
 20
23.3162
 30
0.0
 10
1.486
 20
23.3162
 30
0.0
 10
1.5194
 20
23.2499
 30
0.0
 10
1.5692
 20
23.1986
 30
0.0
 10
1.6355
 20
23.1624
 30
0.0
 10
1.6355
 20
23.1624
 30
0.0
 10
1.7019
 20
23.1262
 30
0.0
 10
1.7729
 20
23.1078
 30
0.0
 10
1.8491
 20
23.1078
 30
0.0
 10
1.8491
 20
23.1078
 30
0.0
 10
1.9676
 20
23.1078
 30
0.0
 10
2.0655
 20
23.1459
 30
0.0
 10
2.1426
 20
23.2226
 30
0.0
 10
2.1426
 20
23.2226
 30
0.0
 10
2.2197
 20
23.2988
 30
0.0
 10
2.2583
 20
23.3957
 30
0.0
 10
2.2583
 20
23.5133
 30
0.0
 10
2.2583
 20
23.5133
 30
0.0
 10
2.2583
 20
23.6328
 30
0.0
 10
2.2188
 20
23.7315
 30
0.0
 10
2.1393
 20
23.8096
 30
0.0
 10
2.1393
 20
23.8096
 30
0.0
 10
2.0598
 20
23.8877
 30
0.0
 10
1.9601
 20
23.9267
 30
0.0
 10
1.8406
 20
23.9267
 30
0.0
 10
1.8406
 20
23.9267
 30
0.0
 10
1.724
 20
23.9267
 30
0.0
 10
1.6275
 20
23.8882
 30
0.0
 10
1.5509
 20
23.811
 30
0.0
 10
1.5509
 20
23.811
 30
0.0
 10
1.4742
 20
23.7334
 30
0.0
 10
1.4356
 20
23.637
 30
0.0
 10
1.4356
 20
23.5213
 30
0.0
  0
SPLINE
  5
96
330
1F
100
AcDbEntity
  8
VRSTVA_1
 62
   250
100
AcDbSpline
210
0.0
220
0.0
230
1.0
 70
    11
 71
     3
 72
    44
 73
    40
 74
     0
 42
0.0000000001
 43
0.0000000001
 40
0.0
 40
0.0
 40
0.0
 40
0.0
 40
0.0909090909090909
 40
0.0909090909090909
 40
0.0909090909090909
 40
0.0909090909090909
 40
0.1818181818181818
 40
0.1818181818181818
 40
0.1818181818181818
 40
0.1818181818181818
 40
0.2727272727272727
 40
0.2727272727272727
 40
0.2727272727272727
 40
0.2727272727272727
 40
0.3636363636363636
 40
0.3636363636363636
 40
0.3636363636363636
 40
0.3636363636363636
 40
0.4545454545454545
 40
0.4545454545454545
 40
0.4545454545454545
 40
0.4545454545454545
 40
0.5454545454545454
 40
0.5454545454545454
 40
0.5454545454545454
 40
0.5454545454545454
 40
0.6363636363636364
 40
0.6363636363636364
 40
0.6363636363636364
 40
0.6363636363636364
 40
0.7272727272727273
 40
0.7272727272727273
 40
0.7272727272727273
 40
0.7272727272727273
 40
0.8181818181818182
 40
0.8181818181818182
 40
0.8181818181818182
 40
0.8181818181818182
 40
1.0
 40
1.0
 40
1.0
 40
1.0
 10
2.9845
 20
22.3444
 30
0.0
 10
2.9845
 20
22.3444
 30
0.0
 10
2.8067
 20
22.3444
 30
0.0
 10
2.8067
 20
22.3444
 30
0.0
 10
2.8067
 20
22.3444
 30
0.0
 10
3.0814
 20
22.7856
 30
0.0
 10
3.2188
 20
23.2268
 30
0.0
 10
3.2188
 20
23.669
 30
0.0
 10
3.2188
 20
23.669
 30
0.0
 10
3.2188
 20
23.8416
 30
0.0
 10
3.199
 20
24.0128
 30
0.0
 10
3.1595
 20
24.1831
 30
0.0
 10
3.1595
 20
24.1831
 30
0.0
 10
3.1285
 20
24.3204
 30
0.0
 10
3.0847
 20
24.4531
 30
0.0
 10
3.0288
 20
24.5796
 30
0.0
 10
3.0288
 20
24.5796
 30
0.0
 10
2.993
 20
24.6624
 30
0.0
 10
2.9192
 20
24.8002
 30
0.0
 10
2.8067
 20
24.9931
 30
0.0
 10
2.8067
 20
24.9931
 30
0.0
 10
2.8067
 20
24.9931
 30
0.0
 10
2.9845
 20
24.9931
 30
0.0
 10
2.9845
 20
24.9931
 30
0.0
 10
2.9845
 20
24.9931
 30
0.0
 10
3.1572
 20
24.7626
 30
0.0
 10
3.2851
 20
24.5312
 30
0.0
 10
3.3679
 20
24.2988
 30
0.0
 10
3.3679
 20
24.2988
 30
0.0
 10
3.4384
 20
24.0984
 30
0.0
 10
3.4737
 20
23.8891
 30
0.0
 10
3.4737
 20
23.6704
 30
0.0
 10
3.4737
 20
23.6704
 30
0.0
 10
3.4737
 20
23.422
 30
0.0
 10
3.4262
 20
23.1826
 30
0.0
 10
3.3312
 20
22.9507
 30
0.0
 10
3.3312
 20
22.9507
 30
0.0
 10
3.2362
 20
22.7193
 30
0.0
 10
3.1205
 20
22.5171
 30
0.0
 10
2.9845
 20
22.3444
 30
0.0
  0
SPLINE
  5
97
330
1F
100
AcDbEntity
  8
VRSTVA_1
 62
   250
100
AcDbSpline
210
0.0
220
0.0
230
1.0
 70
    11
 71
     3
 72
    20
 73
    16
 74
     0
 42
0.0000000001
 43
0.0000000001
 40
0.0
 40
0.0
 40
0.0
 40
0.0
 40
0.2
 40
0.2
 40
0.2
 40
0.2
 40
0.4
 40
0.4
 40
0.4
 40
0.4
 40
0.6
 40
0.6
 40
0.6
 40
0.6
 40
1.0
 40
1.0
 40
1.0
 40
1.0
 10
-40.3792
 20
22.6349
 30
0.0
 10
-40.3792
 20
22.6349
 30
0.0
 10
-37.3792
 20
22.2115
 30
0.0
 10
-37.3792
 20
22.2115
 30
0.0
 10
-37.3792
 20
22.2115
 30
0.0
 10
-37.3792
 20
22.2115
 30
0.0
 10
-37.3792
 20
22.1175
 30
0.0
 10
-37.3792
 20
22.1175
 30
0.0
 10
-37.3792
 20
22.1175
 30
0.0
 10
-37.3792
 20
22.1175
 30
0.0
 10
-40.3792
 20
21.666
 30
0.0
 10
-40.3792
 20
21.666
 30
0.0
 10
-40.3792
 20
21.666
 30
0.0
 10
-40.3792
 20
21.666
 30
0.0
 10
-40.3792
 20
22.6349
 30
0.0
 10
-40.3792
 20
22.6349
 30
0.0
  0
SPLINE
  5
98
330
1F
100
AcDbEntity
  8
VRSTVA_1
 62
   250
100
AcDbSpline
210
0.0
220
0.0
230
1.0
 70
    11
 71
     3
 72
    20
 73
    16
 74
     0
 42
0.0000000001
 43
0.0000000001
 40
0.0
 40
0.0
 40
0.0
 40
0.0
 40
0.2
 40
0.2
 40
0.2
 40
0.2
 40
0.4
 40
0.4
 40
0.4
 40
0.4
 40
0.6
 40
0.6
 40
0.6
 40
0.6
 40
1.0
 40
1.0
 40
1.0
 40
1.0
 10
-14.1605
 20
21.6906
 30
0.0
 10
-14.1605
 20
21.6906
 30
0.0
 10
-17.1605
 20
22.114
 30
0.0
 10
-17.1605
 20
22.114
 30
0.0
 10
-17.1605
 20
22.114
 30
0.0
 10
-17.1605
 20
22.114
 30
0.0
 10
-17.1605
 20
22.208
 30
0.0
 10
-17.1605
 20
22.208
 30
0.0
 10
-17.1605
 20
22.208
 30
0.0
 10
-17.1605
 20
22.208
 30
0.0
 10
-14.1605
 20
22.6596
 30
0.0
 10
-14.1605
 20
22.6596
 30
0.0
 10
-14.1605
 20
22.6596
 30
0.0
 10
-14.1605
 20
22.6596
 30
0.0
 10
-14.1605
 20
21.6906
 30
0.0
 10
-14.1605
 20
21.6906
 30
0.0
  0
SPLINE
  5
99
330
1F
100
AcDbEntity
  8
VRSTVA_1
 62
   250
100
AcDbSpline
210
0.0
220
0.0
230
1.0
 70
    24
 71
     3
 72
     8
 73
     4
 74
     0
 42
0.0000000001
 43
0.0000000001
 40
0.0
 40
0.0
 40
0.0
 40
0.0
 40
1.0
 40
1.0
 40
1.0
 40
1.0
 10
-48.8718
 20
15.4397
 30
0.0
 10
-48.8718
 20
15.4397
 30
0.0
 10
-48.8718
 20
14.5806
 30
0.0
 10
-48.8718
 20
14.5806
 30
0.0
  0
SPLINE
  5
9A
330
1F
100
AcDbEntity
  8
VRSTVA_1
 62
   250
100
AcDbSpline
210
0.0
220
0.0
230
1.0
 70
    24
 71
     3
 72
     8
 73
     4
 74
     0
 42
0.0000000001
 43
0.0000000001
 40
0.0
 40
0.0
 40
0.0
 40
0.0
 40
1.0
 40
1.0
 40
1.0
 40
1.0
 10
-48.8491
 20
16.0917
 30
0.0
 10
-48.8491
 20
16.0917
 30
0.0
 10
-48.8718
 20
15.4397
 30
0.0
 10
-48.8718
 20
15.4397
 30
0.0
  0
SPLINE
  5
9B
330
1F
100
AcDbEntity
  8
VRSTVA_1
 62
   250
100
AcDbSpline
210
0.0
220
0.0
230
1.0
 70
    24
 71
     3
 72
     8
 73
     4
 74
     0
 42
0.0000000001
 43
0.0000000001
 40
0.0
 40
0.0
 40
0.0
 40
0.0
 40
1.0
 40
1.0
 40
1.0
 40
1.0
 10
-47.5831
 20
13.7214
 30
0.0
 10
-47.5831
 20
13.7214
 30
0.0
 10
-47.5831
 20
2.2377
 30
0.0
 10
-47.5831
 20
2.2377
 30
0.0
  0
SPLINE
  5
9C
330
1F
100
AcDbEntity
  8
VRSTVA_1
 62
   250
100
AcDbSpline
210
0.0
220
0.0
230
1.0
 70
    24
 71
     3
 72
     8
 73
     4
 74
     0
 42
0.0000000001
 43
0.0000000001
 40
0.0
 40
0.0
 40
0.0
 40
0.0
 40
1.0
 40
1.0
 40
1.0
 40
1.0
 10
-45.4351
 20
19.3061
 30
0.0
 10
-45.4351
 20
19.3061
 30
0.0
 10
-45.4351
 20
16.2989
 30
0.0
 10
-45.4351
 20
16.2989
 30
0.0
  0
SPLINE
  5
9D
330
1F
100
AcDbEntity
  8
VRSTVA_1
 62
   250
100
AcDbSpline
210
0.0
220
0.0
230
1.0
 70
    24
 71
     3
 72
     8
 73
     4
 74
     0
 42
0.0000000001
 43
0.0000000001
 40
0.0
 40
0.0
 40
0.0
 40
0.0
 40
1.0
 40
1.0
 40
1.0
 40
1.0
 10
-43.2871
 20
-7.3286
 30
0.0
 10
-43.2871
 20
-7.3286
 30
0.0
 10
-43.2871
 20
0.0383
 30
0.0
 10
-43.2871
 20
0.0383
 30
0.0
  0
SPLINE
  5
9E
330
1F
100
AcDbEntity
  8
VRSTVA_1
 62
   250
100
AcDbSpline
210
0.0
220
0.0
230
1.0
 70
    24
 71
     3
 72
     8
 73
     4
 74
     0
 42
0.0000000001
 43
0.0000000001
 40
0.0
 40
0.0
 40
0.0
 40
0.0
 40
1.0
 40
1.0
 40
1.0
 40
1.0
 10
-42.2132
 20
27.8979
 30
0.0
 10
-42.2132
 20
27.8979
 30
0.0
 10
-42.2132
 20
27.5615
 30
0.0
 10
-42.2132
 20
27.5615
 30
0.0
  0
SPLINE
  5
9F
330
1F
100
AcDbEntity
  8
VRSTVA_1
 62
   250
100
AcDbSpline
210
0.0
220
0.0
230
1.0
 70
    24
 71
     3
 72
     8
 73
     4
 74
     0
 42
0.0000000001
 43
0.0000000001
 40
0.0
 40
0.0
 40
0.0
 40
0.0
 40
1.0
 40
1.0
 40
1.0
 40
1.0
 10
-12.3565
 20
-8.6174
 30
0.0
 10
-12.3565
 20
-8.6174
 30
0.0
 10
-41.9984
 20
-8.6174
 30
0.0
 10
-41.9984
 20
-8.6174
 30
0.0
  0
SPLINE
  5
A0
330
1F
100
AcDbEntity
  8
VRSTVA_1
 62
   250
100
AcDbSpline
210
0.0
220
0.0
230
1.0
 70
    24
 71
     3
 72
     8
 73
     4
 74
     0
 42
0.0000000001
 43
0.0000000001
 40
0.0
 40
0.0
 40
0.0
 40
0.0
 40
1.0
 40
1.0
 40
1.0
 40
1.0
 10
-37.2729
 20
25.75
 30
0.0
 10
-37.2729
 20
25.75
 30
0.0
 10
-37.2729
 20
19.3061
 30
0.0
 10
-37.2729
 20
19.3061
 30
0.0
  0
SPLINE
  5
A1
330
1F
100
AcDbEntity
  8
VRSTVA_1
 62
   250
100
AcDbSpline
210
0.0
220
0.0
230
1.0
 70
     8
 71
     3
 72
    24
 73
    20
 74
     0
 42
0.0000000001
 43
0.0000000001
 40
0.0
 40
0.0
 40
0.0
 40
0.0
 40
0.1666666666666667
 40
0.1666666666666667
 40
0.1666666666666667
 40
0.1666666666666667
 40
0.3333333333333333
 40
0.3333333333333333
 40
0.3333333333333333
 40
0.3333333333333333
 40
0.5
 40
0.5
 40
0.5
 40
0.5
 40
0.6666666666666666
 40
0.6666666666666666
 40
0.6666666666666666
 40
0.6666666666666666
 40
1.0
 40
1.0
 40
1.0
 40
1.0
 10
-43.6421
 20
0.4614
 30
0.0
 10
-43.6421
 20
0.4614
 30
0.0
 10
-43.5102
 20
0.415
 30
0.0
 10
-43.5102
 20
0.415
 30
0.0
 10
-43.5102
 20
0.415
 30
0.0
 10
-43.5102
 20
0.415
 30
0.0
 10
-43.3997
 20
0.3283
 30
0.0
 10
-43.3997
 20
0.3283
 30
0.0
 10
-43.3997
 20
0.3283
 30
0.0
 10
-43.3997
 20
0.3283
 30
0.0
 10
-43.3231
 20
0.2104
 30
0.0
 10
-43.3231
 20
0.2104
 30
0.0
 10
-43.3231
 20
0.2104
 30
0.0
 10
-43.3231
 20
0.2104
 30
0.0
 10
-43.2886
 20
0.0741
 30
0.0
 10
-43.2886
 20
0.0741
 30
0.0
 10
-43.2886
 20
0.0741
 30
0.0
 10
-43.2886
 20
0.0741
 30
0.0
 10
-43.2871
 20
0.0383
 30
0.0
 10
-43.2871
 20
0.0383
 30
0.0
  0
SPLINE
  5
A2
330
1F
100
AcDbEntity
  8
VRSTVA_1
 62
   250
100
AcDbSpline
210
0.0
220
0.0
230
1.0
 70
     8
 71
     3
 72
    16
 73
    12
 74
     0
 42
0.0000000001
 43
0.0000000001
 40
0.0
 40
0.0
 40
0.0
 40
0.0
 40
0.25
 40
0.25
 40
0.25
 40
0.25
 40
0.5
 40
0.5
 40
0.5
 40
0.5
 40
1.0
 40
1.0
 40
1.0
 40
1.0
 10
-4.5519
 20
-6.3498
 30
0.0
 10
-4.5519
 20
-6.3498
 30
0.0
 10
-4.4649
 20
-6.3592
 30
0.0
 10
-4.4649
 20
-6.3592
 30
0.0
 10
-4.4649
 20
-6.3592
 30
0.0
 10
-4.4649
 20
-6.3592
 30
0.0
 10
-4.3957
 20
-6.3208
 30
0.0
 10
-4.3957
 20
-6.3208
 30
0.0
 10
-4.3957
 20
-6.3208
 30
0.0
 10
-4.3957
 20
-6.3208
 30
0.0
 10
-4.3692
 20
-6.2849
 30
0.0
 10
-4.3692
 20
-6.2849
 30
0.0
  0
SPLINE
  5
A3
330
1F
100
AcDbEntity
  8
VRSTVA_1
 62
   250
100
AcDbSpline
210
0.0
220
0.0
230
1.0
 70
    24
 71
     3
 72
     8
 73
     4
 74
     0
 42
0.0000000001
 43
0.0000000001
 40
0.0
 40
0.0
 40
0.0
 40
0.0
 40
1.0
 40
1.0
 40
1.0
 40
1.0
 10
-8.2844
 20
-5.7731
 30
0.0
 10
-8.2844
 20
-5.7731
 30
0.0
 10
-46.5181
 20
0.9685
 30
0.0
 10
-46.5181
 20
0.9685
 30
0.0
  0
SPLINE
  5
A4
330
1F
100
AcDbEntity
  8
VRSTVA_1
 62
   250
100
AcDbSpline
210
0.0
220
0.0
230
1.0
 70
    24
 71
     3
 72
     8
 73
     4
 74
     0
 42
0.0000000001
 43
0.0000000001
 40
0.0
 40
0.0
 40
0.0
 40
0.0
 40
1.0
 40
1.0
 40
1.0
 40
1.0
 10
-4.6045
 20
-6.3089
 30
0.0
 10
-4.6045
 20
-6.3089
 30
0.0
 10
-4.5519
 20
-6.3498
 30
0.0
 10
-4.5519
 20
-6.3498
 30
0.0
  0
SPLINE
  5
A5
330
1F
100
AcDbEntity
  8
VRSTVA_1
 62
   250
100
AcDbSpline
210
0.0
220
0.0
230
1.0
 70
     8
 71
     3
 72
    24
 73
    20
 74
     0
 42
0.0000000001
 43
0.0000000001
 40
0.0
 40
0.0
 40
0.0
 40
0.0
 40
0.1666666666666667
 40
0.1666666666666667
 40
0.1666666666666667
 40
0.1666666666666667
 40
0.3333333333333333
 40
0.3333333333333333
 40
0.3333333333333333
 40
0.3333333333333333
 40
0.5
 40
0.5
 40
0.5
 40
0.5
 40
0.6666666666666666
 40
0.6666666666666666
 40
0.6666666666666666
 40
0.6666666666666666
 40
1.0
 40
1.0
 40
1.0
 40
1.0
 10
-6.3422
 20
13.2918
 30
0.0
 10
-6.3422
 20
13.2918
 30
0.0
 10
-6.396
 20
13.2952
 30
0.0
 10
-6.396
 20
13.2952
 30
0.0
 10
-6.396
 20
13.2952
 30
0.0
 10
-6.396
 20
13.2952
 30
0.0
 10
-6.5463
 20
13.3434
 30
0.0
 10
-6.5463
 20
13.3434
 30
0.0
 10
-6.5463
 20
13.3434
 30
0.0
 10
-6.5463
 20
13.3434
 30
0.0
 10
-6.6691
 20
13.4427
 30
0.0
 10
-6.6691
 20
13.4427
 30
0.0
 10
-6.6691
 20
13.4427
 30
0.0
 10
-6.6691
 20
13.4427
 30
0.0
 10
-6.7477
 20
13.5796
 30
0.0
 10
-6.7477
 20
13.5796
 30
0.0
 10
-6.7477
 20
13.5796
 30
0.0
 10
-6.7477
 20
13.5796
 30
0.0
 10
-6.7718
 20
13.7214
 30
0.0
 10
-6.7718
 20
13.7214
 30
0.0
  0
SPLINE
  5
A6
330
1F
100
AcDbEntity
  8
VRSTVA_1
 62
   250
100
AcDbSpline
210
0.0
220
0.0
230
1.0
 70
    24
 71
     3
 72
     8
 73
     4
 74
     0
 42
0.0000000001
 43
0.0000000001
 40
0.0
 40
0.0
 40
0.0
 40
0.0
 40
1.0
 40
1.0
 40
1.0
 40
1.0
 10
-17.082
 20
25.75
 30
0.0
 10
-17.082
 20
25.75
 30
0.0
 10
-17.082
 20
19.3061
 30
0.0
 10
-17.082
 20
19.3061
 30
0.0
  0
SPLINE
  5
A7
330
1F
100
AcDbEntity
  8
VRSTVA_1
 62
   250
100
AcDbSpline
210
0.0
220
0.0
230
1.0
 70
    24
 71
     3
 72
     8
 73
     4
 74
     0
 42
0.0000000001
 43
0.0000000001
 40
0.0
 40
0.0
 40
0.0
 40
0.0
 40
1.0
 40
1.0
 40
1.0
 40
1.0
 10
-48.8718
 20
15.4397
 30
0.0
 10
-48.8718
 20
15.4397
 30
0.0
 10
-5.483
 20
15.4397
 30
0.0
 10
-5.483
 20
15.4397
 30
0.0
  0
SPLINE
  5
A8
330
1F
100
AcDbEntity
  8
VRSTVA_1
 62
   250
100
AcDbSpline
210
0.0
220
0.0
230
1.0
 70
     8
 71
     3
 72
    24
 73
    20
 74
     0
 42
0.0000000001
 43
0.0000000001
 40
0.0
 40
0.0
 40
0.0
 40
0.0
 40
0.1666666666666667
 40
0.1666666666666667
 40
0.1666666666666667
 40
0.1666666666666667
 40
0.3333333333333333
 40
0.3333333333333333
 40
0.3333333333333333
 40
0.3333333333333333
 40
0.5
 40
0.5
 40
0.5
 40
0.5
 40
0.6666666666666666
 40
0.6666666666666666
 40
0.6666666666666666
 40
0.6666666666666666
 40
1.0
 40
1.0
 40
1.0
 40
1.0
 10
-3.6284
 20
-6.2848
 30
0.0
 10
-3.6284
 20
-6.2848
 30
0.0
 10
-3.6123
 20
-6.3092
 30
0.0
 10
-3.6123
 20
-6.3092
 30
0.0
 10
-3.6123
 20
-6.3092
 30
0.0
 10
-3.6123
 20
-6.3092
 30
0.0
 10
-3.5592
 20
-6.3501
 30
0.0
 10
-3.5592
 20
-6.3501
 30
0.0
 10
-3.5592
 20
-6.3501
 30
0.0
 10
-3.5592
 20
-6.3501
 30
0.0
 10
-3.4718
 20
-6.3589
 30
0.0
 10
-3.4718
 20
-6.3589
 30
0.0
 10
-3.4718
 20
-6.3589
 30
0.0
 10
-3.4718
 20
-6.3589
 30
0.0
 10
-3.4031
 20
-6.3201
 30
0.0
 10
-3.4031
 20
-6.3201
 30
0.0
 10
-3.4031
 20
-6.3201
 30
0.0
 10
-3.4031
 20
-6.3201
 30
0.0
 10
-3.3773
 20
-6.2849
 30
0.0
 10
-3.3773
 20
-6.2849
 30
0.0
  0
SPLINE
  5
A9
330
1F
100
AcDbEntity
  8
VRSTVA_1
 62
   250
100
AcDbSpline
210
0.0
220
0.0
230
1.0
 70
    24
 71
     3
 72
     8
 73
     4
 74
     0
 42
0.0000000001
 43
0.0000000001
 40
0.0
 40
0.0
 40
0.0
 40
0.0
 40
1.0
 40
1.0
 40
1.0
 40
1.0
 10
-4.6203
 20
-6.2848
 30
0.0
 10
-4.6203
 20
-6.2848
 30
0.0
 10
-4.6045
 20
-6.3089
 30
0.0
 10
-4.6045
 20
-6.3089
 30
0.0
  0
SPLINE
  5
AA
330
1F
100
AcDbEntity
  8
VRSTVA_1
 62
   250
100
AcDbSpline
210
0.0
220
0.0
230
1.0
 70
    24
 71
     3
 72
     8
 73
     4
 74
     0
 42
0.0000000001
 43
0.0000000001
 40
0.0
 40
0.0
 40
0.0
 40
0.0
 40
1.0
 40
1.0
 40
1.0
 40
1.0
 10
-4.6239
 20
-6.278
 30
0.0
 10
-4.6239
 20
-6.278
 30
0.0
 10
-4.6203
 20
-6.2849
 30
0.0
 10
-4.6203
 20
-6.2849
 30
0.0
  0
SPLINE
  5
AB
330
1F
100
AcDbEntity
  8
VRSTVA_1
 62
   250
100
AcDbSpline
210
0.0
220
0.0
230
1.0
 70
    24
 71
     3
 72
     8
 73
     4
 74
     0
 42
0.0000000001
 43
0.0000000001
 40
0.0
 40
0.0
 40
0.0
 40
0.0
 40
1.0
 40
1.0
 40
1.0
 40
1.0
 10
-3.8831
 20
-5.7958
 30
0.0
 10
-3.8831
 20
-5.7958
 30
0.0
 10
-3.6283
 20
-6.2849
 30
0.0
 10
-3.6283
 20
-6.2849
 30
0.0
  0
SPLINE
  5
AC
330
1F
100
AcDbEntity
  8
VRSTVA_1
 62
   250
100
AcDbSpline
210
0.0
220
0.0
230
1.0
 70
    24
 71
     3
 72
     8
 73
     4
 74
     0
 42
0.0000000001
 43
0.0000000001
 40
0.0
 40
0.0
 40
0.0
 40
0.0
 40
1.0
 40
1.0
 40
1.0
 40
1.0
 10
-12.1417
 20
27.8979
 30
0.0
 10
-12.1417
 20
27.8979
 30
0.0
 10
-12.1417
 20
27.5615
 30
0.0
 10
-12.1417
 20
27.5615
 30
0.0
  0
SPLINE
  5
AD
330
1F
100
AcDbEntity
  8
VRSTVA_1
 62
   250
100
AcDbSpline
210
0.0
220
0.0
230
1.0
 70
    24
 71
     3
 72
     8
 73
     4
 74
     0
 42
0.0000000001
 43
0.0000000001
 40
0.0
 40
0.0
 40
0.0
 40
0.0
 40
1.0
 40
1.0
 40
1.0
 40
1.0
 10
-11.0677
 20
-7.3286
 30
0.0
 10
-11.0677
 20
-7.3286
 30
0.0
 10
-11.0677
 20
-5.7943
 30
0.0
 10
-11.0677
 20
-5.7943
 30
0.0
  0
SPLINE
  5
AE
330
1F
100
AcDbEntity
  8
VRSTVA_1
 62
   250
100
AcDbSpline
210
0.0
220
0.0
230
1.0
 70
    24
 71
     3
 72
     8
 73
     4
 74
     0
 42
0.0000000001
 43
0.0000000001
 40
0.0
 40
0.0
 40
0.0
 40
0.0
 40
1.0
 40
1.0
 40
1.0
 40
1.0
 10
-8.9198
 20
19.3061
 30
0.0
 10
-8.9198
 20
19.3061
 30
0.0
 10
-45.4351
 20
19.3061
 30
0.0
 10
-45.4351
 20
19.3061
 30
0.0
  0
SPLINE
  5
AF
330
1F
100
AcDbEntity
  8
VRSTVA_1
 62
   250
100
AcDbSpline
210
0.0
220
0.0
230
1.0
 70
    24
 71
     3
 72
     8
 73
     4
 74
     0
 42
0.0000000001
 43
0.0000000001
 40
0.0
 40
0.0
 40
0.0
 40
0.0
 40
1.0
 40
1.0
 40
1.0
 40
1.0
 10
-4.6203
 20
-6.2848
 30
0.0
 10
-4.6203
 20
-6.2848
 30
0.0
 10
-4.6239
 20
-6.2754
 30
0.0
 10
-4.6239
 20
-6.2754
 30
0.0
  0
SPLINE
  5
B0
330
1F
100
AcDbEntity
  8
VRSTVA_1
 62
   250
100
AcDbSpline
210
0.0
220
0.0
230
1.0
 70
    24
 71
     3
 72
     8
 73
     4
 74
     0
 42
0.0000000001
 43
0.0000000001
 40
0.0
 40
0.0
 40
0.0
 40
0.0
 40
1.0
 40
1.0
 40
1.0
 40
1.0
 10
-8.9198
 20
19.3061
 30
0.0
 10
-8.9198
 20
19.3061
 30
0.0
 10
-8.9198
 20
16.2989
 30
0.0
 10
-8.9198
 20
16.2989
 30
0.0
  0
SPLINE
  5
B1
330
1F
100
AcDbEntity
  8
VRSTVA_1
 62
   250
100
AcDbSpline
210
0.0
220
0.0
230
1.0
 70
    24
 71
     3
 72
     8
 73
     4
 74
     0
 42
0.0000000001
 43
0.0000000001
 40
0.0
 40
0.0
 40
0.0
 40
0.0
 40
1.0
 40
1.0
 40
1.0
 40
1.0
 10
-42.2132
 20
27.5615
 30
0.0
 10
-42.2132
 20
27.5615
 30
0.0
 10
-37.9172
 20
26.6091
 30
0.0
 10
-37.9172
 20
26.6091
 30
0.0
  0
SPLINE
  5
B2
330
1F
100
AcDbEntity
  8
VRSTVA_1
 62
   250
100
AcDbSpline
210
0.0
220
0.0
230
1.0
 70
    27
 71
     3
 72
     8
 73
     4
 74
     0
 42
0.0000000001
 43
0.0000000001
 40
0.0
 40
0.0
 40
0.0
 40
0.0
 40
1.0
 40
1.0
 40
1.0
 40
1.0
 10
-4.379
 20
13.4773
 30
0.0
 10
-4.379
 20
13.4773
 30
0.0
 10
-4.379
 20
13.4773
 30
0.0
 10
-4.379
 20
13.4773
 30
0.0
  0
SPLINE
  5
B3
330
1F
100
AcDbEntity
  8
VRSTVA_1
 62
   250
100
AcDbSpline
210
0.0
220
0.0
230
1.0
 70
    24
 71
     3
 72
     8
 73
     4
 74
     0
 42
0.0000000001
 43
0.0000000001
 40
0.0
 40
0.0
 40
0.0
 40
0.0
 40
1.0
 40
1.0
 40
1.0
 40
1.0
 10
-4.1243
 20
13.9664
 30
0.0
 10
-4.1243
 20
13.9664
 30
0.0
 10
-4.379
 20
13.4773
 30
0.0
 10
-4.379
 20
13.4773
 30
0.0
  0
SPLINE
  5
B4
330
1F
100
AcDbEntity
  8
VRSTVA_1
 62
   250
100
AcDbSpline
210
0.0
220
0.0
230
1.0
 70
    24
 71
     3
 72
     8
 73
     4
 74
     0
 42
0.0000000001
 43
0.0000000001
 40
0.0
 40
0.0
 40
0.0
 40
0.0
 40
1.0
 40
1.0
 40
1.0
 40
1.0
 10
-3.1324
 20
13.9664
 30
0.0
 10
-3.1324
 20
13.9664
 30
0.0
 10
-3.3871
 20
13.4773
 30
0.0
 10
-3.3871
 20
13.4773
 30
0.0
  0
SPLINE
  5
B5
330
1F
100
AcDbEntity
  8
VRSTVA_1
 62
   250
100
AcDbSpline
210
0.0
220
0.0
230
1.0
 70
    24
 71
     3
 72
     8
 73
     4
 74
     0
 42
0.0000000001
 43
0.0000000001
 40
0.0
 40
0.0
 40
0.0
 40
0.0
 40
1.0
 40
1.0
 40
1.0
 40
1.0
 10
-3.1203
 20
13.9845
 30
0.0
 10
-3.1203
 20
13.9845
 30
0.0
 10
-3.1324
 20
13.9663
 30
0.0
 10
-3.1324
 20
13.9663
 30
0.0
  0
SPLINE
  5
B6
330
1F
100
AcDbEntity
  8
VRSTVA_1
 62
   250
100
AcDbSpline
210
0.0
220
0.0
230
1.0
 70
    24
 71
     3
 72
     8
 73
     4
 74
     0
 42
0.0000000001
 43
0.0000000001
 40
0.0
 40
0.0
 40
0.0
 40
0.0
 40
1.0
 40
1.0
 40
1.0
 40
1.0
 10
-12.1417
 20
27.5615
 30
0.0
 10
-12.1417
 20
27.5615
 30
0.0
 10
-16.4376
 20
26.6091
 30
0.0
 10
-16.4376
 20
26.6091
 30
0.0
  0
SPLINE
  5
B7
330
1F
100
AcDbEntity
  8
VRSTVA_1
 62
   250
100
AcDbSpline
210
0.0
220
0.0
230
1.0
 70
    24
 71
     3
 72
     8
 73
     4
 74
     0
 42
0.0000000001
 43
0.0000000001
 40
0.0
 40
0.0
 40
0.0
 40
0.0
 40
1.0
 40
1.0
 40
1.0
 40
1.0
 10
-5.5058
 20
16.0917
 30
0.0
 10
-5.5058
 20
16.0917
 30
0.0
 10
-5.483
 20
15.4397
 30
0.0
 10
-5.483
 20
15.4397
 30
0.0
  0
SPLINE
  5
B8
330
1F
100
AcDbEntity
  8
VRSTVA_1
 62
   250
100
AcDbSpline
210
0.0
220
0.0
230
1.0
 70
    24
 71
     3
 72
     8
 73
     4
 74
     0
 42
0.0000000001
 43
0.0000000001
 40
0.0
 40
0.0
 40
0.0
 40
0.0
 40
1.0
 40
1.0
 40
1.0
 40
1.0
 10
-5.483
 20
15.4397
 30
0.0
 10
-5.483
 20
15.4397
 30
0.0
 10
-5.483
 20
14.5806
 30
0.0
 10
-5.483
 20
14.5806
 30
0.0
  0
SPLINE
  5
B9
330
1F
100
AcDbEntity
  8
VRSTVA_1
 62
   250
100
AcDbSpline
210
0.0
220
0.0
230
1.0
 70
    24
 71
     3
 72
     8
 73
     4
 74
     0
 42
0.0000000001
 43
0.0000000001
 40
0.0
 40
0.0
 40
0.0
 40
0.0
 40
1.0
 40
1.0
 40
1.0
 40
1.0
 10
-4.6239
 20
13.5028
 30
0.0
 10
-4.6239
 20
13.5028
 30
0.0
 10
-4.6239
 20
-6.2777
 30
0.0
 10
-4.6239
 20
-6.2777
 30
0.0
  0
SPLINE
  5
BA
330
1F
100
AcDbEntity
  8
VRSTVA_1
 62
   250
100
AcDbSpline
210
0.0
220
0.0
230
1.0
 70
    24
 71
     3
 72
     8
 73
     4
 74
     0
 42
0.0000000001
 43
0.0000000001
 40
0.0
 40
0.0
 40
0.0
 40
0.0
 40
1.0
 40
1.0
 40
1.0
 40
1.0
 10
-42.2132
 20
27.5615
 30
0.0
 10
-42.2132
 20
27.5615
 30
0.0
 10
-12.1417
 20
27.5615
 30
0.0
 10
-12.1417
 20
27.5615
 30
0.0
  0
SPLINE
  5
BB
330
1F
100
AcDbEntity
  8
VRSTVA_1
 62
   250
100
AcDbSpline
210
0.0
220
0.0
230
1.0
 70
    24
 71
     3
 72
     8
 73
     4
 74
     0
 42
0.0000000001
 43
0.0000000001
 40
0.0
 40
0.0
 40
0.0
 40
0.0
 40
1.0
 40
1.0
 40
1.0
 40
1.0
 10
-42.2132
 20
27.8979
 30
0.0
 10
-42.2132
 20
27.8979
 30
0.0
 10
-12.1417
 20
27.8979
 30
0.0
 10
-12.1417
 20
27.8979
 30
0.0
  0
SPLINE
  5
BC
330
1F
100
AcDbEntity
  8
VRSTVA_1
 62
   250
100
AcDbSpline
210
0.0
220
0.0
230
1.0
 70
     8
 71
     3
 72
    24
 73
    20
 74
     0
 42
0.0000000001
 43
0.0000000001
 40
0.0
 40
0.0
 40
0.0
 40
0.0
 40
0.1666666666666667
 40
0.1666666666666667
 40
0.1666666666666667
 40
0.1666666666666667
 40
0.3333333333333333
 40
0.3333333333333333
 40
0.3333333333333333
 40
0.3333333333333333
 40
0.5
 40
0.5
 40
0.5
 40
0.5
 40
0.6666666666666666
 40
0.6666666666666666
 40
0.6666666666666666
 40
0.6666666666666666
 40
1.0
 40
1.0
 40
1.0
 40
1.0
 10
-3.8733
 20
13.9664
 30
0.0
 10
-3.8733
 20
13.9664
 30
0.0
 10
-3.8966
 20
13.9991
 30
0.0
 10
-3.8966
 20
13.9991
 30
0.0
 10
-3.8966
 20
13.9991
 30
0.0
 10
-3.8966
 20
13.9991
 30
0.0
 10
-3.9642
 20
14.0395
 30
0.0
 10
-3.9642
 20
14.0395
 30
0.0
 10
-3.9642
 20
14.0395
 30
0.0
 10
-3.9642
 20
14.0395
 30
0.0
 10
-4.0523
 20
14.0329
 30
0.0
 10
-4.0523
 20
14.0329
 30
0.0
 10
-4.0523
 20
14.0329
 30
0.0
 10
-4.0523
 20
14.0329
 30
0.0
 10
-4.1074
 20
13.9919
 30
0.0
 10
-4.1074
 20
13.9919
 30
0.0
 10
-4.1074
 20
13.9919
 30
0.0
 10
-4.1074
 20
13.9919
 30
0.0
 10
-4.1243
 20
13.9663
 30
0.0
 10
-4.1243
 20
13.9663
 30
0.0
  0
SPLINE
  5
BD
330
1F
100
AcDbEntity
  8
VRSTVA_1
 62
   250
100
AcDbSpline
210
0.0
220
0.0
230
1.0
 70
    24
 71
     3
 72
     8
 73
     4
 74
     0
 42
0.0000000001
 43
0.0000000001
 40
0.0
 40
0.0
 40
0.0
 40
0.0
 40
1.0
 40
1.0
 40
1.0
 40
1.0
 10
-4.6105
 20
13.4773
 30
0.0
 10
-4.6105
 20
13.4773
 30
0.0
 10
-4.6239
 20
13.503
 30
0.0
 10
-4.6239
 20
13.503
 30
0.0
  0
SPLINE
  5
BE
330
1F
100
AcDbEntity
  8
VRSTVA_1
 62
   250
100
AcDbSpline
210
0.0
220
0.0
230
1.0
 70
    24
 71
     3
 72
     8
 73
     4
 74
     0
 42
0.0000000001
 43
0.0000000001
 40
0.0
 40
0.0
 40
0.0
 40
0.0
 40
1.0
 40
1.0
 40
1.0
 40
1.0
 10
-3.6186
 20
13.4773
 30
0.0
 10
-3.6186
 20
13.4773
 30
0.0
 10
-3.8733
 20
13.9664
 30
0.0
 10
-3.8733
 20
13.9664
 30
0.0
  0
SPLINE
  5
BF
330
1F
100
AcDbEntity
  8
VRSTVA_1
 62
   250
100
AcDbSpline
210
0.0
220
0.0
230
1.0
 70
     8
 71
     3
 72
    12
 73
     8
 74
     0
 42
0.0000000001
 43
0.0000000001
 40
0.0
 40
0.0
 40
0.0
 40
0.0
 40
0.3333333333333333
 40
0.3333333333333333
 40
0.3333333333333333
 40
0.3333333333333333
 40
1.0
 40
1.0
 40
1.0
 40
1.0
 10
-7.4827
 20
-5.6559
 30
0.0
 10
-7.4827
 20
-5.6559
 30
0.0
 10
-7.4052
 20
-5.626
 30
0.0
 10
-7.4052
 20
-5.626
 30
0.0
 10
-7.4052
 20
-5.626
 30
0.0
 10
-7.4052
 20
-5.626
 30
0.0
 10
-7.29
 20
-5.6103
 30
0.0
 10
-7.29
 20
-5.6103
 30
0.0
  0
SPLINE
  5
C0
330
1F
100
AcDbEntity
  8
VRSTVA_1
 62
   250
100
AcDbSpline
210
0.0
220
0.0
230
1.0
 70
    24
 71
     3
 72
     8
 73
     4
 74
     0
 42
0.0000000001
 43
0.0000000001
 40
0.0
 40
0.0
 40
0.0
 40
0.0
 40
1.0
 40
1.0
 40
1.0
 40
1.0
 10
-4.3692
 20
-6.2849
 30
0.0
 10
-4.3692
 20
-6.2849
 30
0.0
 10
-4.1145
 20
-5.7958
 30
0.0
 10
-4.1145
 20
-5.7958
 30
0.0
  0
SPLINE
  5
C1
330
1F
100
AcDbEntity
  8
VRSTVA_1
 62
   250
100
AcDbSpline
210
0.0
220
0.0
230
1.0
 70
    24
 71
     3
 72
     8
 73
     4
 74
     0
 42
0.0000000001
 43
0.0000000001
 40
0.0
 40
0.0
 40
0.0
 40
0.0
 40
1.0
 40
1.0
 40
1.0
 40
1.0
 10
-3.3773
 20
-6.2849
 30
0.0
 10
-3.3773
 20
-6.2849
 30
0.0
 10
-3.1226
 20
-5.7958
 30
0.0
 10
-3.1226
 20
-5.7958
 30
0.0
  0
SPLINE
  5
C2
330
1F
100
AcDbEntity
  8
VRSTVA_1
 62
   250
100
AcDbSpline
210
0.0
220
0.0
230
1.0
 70
     8
 71
     3
 72
     8
 73
     4
 74
     0
 42
0.0000000001
 43
0.0000000001
 40
0.0
 40
0.0
 40
0.0
 40
0.0
 40
1.0
 40
1.0
 40
1.0
 40
1.0
 10
-47.583
 20
2.2377
 30
0.0
 10
-47.583
 20
1.6123
 30
0.0
 10
-47.134
 20
1.0771
 30
0.0
 10
-46.5181
 20
0.9685
 30
0.0
  0
SPLINE
  5
C3
330
1F
100
AcDbEntity
  8
VRSTVA_1
 62
   250
100
AcDbSpline
210
0.0
220
0.0
230
1.0
 70
     8
 71
     3
 72
     8
 73
     4
 74
     0
 42
0.0000000001
 43
0.0000000001
 40
0.0
 40
0.0
 40
0.0
 40
0.0
 40
1.0
 40
1.0
 40
1.0
 40
1.0
 10
-43.2871
 20
-7.3286
 30
0.0
 10
-43.2871
 20
-8.0404
 30
0.0
 10
-42.7101
 20
-8.6174
 30
0.0
 10
-41.9984
 20
-8.6174
 30
0.0
  0
SPLINE
  5
C4
330
1F
100
AcDbEntity
  8
VRSTVA_1
 62
   250
100
AcDbSpline
210
0.0
220
0.0
230
1.0
 70
     8
 71
     3
 72
     8
 73
     4
 74
     0
 42
0.0000000001
 43
0.0000000001
 40
0.0
 40
0.0
 40
0.0
 40
0.0
 40
1.0
 40
1.0
 40
1.0
 40
1.0
 10
-8.2844
 20
-5.7731
 30
0.0
 10
-8.0115
 20
-5.8212
 30
0.0
 10
-7.7303
 20
-5.7801
 30
0.0
 10
-7.4827
 20
-5.6559
 30
0.0
  0
SPLINE
  5
C5
330
1F
100
AcDbEntity
  8
VRSTVA_1
 62
   250
100
AcDbSpline
210
0.0
220
0.0
230
1.0
 70
     8
 71
     3
 72
     8
 73
     4
 74
     0
 42
0.0000000001
 43
0.0000000001
 40
0.0
 40
0.0
 40
0.0
 40
0.0
 40
1.0
 40
1.0
 40
1.0
 40
1.0
 10
-12.3565
 20
-8.6174
 30
0.0
 10
-11.6447
 20
-8.6174
 30
0.0
 10
-11.0677
 20
-8.0404
 30
0.0
 10
-11.0677
 20
-7.3286
 30
0.0
  0
SPLINE
  5
C6
330
1F
100
AcDbEntity
  8
VRSTVA_1
 62
   250
100
AcDbSpline
210
0.0
220
0.0
230
1.0
 70
     8
 71
     3
 72
     8
 73
     4
 74
     0
 42
0.0000000001
 43
0.0000000001
 40
0.0
 40
0.0
 40
0.0
 40
0.0
 40
1.0
 40
1.0
 40
1.0
 40
1.0
 10
-4.5967
 20
13.4141
 30
0.0
 10
-4.5969
 20
13.4156
 30
0.0
 10
-4.5971
 20
13.4171
 30
0.0
 10
-4.5973
 20
13.4185
 30
0.0
  0
SPLINE
  5
C7
330
1F
100
AcDbEntity
  8
VRSTVA_1
 62
   250
100
AcDbSpline
210
0.0
220
0.0
230
1.0
 70
     8
 71
     3
 72
     8
 73
     4
 74
     0
 42
0.0000000001
 43
0.0000000001
 40
0.0
 40
0.0
 40
0.0
 40
0.0
 40
1.0
 40
1.0
 40
1.0
 40
1.0
 10
-10.5636
 20
-5.3712
 30
0.0
 10
-10.6887
 20
-5.3492
 30
0.0
 10
-10.8171
 20
-5.3837
 30
0.0
 10
-10.9143
 20
-5.4653
 30
0.0
  0
SPLINE
  5
C8
330
1F
100
AcDbEntity
  8
VRSTVA_1
 62
   250
100
AcDbSpline
210
0.0
220
0.0
230
1.0
 70
     8
 71
     3
 72
     8
 73
     4
 74
     0
 42
0.0000000001
 43
0.0000000001
 40
0.0
 40
0.0
 40
0.0
 40
0.0
 40
1.0
 40
1.0
 40
1.0
 40
1.0
 10
-10.9143
 20
-5.4653
 30
0.0
 10
-11.0115
 20
-5.5469
 30
0.0
 10
-11.0677
 20
-5.6674
 30
0.0
 10
-11.0677
 20
-5.7943
 30
0.0
  0
SPLINE
  5
C9
330
1F
100
AcDbEntity
  8
VRSTVA_1
 62
   250
100
AcDbSpline
210
0.0
220
0.0
230
1.0
 70
     8
 71
     3
 72
    44
 73
    40
 74
     0
 42
0.0000000001
 43
0.0000000001
 40
0.0
 40
0.0
 40
0.0
 40
0.0
 40
0.0909090909090909
 40
0.0909090909090909
 40
0.0909090909090909
 40
0.0909090909090909
 40
0.1818181818181818
 40
0.1818181818181818
 40
0.1818181818181818
 40
0.1818181818181818
 40
0.2727272727272727
 40
0.2727272727272727
 40
0.2727272727272727
 40
0.2727272727272727
 40
0.3636363636363636
 40
0.3636363636363636
 40
0.3636363636363636
 40
0.3636363636363636
 40
0.4545454545454545
 40
0.4545454545454545
 40
0.4545454545454545
 40
0.4545454545454545
 40
0.5454545454545454
 40
0.5454545454545454
 40
0.5454545454545454
 40
0.5454545454545454
 40
0.6363636363636364
 40
0.6363636363636364
 40
0.6363636363636364
 40
0.6363636363636364
 40
0.7272727272727273
 40
0.7272727272727273
 40
0.7272727272727273
 40
0.7272727272727273
 40
0.8181818181818182
 40
0.8181818181818182
 40
0.8181818181818182
 40
0.8181818181818182
 40
1.0
 40
1.0
 40
1.0
 40
1.0
 10
-4.6219
 20
3.8408
 30
0.0
 10
-4.6219
 20
3.8408
 30
0.0
 10
-4.6221
 20
3.853
 30
0.0
 10
-4.6221
 20
3.853
 30
0.0
 10
-4.6221
 20
3.853
 30
0.0
 10
-4.6221
 20
3.853
 30
0.0
 10
-4.6223
 20
3.8652
 30
0.0
 10
-4.6223
 20
3.8652
 30
0.0
 10
-4.6223
 20
3.8652
 30
0.0
 10
-4.6223
 20
3.8652
 30
0.0
 10
-4.6225
 20
3.8774
 30
0.0
 10
-4.6225
 20
3.8774
 30
0.0
 10
-4.6225
 20
3.8774
 30
0.0
 10
-4.6225
 20
3.8774
 30
0.0
 10
-4.6227
 20
3.8896
 30
0.0
 10
-4.6227
 20
3.8896
 30
0.0
 10
-4.6227
 20
3.8896
 30
0.0
 10
-4.6227
 20
3.8896
 30
0.0
 10
-4.6229
 20
3.9019
 30
0.0
 10
-4.6229
 20
3.9019
 30
0.0
 10
-4.6229
 20
3.9019
 30
0.0
 10
-4.6229
 20
3.9019
 30
0.0
 10
-4.6231
 20
3.9141
 30
0.0
 10
-4.6231
 20
3.9141
 30
0.0
 10
-4.6231
 20
3.9141
 30
0.0
 10
-4.6231
 20
3.9141
 30
0.0
 10
-4.6233
 20
3.9263
 30
0.0
 10
-4.6233
 20
3.9263
 30
0.0
 10
-4.6233
 20
3.9263
 30
0.0
 10
-4.6233
 20
3.9263
 30
0.0
 10
-4.6235
 20
3.9385
 30
0.0
 10
-4.6235
 20
3.9385
 30
0.0
 10
-4.6235
 20
3.9385
 30
0.0
 10
-4.6235
 20
3.9385
 30
0.0
 10
-4.6236
 20
3.9507
 30
0.0
 10
-4.6236
 20
3.9507
 30
0.0
 10
-4.6236
 20
3.9507
 30
0.0
 10
-4.6236
 20
3.9507
 30
0.0
 10
-4.6239
 20
3.9629
 30
0.0
 10
-4.6239
 20
3.9629
 30
0.0
  0
SPLINE
  5
CA
330
1F
100
AcDbEntity
  8
VRSTVA_1
 62
   250
100
AcDbSpline
210
0.0
220
0.0
230
1.0
 70
     8
 71
     3
 72
    52
 73
    48
 74
     0
 42
0.0000000001
 43
0.0000000001
 40
0.0
 40
0.0
 40
0.0
 40
0.0
 40
0.0769230769230769
 40
0.0769230769230769
 40
0.0769230769230769
 40
0.0769230769230769
 40
0.1538461538461539
 40
0.1538461538461539
 40
0.1538461538461539
 40
0.1538461538461539
 40
0.2307692307692308
 40
0.2307692307692308
 40
0.2307692307692308
 40
0.2307692307692308
 40
0.3076923076923077
 40
0.3076923076923077
 40
0.3076923076923077
 40
0.3076923076923077
 40
0.3846153846153846
 40
0.3846153846153846
 40
0.3846153846153846
 40
0.3846153846153846
 40
0.4615384615384616
 40
0.4615384615384616
 40
0.4615384615384616
 40
0.4615384615384616
 40
0.5384615384615384
 40
0.5384615384615384
 40
0.5384615384615384
 40
0.5384615384615384
 40
0.6153846153846154
 40
0.6153846153846154
 40
0.6153846153846154
 40
0.6153846153846154
 40
0.6923076923076923
 40
0.6923076923076923
 40
0.6923076923076923
 40
0.6923076923076923
 40
0.7692307692307693
 40
0.7692307692307693
 40
0.7692307692307693
 40
0.7692307692307693
 40
0.8461538461538461
 40
0.8461538461538461
 40
0.8461538461538461
 40
0.8461538461538461
 40
1.0
 40
1.0
 40
1.0
 40
1.0
 10
-3.1203
 20
13.9598
 30
0.0
 10
-3.1203
 20
13.9598
 30
0.0
 10
-3.1208
 20
13.9614
 30
0.0
 10
-3.1208
 20
13.9614
 30
0.0
 10
-3.1208
 20
13.9614
 30
0.0
 10
-3.1208
 20
13.9614
 30
0.0
 10
-3.1215
 20
13.9633
 30
0.0
 10
-3.1215
 20
13.9633
 30
0.0
 10
-3.1215
 20
13.9633
 30
0.0
 10
-3.1215
 20
13.9633
 30
0.0
 10
-3.1223
 20
13.9651
 30
0.0
 10
-3.1223
 20
13.9651
 30
0.0
 10
-3.1223
 20
13.9651
 30
0.0
 10
-3.1223
 20
13.9651
 30
0.0
 10
-3.1233
 20
13.9671
 30
0.0
 10
-3.1233
 20
13.9671
 30
0.0
 10
-3.1233
 20
13.9671
 30
0.0
 10
-3.1233
 20
13.9671
 30
0.0
 10
-3.1236
 20
13.9675
 30
0.0
 10
-3.1236
 20
13.9675
 30
0.0
 10
-3.1236
 20
13.9675
 30
0.0
 10
-3.1236
 20
13.9675
 30
0.0
 10
-3.1247
 20
13.9694
 30
0.0
 10
-3.1247
 20
13.9694
 30
0.0
 10
-3.1247
 20
13.9694
 30
0.0
 10
-3.1247
 20
13.9694
 30
0.0
 10
-3.1263
 20
13.9705
 30
0.0
 10
-3.1263
 20
13.9705
 30
0.0
 10
-3.1263
 20
13.9705
 30
0.0
 10
-3.1263
 20
13.9705
 30
0.0
 10
-3.1273
 20
13.9707
 30
0.0
 10
-3.1273
 20
13.9707
 30
0.0
 10
-3.1273
 20
13.9707
 30
0.0
 10
-3.1273
 20
13.9707
 30
0.0
 10
-3.1294
 20
13.9703
 30
0.0
 10
-3.1294
 20
13.9703
 30
0.0
 10
-3.1294
 20
13.9703
 30
0.0
 10
-3.1294
 20
13.9703
 30
0.0
 10
-3.1301
 20
13.9699
 30
0.0
 10
-3.1301
 20
13.9699
 30
0.0
 10
-3.1301
 20
13.9699
 30
0.0
 10
-3.1301
 20
13.9699
 30
0.0
 10
-3.1314
 20
13.9682
 30
0.0
 10
-3.1314
 20
13.9682
 30
0.0
 10
-3.1314
 20
13.9682
 30
0.0
 10
-3.1314
 20
13.9682
 30
0.0
 10
-3.1324
 20
13.9664
 30
0.0
 10
-3.1324
 20
13.9664
 30
0.0
  0
SPLINE
  5
CB
330
1F
100
AcDbEntity
  8
VRSTVA_1
 62
   250
100
AcDbSpline
210
0.0
220
0.0
230
1.0
 70
     8
 71
     3
 72
    52
 73
    48
 74
     0
 42
0.0000000001
 43
0.0000000001
 40
0.0
 40
0.0
 40
0.0
 40
0.0
 40
0.0769230769230769
 40
0.0769230769230769
 40
0.0769230769230769
 40
0.0769230769230769
 40
0.1538461538461539
 40
0.1538461538461539
 40
0.1538461538461539
 40
0.1538461538461539
 40
0.2307692307692308
 40
0.2307692307692308
 40
0.2307692307692308
 40
0.2307692307692308
 40
0.3076923076923077
 40
0.3076923076923077
 40
0.3076923076923077
 40
0.3076923076923077
 40
0.3846153846153846
 40
0.3846153846153846
 40
0.3846153846153846
 40
0.3846153846153846
 40
0.4615384615384616
 40
0.4615384615384616
 40
0.4615384615384616
 40
0.4615384615384616
 40
0.5384615384615384
 40
0.5384615384615384
 40
0.5384615384615384
 40
0.5384615384615384
 40
0.6153846153846154
 40
0.6153846153846154
 40
0.6153846153846154
 40
0.6153846153846154
 40
0.6923076923076923
 40
0.6923076923076923
 40
0.6923076923076923
 40
0.6923076923076923
 40
0.7692307692307693
 40
0.7692307692307693
 40
0.7692307692307693
 40
0.7692307692307693
 40
0.8461538461538461
 40
0.8461538461538461
 40
0.8461538461538461
 40
0.8461538461538461
 40
1.0
 40
1.0
 40
1.0
 40
1.0
 10
-3.883
 20
-5.7958
 30
0.0
 10
-3.883
 20
-5.7958
 30
0.0
 10
-3.8862
 20
-5.7881
 30
0.0
 10
-3.8862
 20
-5.7881
 30
0.0
 10
-3.8862
 20
-5.7881
 30
0.0
 10
-3.8862
 20
-5.7881
 30
0.0
 10
-3.8885
 20
-5.7797
 30
0.0
 10
-3.8885
 20
-5.7797
 30
0.0
 10
-3.8885
 20
-5.7797
 30
0.0
 10
-3.8885
 20
-5.7797
 30
0.0
 10
-3.8887
 20
-5.7786
 30
0.0
 10
-3.8887
 20
-5.7786
 30
0.0
 10
-3.8887
 20
-5.7786
 30
0.0
 10
-3.8887
 20
-5.7786
 30
0.0
 10
-3.8915
 20
-5.7654
 30
0.0
 10
-3.8915
 20
-5.7654
 30
0.0
 10
-3.8915
 20
-5.7654
 30
0.0
 10
-3.8915
 20
-5.7654
 30
0.0
 10
-3.8939
 20
-5.7522
 30
0.0
 10
-3.8939
 20
-5.7522
 30
0.0
 10
-3.8939
 20
-5.7522
 30
0.0
 10
-3.8939
 20
-5.7522
 30
0.0
 10
-3.8958
 20
-5.7401
 30
0.0
 10
-3.8958
 20
-5.7401
 30
0.0
 10
-3.8958
 20
-5.7401
 30
0.0
 10
-3.8958
 20
-5.7401
 30
0.0
 10
-3.8976
 20
-5.7267
 30
0.0
 10
-3.8976
 20
-5.7267
 30
0.0
 10
-3.8976
 20
-5.7267
 30
0.0
 10
-3.8976
 20
-5.7267
 30
0.0
 10
-3.8993
 20
-5.7134
 30
0.0
 10
-3.8993
 20
-5.7134
 30
0.0
 10
-3.8993
 20
-5.7134
 30
0.0
 10
-3.8993
 20
-5.7134
 30
0.0
 10
-3.9005
 20
-5.7034
 30
0.0
 10
-3.9005
 20
-5.7034
 30
0.0
 10
-3.9005
 20
-5.7034
 30
0.0
 10
-3.9005
 20
-5.7034
 30
0.0
 10
-3.902
 20
-5.6901
 30
0.0
 10
-3.902
 20
-5.6901
 30
0.0
 10
-3.902
 20
-5.6901
 30
0.0
 10
-3.902
 20
-5.6901
 30
0.0
 10
-3.9034
 20
-5.6767
 30
0.0
 10
-3.9034
 20
-5.6767
 30
0.0
 10
-3.9034
 20
-5.6767
 30
0.0
 10
-3.9034
 20
-5.6767
 30
0.0
 10
-3.9047
 20
-5.6633
 30
0.0
 10
-3.9047
 20
-5.6633
 30
0.0
  0
SPLINE
  5
CC
330
1F
100
AcDbEntity
  8
VRSTVA_1
 62
   250
100
AcDbSpline
210
0.0
220
0.0
230
1.0
 70
     8
 71
     3
 72
   132
 73
   128
 74
     0
 42
0.0000000001
 43
0.0000000001
 40
0.0
 40
0.0
 40
0.0
 40
0.0
 40
0.0303030303030303
 40
0.0303030303030303
 40
0.0303030303030303
 40
0.0303030303030303
 40
0.0606060606060606
 40
0.0606060606060606
 40
0.0606060606060606
 40
0.0606060606060606
 40
0.0909090909090909
 40
0.0909090909090909
 40
0.0909090909090909
 40
0.0909090909090909
 40
0.1212121212121212
 40
0.1212121212121212
 40
0.1212121212121212
 40
0.1212121212121212
 40
0.1515151515151515
 40
0.1515151515151515
 40
0.1515151515151515
 40
0.1515151515151515
 40
0.1818181818181818
 40
0.1818181818181818
 40
0.1818181818181818
 40
0.1818181818181818
 40
0.2121212121212121
 40
0.2121212121212121
 40
0.2121212121212121
 40
0.2121212121212121
 40
0.2424242424242424
 40
0.2424242424242424
 40
0.2424242424242424
 40
0.2424242424242424
 40
0.2727272727272727
 40
0.2727272727272727
 40
0.2727272727272727
 40
0.2727272727272727
 40
0.303030303030303
 40
0.303030303030303
 40
0.303030303030303
 40
0.303030303030303
 40
0.3333333333333333
 40
0.3333333333333333
 40
0.3333333333333333
 40
0.3333333333333333
 40
0.3636363636363636
 40
0.3636363636363636
 40
0.3636363636363636
 40
0.3636363636363636
 40
0.3939393939393939
 40
0.3939393939393939
 40
0.3939393939393939
 40
0.3939393939393939
 40
0.4242424242424243
 40
0.4242424242424243
 40
0.4242424242424243
 40
0.4242424242424243
 40
0.4545454545454545
 40
0.4545454545454545
 40
0.4545454545454545
 40
0.4545454545454545
 40
0.4848484848484849
 40
0.4848484848484849
 40
0.4848484848484849
 40
0.4848484848484849
 40
0.5151515151515151
 40
0.5151515151515151
 40
0.5151515151515151
 40
0.5151515151515151
 40
0.5454545454545454
 40
0.5454545454545454
 40
0.5454545454545454
 40
0.5454545454545454
 40
0.5757575757575758
 40
0.5757575757575758
 40
0.5757575757575758
 40
0.5757575757575758
 40
0.6060606060606061
 40
0.6060606060606061
 40
0.6060606060606061
 40
0.6060606060606061
 40
0.6363636363636364
 40
0.6363636363636364
 40
0.6363636363636364
 40
0.6363636363636364
 40
0.6666666666666666
 40
0.6666666666666666
 40
0.6666666666666666
 40
0.6666666666666666
 40
0.696969696969697
 40
0.696969696969697
 40
0.696969696969697
 40
0.696969696969697
 40
0.7272727272727273
 40
0.7272727272727273
 40
0.7272727272727273
 40
0.7272727272727273
 40
0.7575757575757576
 40
0.7575757575757576
 40
0.7575757575757576
 40
0.7575757575757576
 40
0.7878787878787878
 40
0.7878787878787878
 40
0.7878787878787878
 40
0.7878787878787878
 40
0.8181818181818182
 40
0.8181818181818182
 40
0.8181818181818182
 40
0.8181818181818182
 40
0.8484848484848485
 40
0.8484848484848485
 40
0.8484848484848485
 40
0.8484848484848485
 40
0.8787878787878788
 40
0.8787878787878788
 40
0.8787878787878788
 40
0.8787878787878788
 40
0.9090909090909091
 40
0.9090909090909091
 40
0.9090909090909091
 40
0.9090909090909091
 40
0.9393939393939394
 40
0.9393939393939394
 40
0.9393939393939394
 40
0.9393939393939394
 40
1.0
 40
1.0
 40
1.0
 40
1.0
 10
-3.9047
 20
-5.6633
 30
0.0
 10
-3.9047
 20
-5.6633
 30
0.0
 10
-3.9196
 20
-5.4695
 30
0.0
 10
-3.9196
 20
-5.4695
 30
0.0
 10
-3.9196
 20
-5.4695
 30
0.0
 10
-3.9196
 20
-5.4695
 30
0.0
 10
-3.9344
 20
-5.1937
 30
0.0
 10
-3.9344
 20
-5.1937
 30
0.0
 10
-3.9344
 20
-5.1937
 30
0.0
 10
-3.9344
 20
-5.1937
 30
0.0
 10
-3.9609
 20
-4.5053
 30
0.0
 10
-3.9609
 20
-4.5053
 30
0.0
 10
-3.9609
 20
-4.5053
 30
0.0
 10
-3.9609
 20
-4.5053
 30
0.0
 10
-3.964
 20
-4.4066
 30
0.0
 10
-3.964
 20
-4.4066
 30
0.0
 10
-3.964
 20
-4.4066
 30
0.0
 10
-3.964
 20
-4.4066
 30
0.0
 10
-3.9937
 20
-3.3296
 30
0.0
 10
-3.9937
 20
-3.3296
 30
0.0
 10
-3.9937
 20
-3.3296
 30
0.0
 10
-3.9937
 20
-3.3296
 30
0.0
 10
-4.0233
 20
-2.0005
 30
0.0
 10
-4.0233
 20
-2.0005
 30
0.0
 10
-4.0233
 20
-2.0005
 30
0.0
 10
-4.0233
 20
-2.0005
 30
0.0
 10
-4.053
 20
-0.4661
 30
0.0
 10
-4.053
 20
-0.4661
 30
0.0
 10
-4.053
 20
-0.4661
 30
0.0
 10
-4.053
 20
-0.4661
 30
0.0
 10
-4.0826
 20
1.2196
 30
0.0
 10
-4.0826
 20
1.2196
 30
0.0
 10
-4.0826
 20
1.2196
 30
0.0
 10
-4.0826
 20
1.2196
 30
0.0
 10
-4.1123
 20
2.9976
 30
0.0
 10
-4.1123
 20
2.9976
 30
0.0
 10
-4.1123
 20
2.9976
 30
0.0
 10
-4.1123
 20
2.9976
 30
0.0
 10
-4.1419
 20
4.8051
 30
0.0
 10
-4.1419
 20
4.8051
 30
0.0
 10
-4.1419
 20
4.8051
 30
0.0
 10
-4.1419
 20
4.8051
 30
0.0
 10
-4.1715
 20
6.5787
 30
0.0
 10
-4.1715
 20
6.5787
 30
0.0
 10
-4.1715
 20
6.5787
 30
0.0
 10
-4.1715
 20
6.5787
 30
0.0
 10
-4.2012
 20
8.2561
 30
0.0
 10
-4.2012
 20
8.2561
 30
0.0
 10
-4.2012
 20
8.2561
 30
0.0
 10
-4.2012
 20
8.2561
 30
0.0
 10
-4.2308
 20
9.7783
 30
0.0
 10
-4.2308
 20
9.7783
 30
0.0
 10
-4.2308
 20
9.7783
 30
0.0
 10
-4.2308
 20
9.7783
 30
0.0
 10
-4.2605
 20
11.0918
 30
0.0
 10
-4.2605
 20
11.0918
 30
0.0
 10
-4.2605
 20
11.0918
 30
0.0
 10
-4.2605
 20
11.0918
 30
0.0
 10
-4.2753
 20
11.6556
 30
0.0
 10
-4.2753
 20
11.6556
 30
0.0
 10
-4.2753
 20
11.6556
 30
0.0
 10
-4.2753
 20
11.6556
 30
0.0
 10
-4.2901
 20
12.1504
 30
0.0
 10
-4.2901
 20
12.1504
 30
0.0
 10
-4.2901
 20
12.1504
 30
0.0
 10
-4.2901
 20
12.1504
 30
0.0
 10
-4.2975
 20
12.3707
 30
0.0
 10
-4.2975
 20
12.3707
 30
0.0
 10
-4.2975
 20
12.3707
 30
0.0
 10
-4.2975
 20
12.3707
 30
0.0
 10
-4.3049
 20
12.5722
 30
0.0
 10
-4.3049
 20
12.5722
 30
0.0
 10
-4.3049
 20
12.5722
 30
0.0
 10
-4.3049
 20
12.5722
 30
0.0
 10
-4.3123
 20
12.7544
 30
0.0
 10
-4.3123
 20
12.7544
 30
0.0
 10
-4.3123
 20
12.7544
 30
0.0
 10
-4.3123
 20
12.7544
 30
0.0
 10
-4.3198
 20
12.917
 30
0.0
 10
-4.3198
 20
12.917
 30
0.0
 10
-4.3198
 20
12.917
 30
0.0
 10
-4.3198
 20
12.917
 30
0.0
 10
-4.3271
 20
13.0596
 30
0.0
 10
-4.3271
 20
13.0596
 30
0.0
 10
-4.3271
 20
13.0596
 30
0.0
 10
-4.3271
 20
13.0596
 30
0.0
 10
-4.3346
 20
13.1819
 30
0.0
 10
-4.3346
 20
13.1819
 30
0.0
 10
-4.3346
 20
13.1819
 30
0.0
 10
-4.3346
 20
13.1819
 30
0.0
 10
-4.342
 20
13.2836
 30
0.0
 10
-4.342
 20
13.2836
 30
0.0
 10
-4.342
 20
13.2836
 30
0.0
 10
-4.342
 20
13.2836
 30
0.0
 10
-4.3494
 20
13.3645
 30
0.0
 10
-4.3494
 20
13.3645
 30
0.0
 10
-4.3494
 20
13.3645
 30
0.0
 10
-4.3494
 20
13.3645
 30
0.0
 10
-4.3531
 20
13.3971
 30
0.0
 10
-4.3531
 20
13.3971
 30
0.0
 10
-4.3531
 20
13.3971
 30
0.0
 10
-4.3531
 20
13.3971
 30
0.0
 10
-4.3568
 20
13.4245
 30
0.0
 10
-4.3568
 20
13.4245
 30
0.0
 10
-4.3568
 20
13.4245
 30
0.0
 10
-4.3568
 20
13.4245
 30
0.0
 10
-4.3605
 20
13.4465
 30
0.0
 10
-4.3605
 20
13.4465
 30
0.0
 10
-4.3605
 20
13.4465
 30
0.0
 10
-4.3605
 20
13.4465
 30
0.0
 10
-4.3642
 20
13.4633
 30
0.0
 10
-4.3642
 20
13.4633
 30
0.0
 10
-4.3642
 20
13.4633
 30
0.0
 10
-4.3642
 20
13.4633
 30
0.0
 10
-4.3679
 20
13.4747
 30
0.0
 10
-4.3679
 20
13.4747
 30
0.0
 10
-4.3679
 20
13.4747
 30
0.0
 10
-4.3679
 20
13.4747
 30
0.0
 10
-4.3716
 20
13.4809
 30
0.0
 10
-4.3716
 20
13.4809
 30
0.0
 10
-4.3716
 20
13.4809
 30
0.0
 10
-4.3716
 20
13.4809
 30
0.0
 10
-4.3753
 20
13.4818
 30
0.0
 10
-4.3753
 20
13.4818
 30
0.0
 10
-4.3753
 20
13.4818
 30
0.0
 10
-4.3753
 20
13.4818
 30
0.0
 10
-4.379
 20
13.4773
 30
0.0
 10
-4.379
 20
13.4773
 30
0.0
  0
SPLINE
  5
CD
330
1F
100
AcDbEntity
  8
VRSTVA_1
 62
   250
100
AcDbSpline
210
0.0
220
0.0
230
1.0
 70
     8
 71
     3
 72
   136
 73
   132
 74
     0
 42
0.0000000001
 43
0.0000000001
 40
0.0
 40
0.0
 40
0.0
 40
0.0
 40
0.0294117647058824
 40
0.0294117647058824
 40
0.0294117647058824
 40
0.0294117647058824
 40
0.0588235294117647
 40
0.0588235294117647
 40
0.0588235294117647
 40
0.0588235294117647
 40
0.0882352941176471
 40
0.0882352941176471
 40
0.0882352941176471
 40
0.0882352941176471
 40
0.1176470588235294
 40
0.1176470588235294
 40
0.1176470588235294
 40
0.1176470588235294
 40
0.1470588235294118
 40
0.1470588235294118
 40
0.1470588235294118
 40
0.1470588235294118
 40
0.1764705882352941
 40
0.1764705882352941
 40
0.1764705882352941
 40
0.1764705882352941
 40
0.2058823529411765
 40
0.2058823529411765
 40
0.2058823529411765
 40
0.2058823529411765
 40
0.2352941176470588
 40
0.2352941176470588
 40
0.2352941176470588
 40
0.2352941176470588
 40
0.2647058823529412
 40
0.2647058823529412
 40
0.2647058823529412
 40
0.2647058823529412
 40
0.2941176470588235
 40
0.2941176470588235
 40
0.2941176470588235
 40
0.2941176470588235
 40
0.3235294117647059
 40
0.3235294117647059
 40
0.3235294117647059
 40
0.3235294117647059
 40
0.3529411764705883
 40
0.3529411764705883
 40
0.3529411764705883
 40
0.3529411764705883
 40
0.3823529411764706
 40
0.3823529411764706
 40
0.3823529411764706
 40
0.3823529411764706
 40
0.4117647058823529
 40
0.4117647058823529
 40
0.4117647058823529
 40
0.4117647058823529
 40
0.4411764705882353
 40
0.4411764705882353
 40
0.4411764705882353
 40
0.4411764705882353
 40
0.4705882352941176
 40
0.4705882352941176
 40
0.4705882352941176
 40
0.4705882352941176
 40
0.5
 40
0.5
 40
0.5
 40
0.5
 40
0.5294117647058824
 40
0.5294117647058824
 40
0.5294117647058824
 40
0.5294117647058824
 40
0.5588235294117647
 40
0.5588235294117647
 40
0.5588235294117647
 40
0.5588235294117647
 40
0.5882352941176471
 40
0.5882352941176471
 40
0.5882352941176471
 40
0.5882352941176471
 40
0.6176470588235294
 40
0.6176470588235294
 40
0.6176470588235294
 40
0.6176470588235294
 40
0.6470588235294118
 40
0.6470588235294118
 40
0.6470588235294118
 40
0.6470588235294118
 40
0.6764705882352942
 40
0.6764705882352942
 40
0.6764705882352942
 40
0.6764705882352942
 40
0.7058823529411765
 40
0.7058823529411765
 40
0.7058823529411765
 40
0.7058823529411765
 40
0.7352941176470589
 40
0.7352941176470589
 40
0.7352941176470589
 40
0.7352941176470589
 40
0.7647058823529411
 40
0.7647058823529411
 40
0.7647058823529411
 40
0.7647058823529411
 40
0.7941176470588235
 40
0.7941176470588235
 40
0.7941176470588235
 40
0.7941176470588235
 40
0.8235294117647058
 40
0.8235294117647058
 40
0.8235294117647058
 40
0.8235294117647058
 40
0.8529411764705882
 40
0.8529411764705882
 40
0.8529411764705882
 40
0.8529411764705882
 40
0.8823529411764706
 40
0.8823529411764706
 40
0.8823529411764706
 40
0.8823529411764706
 40
0.9117647058823529
 40
0.9117647058823529
 40
0.9117647058823529
 40
0.9117647058823529
 40
0.9411764705882353
 40
0.9411764705882353
 40
0.9411764705882353
 40
0.9411764705882353
 40
1.0
 40
1.0
 40
1.0
 40
1.0
 10
-7.4884
 20
-4.3856
 30
0.0
 10
-7.4884
 20
-4.3856
 30
0.0
 10
-7.4812
 20
-4.3995
 30
0.0
 10
-7.4812
 20
-4.3995
 30
0.0
 10
-7.4812
 20
-4.3995
 30
0.0
 10
-7.4812
 20
-4.3995
 30
0.0
 10
-7.4532
 20
-4.4553
 30
0.0
 10
-7.4532
 20
-4.4553
 30
0.0
 10
-7.4532
 20
-4.4553
 30
0.0
 10
-7.4532
 20
-4.4553
 30
0.0
 10
-7.4275
 20
-4.5105
 30
0.0
 10
-7.4275
 20
-4.5105
 30
0.0
 10
-7.4275
 20
-4.5105
 30
0.0
 10
-7.4275
 20
-4.5105
 30
0.0
 10
-7.4039
 20
-4.5649
 30
0.0
 10
-7.4039
 20
-4.5649
 30
0.0
 10
-7.4039
 20
-4.5649
 30
0.0
 10
-7.4039
 20
-4.5649
 30
0.0
 10
-7.3824
 20
-4.6187
 30
0.0
 10
-7.3824
 20
-4.6187
 30
0.0
 10
-7.3824
 20
-4.6187
 30
0.0
 10
-7.3824
 20
-4.6187
 30
0.0
 10
-7.3631
 20
-4.6719
 30
0.0
 10
-7.3631
 20
-4.6719
 30
0.0
 10
-7.3631
 20
-4.6719
 30
0.0
 10
-7.3631
 20
-4.6719
 30
0.0
 10
-7.3457
 20
-4.7244
 30
0.0
 10
-7.3457
 20
-4.7244
 30
0.0
 10
-7.3457
 20
-4.7244
 30
0.0
 10
-7.3457
 20
-4.7244
 30
0.0
 10
-7.3303
 20
-4.7763
 30
0.0
 10
-7.3303
 20
-4.7763
 30
0.0
 10
-7.3303
 20
-4.7763
 30
0.0
 10
-7.3303
 20
-4.7763
 30
0.0
 10
-7.3169
 20
-4.8277
 30
0.0
 10
-7.3169
 20
-4.8277
 30
0.0
 10
-7.3169
 20
-4.8277
 30
0.0
 10
-7.3169
 20
-4.8277
 30
0.0
 10
-7.3054
 20
-4.8785
 30
0.0
 10
-7.3054
 20
-4.8785
 30
0.0
 10
-7.3054
 20
-4.8785
 30
0.0
 10
-7.3054
 20
-4.8785
 30
0.0
 10
-7.2993
 20
-4.909
 30
0.0
 10
-7.2993
 20
-4.909
 30
0.0
 10
-7.2993
 20
-4.909
 30
0.0
 10
-7.2993
 20
-4.909
 30
0.0
 10
-7.2911
 20
-4.9569
 30
0.0
 10
-7.2911
 20
-4.9569
 30
0.0
 10
-7.2911
 20
-4.9569
 30
0.0
 10
-7.2911
 20
-4.9569
 30
0.0
 10
-7.2848
 20
-5.0032
 30
0.0
 10
-7.2848
 20
-5.0032
 30
0.0
 10
-7.2848
 20
-5.0032
 30
0.0
 10
-7.2848
 20
-5.0032
 30
0.0
 10
-7.2804
 20
-5.0482
 30
0.0
 10
-7.2804
 20
-5.0482
 30
0.0
 10
-7.2804
 20
-5.0482
 30
0.0
 10
-7.2804
 20
-5.0482
 30
0.0
 10
-7.2778
 20
-5.0917
 30
0.0
 10
-7.2778
 20
-5.0917
 30
0.0
 10
-7.2778
 20
-5.0917
 30
0.0
 10
-7.2778
 20
-5.0917
 30
0.0
 10
-7.277
 20
-5.1341
 30
0.0
 10
-7.277
 20
-5.1341
 30
0.0
 10
-7.277
 20
-5.1341
 30
0.0
 10
-7.277
 20
-5.1341
 30
0.0
 10
-7.2778
 20
-5.1752
 30
0.0
 10
-7.2778
 20
-5.1752
 30
0.0
 10
-7.2778
 20
-5.1752
 30
0.0
 10
-7.2778
 20
-5.1752
 30
0.0
 10
-7.2803
 20
-5.2152
 30
0.0
 10
-7.2803
 20
-5.2152
 30
0.0
 10
-7.2803
 20
-5.2152
 30
0.0
 10
-7.2803
 20
-5.2152
 30
0.0
 10
-7.2844
 20
-5.2542
 30
0.0
 10
-7.2844
 20
-5.2542
 30
0.0
 10
-7.2844
 20
-5.2542
 30
0.0
 10
-7.2844
 20
-5.2542
 30
0.0
 10
-7.2879
 20
-5.2785
 30
0.0
 10
-7.2879
 20
-5.2785
 30
0.0
 10
-7.2879
 20
-5.2785
 30
0.0
 10
-7.2879
 20
-5.2785
 30
0.0
 10
-7.2945
 20
-5.3153
 30
0.0
 10
-7.2945
 20
-5.3153
 30
0.0
 10
-7.2945
 20
-5.3153
 30
0.0
 10
-7.2945
 20
-5.3153
 30
0.0
 10
-7.3025
 20
-5.3507
 30
0.0
 10
-7.3025
 20
-5.3507
 30
0.0
 10
-7.3025
 20
-5.3507
 30
0.0
 10
-7.3025
 20
-5.3507
 30
0.0
 10
-7.3119
 20
-5.3846
 30
0.0
 10
-7.3119
 20
-5.3846
 30
0.0
 10
-7.3119
 20
-5.3846
 30
0.0
 10
-7.3119
 20
-5.3846
 30
0.0
 10
-7.3227
 20
-5.417
 30
0.0
 10
-7.3227
 20
-5.417
 30
0.0
 10
-7.3227
 20
-5.417
 30
0.0
 10
-7.3227
 20
-5.417
 30
0.0
 10
-7.3348
 20
-5.448
 30
0.0
 10
-7.3348
 20
-5.448
 30
0.0
 10
-7.3348
 20
-5.448
 30
0.0
 10
-7.3348
 20
-5.448
 30
0.0
 10
-7.348
 20
-5.4774
 30
0.0
 10
-7.348
 20
-5.4774
 30
0.0
 10
-7.348
 20
-5.4774
 30
0.0
 10
-7.348
 20
-5.4774
 30
0.0
 10
-7.3624
 20
-5.5055
 30
0.0
 10
-7.3624
 20
-5.5055
 30
0.0
 10
-7.3624
 20
-5.5055
 30
0.0
 10
-7.3624
 20
-5.5055
 30
0.0
 10
-7.3657
 20
-5.5113
 30
0.0
 10
-7.3657
 20
-5.5113
 30
0.0
 10
-7.3657
 20
-5.5113
 30
0.0
 10
-7.3657
 20
-5.5113
 30
0.0
 10
-7.382
 20
-5.5384
 30
0.0
 10
-7.382
 20
-5.5384
 30
0.0
 10
-7.382
 20
-5.5384
 30
0.0
 10
-7.382
 20
-5.5384
 30
0.0
 10
-7.3997
 20
-5.5644
 30
0.0
 10
-7.3997
 20
-5.5644
 30
0.0
 10
-7.3997
 20
-5.5644
 30
0.0
 10
-7.3997
 20
-5.5644
 30
0.0
 10
-7.4187
 20
-5.5893
 30
0.0
 10
-7.4187
 20
-5.5893
 30
0.0
 10
-7.4187
 20
-5.5893
 30
0.0
 10
-7.4187
 20
-5.5893
 30
0.0
 10
-7.439
 20
-5.6129
 30
0.0
 10
-7.439
 20
-5.6129
 30
0.0
 10
-7.439
 20
-5.6129
 30
0.0
 10
-7.439
 20
-5.6129
 30
0.0
 10
-7.4602
 20
-5.6351
 30
0.0
 10
-7.4602
 20
-5.6351
 30
0.0
  0
SPLINE
  5
CE
330
1F
100
AcDbEntity
  8
VRSTVA_1
 62
   250
100
AcDbSpline
210
0.0
220
0.0
230
1.0
 70
     8
 71
     3
 72
    44
 73
    40
 74
     0
 42
0.0000000001
 43
0.0000000001
 40
0.0
 40
0.0
 40
0.0
 40
0.0
 40
0.0909090909090909
 40
0.0909090909090909
 40
0.0909090909090909
 40
0.0909090909090909
 40
0.1818181818181818
 40
0.1818181818181818
 40
0.1818181818181818
 40
0.1818181818181818
 40
0.2727272727272727
 40
0.2727272727272727
 40
0.2727272727272727
 40
0.2727272727272727
 40
0.3636363636363636
 40
0.3636363636363636
 40
0.3636363636363636
 40
0.3636363636363636
 40
0.4545454545454545
 40
0.4545454545454545
 40
0.4545454545454545
 40
0.4545454545454545
 40
0.5454545454545454
 40
0.5454545454545454
 40
0.5454545454545454
 40
0.5454545454545454
 40
0.6363636363636364
 40
0.6363636363636364
 40
0.6363636363636364
 40
0.6363636363636364
 40
0.7272727272727273
 40
0.7272727272727273
 40
0.7272727272727273
 40
0.7272727272727273
 40
0.8181818181818182
 40
0.8181818181818182
 40
0.8181818181818182
 40
0.8181818181818182
 40
1.0
 40
1.0
 40
1.0
 40
1.0
 10
-7.4602
 20
-5.6351
 30
0.0
 10
-7.4602
 20
-5.6351
 30
0.0
 10
-7.4625
 20
-5.6372
 30
0.0
 10
-7.4625
 20
-5.6372
 30
0.0
 10
-7.4625
 20
-5.6372
 30
0.0
 10
-7.4625
 20
-5.6372
 30
0.0
 10
-7.4647
 20
-5.6393
 30
0.0
 10
-7.4647
 20
-5.6393
 30
0.0
 10
-7.4647
 20
-5.6393
 30
0.0
 10
-7.4647
 20
-5.6393
 30
0.0
 10
-7.4669
 20
-5.6413
 30
0.0
 10
-7.4669
 20
-5.6413
 30
0.0
 10
-7.4669
 20
-5.6413
 30
0.0
 10
-7.4669
 20
-5.6413
 30
0.0
 10
-7.4692
 20
-5.6434
 30
0.0
 10
-7.4692
 20
-5.6434
 30
0.0
 10
-7.4692
 20
-5.6434
 30
0.0
 10
-7.4692
 20
-5.6434
 30
0.0
 10
-7.4715
 20
-5.6455
 30
0.0
 10
-7.4715
 20
-5.6455
 30
0.0
 10
-7.4715
 20
-5.6455
 30
0.0
 10
-7.4715
 20
-5.6455
 30
0.0
 10
-7.4737
 20
-5.6476
 30
0.0
 10
-7.4737
 20
-5.6476
 30
0.0
 10
-7.4737
 20
-5.6476
 30
0.0
 10
-7.4737
 20
-5.6476
 30
0.0
 10
-7.4759
 20
-5.6497
 30
0.0
 10
-7.4759
 20
-5.6497
 30
0.0
 10
-7.4759
 20
-5.6497
 30
0.0
 10
-7.4759
 20
-5.6497
 30
0.0
 10
-7.4782
 20
-5.6517
 30
0.0
 10
-7.4782
 20
-5.6517
 30
0.0
 10
-7.4782
 20
-5.6517
 30
0.0
 10
-7.4782
 20
-5.6517
 30
0.0
 10
-7.4804
 20
-5.6538
 30
0.0
 10
-7.4804
 20
-5.6538
 30
0.0
 10
-7.4804
 20
-5.6538
 30
0.0
 10
-7.4804
 20
-5.6538
 30
0.0
 10
-7.4827
 20
-5.6559
 30
0.0
 10
-7.4827
 20
-5.6559
 30
0.0
  0
SPLINE
  5
CF
330
1F
100
AcDbEntity
  8
VRSTVA_1
 62
   250
100
AcDbSpline
210
0.0
220
0.0
230
1.0
 70
     8
 71
     3
 72
    64
 73
    60
 74
     0
 42
0.0000000001
 43
0.0000000001
 40
0.0
 40
0.0
 40
0.0
 40
0.0
 40
0.0625
 40
0.0625
 40
0.0625
 40
0.0625
 40
0.125
 40
0.125
 40
0.125
 40
0.125
 40
0.1875
 40
0.1875
 40
0.1875
 40
0.1875
 40
0.25
 40
0.25
 40
0.25
 40
0.25
 40
0.3125
 40
0.3125
 40
0.3125
 40
0.3125
 40
0.375
 40
0.375
 40
0.375
 40
0.375
 40
0.4375
 40
0.4375
 40
0.4375
 40
0.4375
 40
0.5
 40
0.5
 40
0.5
 40
0.5
 40
0.5625
 40
0.5625
 40
0.5625
 40
0.5625
 40
0.625
 40
0.625
 40
0.625
 40
0.625
 40
0.6875
 40
0.6875
 40
0.6875
 40
0.6875
 40
0.75
 40
0.75
 40
0.75
 40
0.75
 40
0.8125
 40
0.8125
 40
0.8125
 40
0.8125
 40
0.875
 40
0.875
 40
0.875
 40
0.875
 40
1.0
 40
1.0
 40
1.0
 40
1.0
 10
-4.1194
 20
-5.8006
 30
0.0
 10
-4.1194
 20
-5.8006
 30
0.0
 10
-4.1214
 20
-5.7998
 30
0.0
 10
-4.1214
 20
-5.7998
 30
0.0
 10
-4.1214
 20
-5.7998
 30
0.0
 10
-4.1214
 20
-5.7998
 30
0.0
 10
-4.1228
 20
-5.7985
 30
0.0
 10
-4.1228
 20
-5.7985
 30
0.0
 10
-4.1228
 20
-5.7985
 30
0.0
 10
-4.1228
 20
-5.7985
 30
0.0
 10
-4.1252
 20
-5.7944
 30
0.0
 10
-4.1252
 20
-5.7944
 30
0.0
 10
-4.1252
 20
-5.7944
 30
0.0
 10
-4.1252
 20
-5.7944
 30
0.0
 10
-4.1261
 20
-5.7921
 30
0.0
 10
-4.1261
 20
-5.7921
 30
0.0
 10
-4.1261
 20
-5.7921
 30
0.0
 10
-4.1261
 20
-5.7921
 30
0.0
 10
-4.13
 20
-5.7794
 30
0.0
 10
-4.13
 20
-5.7794
 30
0.0
 10
-4.13
 20
-5.7794
 30
0.0
 10
-4.13
 20
-5.7794
 30
0.0
 10
-4.1327
 20
-5.7666
 30
0.0
 10
-4.1327
 20
-5.7666
 30
0.0
 10
-4.1327
 20
-5.7666
 30
0.0
 10
-4.1327
 20
-5.7666
 30
0.0
 10
-4.1329
 20
-5.7657
 30
0.0
 10
-4.1329
 20
-5.7657
 30
0.0
 10
-4.1329
 20
-5.7657
 30
0.0
 10
-4.1329
 20
-5.7657
 30
0.0
 10
-4.1354
 20
-5.7519
 30
0.0
 10
-4.1354
 20
-5.7519
 30
0.0
 10
-4.1354
 20
-5.7519
 30
0.0
 10
-4.1354
 20
-5.7519
 30
0.0
 10
-4.1375
 20
-5.738
 30
0.0
 10
-4.1375
 20
-5.738
 30
0.0
 10
-4.1375
 20
-5.738
 30
0.0
 10
-4.1375
 20
-5.738
 30
0.0
 10
-4.1394
 20
-5.7242
 30
0.0
 10
-4.1394
 20
-5.7242
 30
0.0
 10
-4.1394
 20
-5.7242
 30
0.0
 10
-4.1394
 20
-5.7242
 30
0.0
 10
-4.1398
 20
-5.7205
 30
0.0
 10
-4.1398
 20
-5.7205
 30
0.0
 10
-4.1398
 20
-5.7205
 30
0.0
 10
-4.1398
 20
-5.7205
 30
0.0
 10
-4.1415
 20
-5.7067
 30
0.0
 10
-4.1415
 20
-5.7067
 30
0.0
 10
-4.1415
 20
-5.7067
 30
0.0
 10
-4.1415
 20
-5.7067
 30
0.0
 10
-4.1431
 20
-5.6927
 30
0.0
 10
-4.1431
 20
-5.6927
 30
0.0
 10
-4.1431
 20
-5.6927
 30
0.0
 10
-4.1431
 20
-5.6927
 30
0.0
 10
-4.1446
 20
-5.6788
 30
0.0
 10
-4.1446
 20
-5.6788
 30
0.0
 10
-4.1446
 20
-5.6788
 30
0.0
 10
-4.1446
 20
-5.6788
 30
0.0
 10
-4.146
 20
-5.6649
 30
0.0
 10
-4.146
 20
-5.6649
 30
0.0
  0
SPLINE
  5
D0
330
1F
100
AcDbEntity
  8
VRSTVA_1
 62
   250
100
AcDbSpline
210
0.0
220
0.0
230
1.0
 70
     8
 71
     3
 72
    48
 73
    44
 74
     0
 42
0.0000000001
 43
0.0000000001
 40
0.0
 40
0.0
 40
0.0
 40
0.0
 40
0.0833333333333333
 40
0.0833333333333333
 40
0.0833333333333333
 40
0.0833333333333333
 40
0.1666666666666667
 40
0.1666666666666667
 40
0.1666666666666667
 40
0.1666666666666667
 40
0.25
 40
0.25
 40
0.25
 40
0.25
 40
0.3333333333333333
 40
0.3333333333333333
 40
0.3333333333333333
 40
0.3333333333333333
 40
0.4166666666666667
 40
0.4166666666666667
 40
0.4166666666666667
 40
0.4166666666666667
 40
0.5
 40
0.5
 40
0.5
 40
0.5
 40
0.5833333333333334
 40
0.5833333333333334
 40
0.5833333333333334
 40
0.5833333333333334
 40
0.6666666666666666
 40
0.6666666666666666
 40
0.6666666666666666
 40
0.6666666666666666
 40
0.75
 40
0.75
 40
0.75
 40
0.75
 40
0.8333333333333334
 40
0.8333333333333334
 40
0.8333333333333334
 40
0.8333333333333334
 40
1.0
 40
1.0
 40
1.0
 40
1.0
 10
-4.587
 20
13.3266
 30
0.0
 10
-4.587
 20
13.3266
 30
0.0
 10
-4.5878
 20
13.3343
 30
0.0
 10
-4.5878
 20
13.3343
 30
0.0
 10
-4.5878
 20
13.3343
 30
0.0
 10
-4.5878
 20
13.3343
 30
0.0
 10
-4.5886
 20
13.3431
 30
0.0
 10
-4.5886
 20
13.3431
 30
0.0
 10
-4.5886
 20
13.3431
 30
0.0
 10
-4.5886
 20
13.3431
 30
0.0
 10
-4.5894
 20
13.3518
 30
0.0
 10
-4.5894
 20
13.3518
 30
0.0
 10
-4.5894
 20
13.3518
 30
0.0
 10
-4.5894
 20
13.3518
 30
0.0
 10
-4.5896
 20
13.3529
 30
0.0
 10
-4.5896
 20
13.3529
 30
0.0
 10
-4.5896
 20
13.3529
 30
0.0
 10
-4.5896
 20
13.3529
 30
0.0
 10
-4.5904
 20
13.3617
 30
0.0
 10
-4.5904
 20
13.3617
 30
0.0
 10
-4.5904
 20
13.3617
 30
0.0
 10
-4.5904
 20
13.3617
 30
0.0
 10
-4.5914
 20
13.3704
 30
0.0
 10
-4.5914
 20
13.3704
 30
0.0
 10
-4.5914
 20
13.3704
 30
0.0
 10
-4.5914
 20
13.3704
 30
0.0
 10
-4.5923
 20
13.3792
 30
0.0
 10
-4.5923
 20
13.3792
 30
0.0
 10
-4.5923
 20
13.3792
 30
0.0
 10
-4.5923
 20
13.3792
 30
0.0
 10
-4.5934
 20
13.3879
 30
0.0
 10
-4.5934
 20
13.3879
 30
0.0
 10
-4.5934
 20
13.3879
 30
0.0
 10
-4.5934
 20
13.3879
 30
0.0
 10
-4.5944
 20
13.3967
 30
0.0
 10
-4.5944
 20
13.3967
 30
0.0
 10
-4.5944
 20
13.3967
 30
0.0
 10
-4.5944
 20
13.3967
 30
0.0
 10
-4.5955
 20
13.4054
 30
0.0
 10
-4.5955
 20
13.4054
 30
0.0
 10
-4.5955
 20
13.4054
 30
0.0
 10
-4.5955
 20
13.4054
 30
0.0
 10
-4.5967
 20
13.4141
 30
0.0
 10
-4.5967
 20
13.4141
 30
0.0
  0
SPLINE
  5
D1
330
1F
100
AcDbEntity
  8
VRSTVA_1
 62
   250
100
AcDbSpline
210
0.0
220
0.0
230
1.0
 70
     8
 71
     3
 72
    48
 73
    44
 74
     0
 42
0.0000000001
 43
0.0000000001
 40
0.0
 40
0.0
 40
0.0
 40
0.0
 40
0.0833333333333333
 40
0.0833333333333333
 40
0.0833333333333333
 40
0.0833333333333333
 40
0.1666666666666667
 40
0.1666666666666667
 40
0.1666666666666667
 40
0.1666666666666667
 40
0.25
 40
0.25
 40
0.25
 40
0.25
 40
0.3333333333333333
 40
0.3333333333333333
 40
0.3333333333333333
 40
0.3333333333333333
 40
0.4166666666666667
 40
0.4166666666666667
 40
0.4166666666666667
 40
0.4166666666666667
 40
0.5
 40
0.5
 40
0.5
 40
0.5
 40
0.5833333333333334
 40
0.5833333333333334
 40
0.5833333333333334
 40
0.5833333333333334
 40
0.6666666666666666
 40
0.6666666666666666
 40
0.6666666666666666
 40
0.6666666666666666
 40
0.75
 40
0.75
 40
0.75
 40
0.75
 40
0.8333333333333334
 40
0.8333333333333334
 40
0.8333333333333334
 40
0.8333333333333334
 40
1.0
 40
1.0
 40
1.0
 40
1.0
 10
-4.5973
 20
13.4185
 30
0.0
 10
-4.5973
 20
13.4185
 30
0.0
 10
-4.5976
 20
13.4206
 30
0.0
 10
-4.5976
 20
13.4206
 30
0.0
 10
-4.5976
 20
13.4206
 30
0.0
 10
-4.5976
 20
13.4206
 30
0.0
 10
-4.5985
 20
13.4265
 30
0.0
 10
-4.5985
 20
13.4265
 30
0.0
 10
-4.5985
 20
13.4265
 30
0.0
 10
-4.5985
 20
13.4265
 30
0.0
 10
-4.5995
 20
13.4325
 30
0.0
 10
-4.5995
 20
13.4325
 30
0.0
 10
-4.5995
 20
13.4325
 30
0.0
 10
-4.5995
 20
13.4325
 30
0.0
 10
-4.6004
 20
13.4384
 30
0.0
 10
-4.6004
 20
13.4384
 30
0.0
 10
-4.6004
 20
13.4384
 30
0.0
 10
-4.6004
 20
13.4384
 30
0.0
 10
-4.6015
 20
13.4444
 30
0.0
 10
-4.6015
 20
13.4444
 30
0.0
 10
-4.6015
 20
13.4444
 30
0.0
 10
-4.6015
 20
13.4444
 30
0.0
 10
-4.6027
 20
13.4503
 30
0.0
 10
-4.6027
 20
13.4503
 30
0.0
 10
-4.6027
 20
13.4503
 30
0.0
 10
-4.6027
 20
13.4503
 30
0.0
 10
-4.6039
 20
13.4562
 30
0.0
 10
-4.6039
 20
13.4562
 30
0.0
 10
-4.6039
 20
13.4562
 30
0.0
 10
-4.6039
 20
13.4562
 30
0.0
 10
-4.6047
 20
13.4601
 30
0.0
 10
-4.6047
 20
13.4601
 30
0.0
 10
-4.6047
 20
13.4601
 30
0.0
 10
-4.6047
 20
13.4601
 30
0.0
 10
-4.6062
 20
13.466
 30
0.0
 10
-4.6062
 20
13.466
 30
0.0
 10
-4.6062
 20
13.466
 30
0.0
 10
-4.6062
 20
13.466
 30
0.0
 10
-4.6081
 20
13.4717
 30
0.0
 10
-4.6081
 20
13.4717
 30
0.0
 10
-4.6081
 20
13.4717
 30
0.0
 10
-4.6081
 20
13.4717
 30
0.0
 10
-4.6105
 20
13.4772
 30
0.0
 10
-4.6105
 20
13.4772
 30
0.0
  0
SPLINE
  5
D2
330
1F
100
AcDbEntity
  8
VRSTVA_1
 62
   250
100
AcDbSpline
210
0.0
220
0.0
230
1.0
 70
    24
 71
     3
 72
     8
 73
     4
 74
     0
 42
0.0000000001
 43
0.0000000001
 40
0.0
 40
0.0
 40
0.0
 40
0.0
 40
1.0
 40
1.0
 40
1.0
 40
1.0
 10
-42.2132
 20
26.6091
 30
0.0
 10
-42.2132
 20
26.6091
 30
0.0
 10
-42.2132
 20
25.75
 30
0.0
 10
-42.2132
 20
25.75
 30
0.0
  0
SPLINE
  5
D3
330
1F
100
AcDbEntity
  8
VRSTVA_1
 62
   250
100
AcDbSpline
210
0.0
220
0.0
230
1.0
 70
    24
 71
     3
 72
     8
 73
     4
 74
     0
 42
0.0000000001
 43
0.0000000001
 40
0.0
 40
0.0
 40
0.0
 40
0.0
 40
1.0
 40
1.0
 40
1.0
 40
1.0
 10
-7.29
 20
-5.6103
 30
0.0
 10
-7.29
 20
-5.6103
 30
0.0
 10
-4.6239
 20
-5.6103
 30
0.0
 10
-4.6239
 20
-5.6103
 30
0.0
  0
SPLINE
  5
D4
330
1F
100
AcDbEntity
  8
VRSTVA_1
 62
   250
100
AcDbSpline
210
0.0
220
0.0
230
1.0
 70
    24
 71
     3
 72
     8
 73
     4
 74
     0
 42
0.0000000001
 43
0.0000000001
 40
0.0
 40
0.0
 40
0.0
 40
0.0
 40
1.0
 40
1.0
 40
1.0
 40
1.0
 10
-6.3422
 20
13.2918
 30
0.0
 10
-6.3422
 20
13.2918
 30
0.0
 10
-4.6239
 20
13.2918
 30
0.0
 10
-4.6239
 20
13.2918
 30
0.0
  0
SPLINE
  5
D5
330
1F
100
AcDbEntity
  8
VRSTVA_1
 62
   250
100
AcDbSpline
210
0.0
220
0.0
230
1.0
 70
    24
 71
     3
 72
     8
 73
     4
 74
     0
 42
0.0000000001
 43
0.0000000001
 40
0.0
 40
0.0
 40
0.0
 40
0.0
 40
1.0
 40
1.0
 40
1.0
 40
1.0
 10
-12.1417
 20
26.6091
 30
0.0
 10
-12.1417
 20
26.6091
 30
0.0
 10
-12.1417
 20
25.75
 30
0.0
 10
-12.1417
 20
25.75
 30
0.0
  0
SPLINE
  5
D6
330
1F
100
AcDbEntity
  8
VRSTVA_1
 62
   250
100
AcDbSpline
210
0.0
220
0.0
230
1.0
 70
    24
 71
     3
 72
     8
 73
     4
 74
     0
 42
0.0000000001
 43
0.0000000001
 40
0.0
 40
0.0
 40
0.0
 40
0.0
 40
1.0
 40
1.0
 40
1.0
 40
1.0
 10
-12.1417
 20
25.75
 30
0.0
 10
-12.1417
 20
25.75
 30
0.0
 10
-42.2132
 20
25.75
 30
0.0
 10
-42.2132
 20
25.75
 30
0.0
  0
SPLINE
  5
D7
330
1F
100
AcDbEntity
  8
VRSTVA_1
 62
   250
100
AcDbSpline
210
0.0
220
0.0
230
1.0
 70
    24
 71
     3
 72
     8
 73
     4
 74
     0
 42
0.0000000001
 43
0.0000000001
 40
0.0
 40
0.0
 40
0.0
 40
0.0
 40
1.0
 40
1.0
 40
1.0
 40
1.0
 10
-12.1417
 20
26.6091
 30
0.0
 10
-12.1417
 20
26.6091
 30
0.0
 10
-42.2132
 20
26.6091
 30
0.0
 10
-42.2132
 20
26.6091
 30
0.0
  0
SPLINE
  5
D8
330
1F
100
AcDbEntity
  8
VRSTVA_1
 62
   250
100
AcDbSpline
210
0.0
220
0.0
230
1.0
 70
    24
 71
     3
 72
     8
 73
     4
 74
     0
 42
0.0000000001
 43
0.0000000001
 40
0.0
 40
0.0
 40
0.0
 40
0.0
 40
1.0
 40
1.0
 40
1.0
 40
1.0
 10
-4.065
 20
-5.7449
 30
0.0
 10
-4.065
 20
-5.7449
 30
0.0
 10
-3.9987
 20
-5.7273
 30
0.0
 10
-3.9987
 20
-5.7273
 30
0.0
  0
SPLINE
  5
D9
330
1F
100
AcDbEntity
  8
VRSTVA_1
 62
   250
100
AcDbSpline
210
0.0
220
0.0
230
1.0
 70
     8
 71
     3
 72
    16
 73
    12
 74
     0
 42
0.0000000001
 43
0.0000000001
 40
0.0
 40
0.0
 40
0.0
 40
0.0
 40
0.25
 40
0.25
 40
0.25
 40
0.25
 40
0.5
 40
0.5
 40
0.5
 40
0.5
 40
1.0
 40
1.0
 40
1.0
 40
1.0
 10
-3.9991
 20
-5.7273
 30
0.0
 10
-3.9991
 20
-5.7273
 30
0.0
 10
-3.9321
 20
-5.7452
 30
0.0
 10
-3.9321
 20
-5.7452
 30
0.0
 10
-3.9321
 20
-5.7452
 30
0.0
 10
-3.9321
 20
-5.7452
 30
0.0
 10
-3.8934
 20
-5.7794
 30
0.0
 10
-3.8934
 20
-5.7794
 30
0.0
 10
-3.8934
 20
-5.7794
 30
0.0
 10
-3.8934
 20
-5.7794
 30
0.0
 10
-3.883
 20
-5.7958
 30
0.0
 10
-3.883
 20
-5.7958
 30
0.0
  0
SPLINE
  5
DA
330
1F
100
AcDbEntity
  8
VRSTVA_1
 62
   250
100
AcDbSpline
210
0.0
220
0.0
230
1.0
 70
    24
 71
     3
 72
     8
 73
     4
 74
     0
 42
0.0000000001
 43
0.0000000001
 40
0.0
 40
0.0
 40
0.0
 40
0.0
 40
1.0
 40
1.0
 40
1.0
 40
1.0
 10
-3.4411
 20
13.424
 30
0.0
 10
-3.4411
 20
13.424
 30
0.0
 10
-3.5032
 20
13.4089
 30
0.0
 10
-3.5032
 20
13.4089
 30
0.0
  0
SPLINE
  5
DB
330
1F
100
AcDbEntity
  8
VRSTVA_1
 62
   250
100
AcDbSpline
210
0.0
220
0.0
230
1.0
 70
    24
 71
     3
 72
     8
 73
     4
 74
     0
 42
0.0000000001
 43
0.0000000001
 40
0.0
 40
0.0
 40
0.0
 40
0.0
 40
1.0
 40
1.0
 40
1.0
 40
1.0
 10
-48.4422
 20
14.151
 30
0.0
 10
-48.4422
 20
14.151
 30
0.0
 10
-5.9126
 20
14.151
 30
0.0
 10
-5.9126
 20
14.151
 30
0.0
  0
SPLINE
  5
DC
330
1F
100
AcDbEntity
  8
VRSTVA_1
 62
   250
100
AcDbSpline
210
0.0
220
0.0
230
1.0
 70
    24
 71
     3
 72
     8
 73
     4
 74
     0
 42
0.0000000001
 43
0.0000000001
 40
0.0
 40
0.0
 40
0.0
 40
0.0
 40
1.0
 40
1.0
 40
1.0
 40
1.0
 10
-48.6344
 20
16.2989
 30
0.0
 10
-48.6344
 20
16.2989
 30
0.0
 10
-5.7205
 20
16.2989
 30
0.0
 10
-5.7205
 20
16.2989
 30
0.0
  0
SPLINE
  5
DD
330
1F
100
AcDbEntity
  8
VRSTVA_1
 62
   250
100
AcDbSpline
210
0.0
220
0.0
230
1.0
 70
     8
 71
     3
 72
    16
 73
    12
 74
     0
 42
0.0000000001
 43
0.0000000001
 40
0.0
 40
0.0
 40
0.0
 40
0.0
 40
0.25
 40
0.25
 40
0.25
 40
0.25
 40
0.5
 40
0.5
 40
0.5
 40
0.5
 40
1.0
 40
1.0
 40
1.0
 40
1.0
 10
-3.5023
 20
13.4089
 30
0.0
 10
-3.5023
 20
13.4089
 30
0.0
 10
-3.5736
 20
13.4292
 30
0.0
 10
-3.5736
 20
13.4292
 30
0.0
 10
-3.5736
 20
13.4292
 30
0.0
 10
-3.5736
 20
13.4292
 30
0.0
 10
-3.6096
 20
13.4629
 30
0.0
 10
-3.6096
 20
13.4629
 30
0.0
 10
-3.6096
 20
13.4629
 30
0.0
 10
-3.6096
 20
13.4629
 30
0.0
 10
-3.6186
 20
13.4773
 30
0.0
 10
-3.6186
 20
13.4773
 30
0.0
  0
SPLINE
  5
DE
330
1F
100
AcDbEntity
  8
VRSTVA_1
 62
   250
100
AcDbSpline
210
0.0
220
0.0
230
1.0
 70
    24
 71
     3
 72
     8
 73
     4
 74
     0
 42
0.0000000001
 43
0.0000000001
 40
0.0
 40
0.0
 40
0.0
 40
0.0
 40
1.0
 40
1.0
 40
1.0
 40
1.0
 10
-3.3822
 20
13.4821
 30
0.0
 10
-3.3822
 20
13.4821
 30
0.0
 10
-3.3871
 20
13.4773
 30
0.0
 10
-3.3871
 20
13.4773
 30
0.0
  0
SPLINE
  5
DF
330
1F
100
AcDbEntity
  8
VRSTVA_1
 62
   250
100
AcDbSpline
210
0.0
220
0.0
230
1.0
 70
     8
 71
     3
 72
    12
 73
     8
 74
     0
 42
0.0000000001
 43
0.0000000001
 40
0.0
 40
0.0
 40
0.0
 40
0.0
 40
0.3333333333333333
 40
0.3333333333333333
 40
0.3333333333333333
 40
0.3333333333333333
 40
1.0
 40
1.0
 40
1.0
 40
1.0
 10
-4.5177
 20
13.4108
 30
0.0
 10
-4.5177
 20
13.4108
 30
0.0
 10
-4.5785
 20
13.4385
 30
0.0
 10
-4.5785
 20
13.4385
 30
0.0
 10
-4.5785
 20
13.4385
 30
0.0
 10
-4.5785
 20
13.4385
 30
0.0
 10
-4.6046
 20
13.4673
 30
0.0
 10
-4.6046
 20
13.4673
 30
0.0
  0
SPLINE
  5
E0
330
1F
100
AcDbEntity
  8
VRSTVA_1
 62
   250
100
AcDbSpline
210
0.0
220
0.0
230
1.0
 70
     8
 71
     3
 72
    16
 73
    12
 74
     0
 42
0.0000000001
 43
0.0000000001
 40
0.0
 40
0.0
 40
0.0
 40
0.0
 40
0.25
 40
0.25
 40
0.25
 40
0.25
 40
0.5
 40
0.5
 40
0.5
 40
0.5
 40
1.0
 40
1.0
 40
1.0
 40
1.0
 10
-4.379
 20
13.4773
 30
0.0
 10
-4.379
 20
13.4773
 30
0.0
 10
-4.3924
 20
13.4571
 30
0.0
 10
-4.3924
 20
13.4571
 30
0.0
 10
-4.3924
 20
13.4571
 30
0.0
 10
-4.3924
 20
13.4571
 30
0.0
 10
-4.4393
 20
13.4209
 30
0.0
 10
-4.4393
 20
13.4209
 30
0.0
 10
-4.4393
 20
13.4209
 30
0.0
 10
-4.4393
 20
13.4209
 30
0.0
 10
-4.5177
 20
13.4108
 30
0.0
 10
-4.5177
 20
13.4108
 30
0.0
  0
SPLINE
  5
E1
330
1F
100
AcDbEntity
  8
VRSTVA_1
 62
   250
100
AcDbSpline
210
0.0
220
0.0
230
1.0
 70
     8
 71
     3
 72
    12
 73
     8
 74
     0
 42
0.0000000001
 43
0.0000000001
 40
0.0
 40
0.0
 40
0.0
 40
0.0
 40
0.3333333333333333
 40
0.3333333333333333
 40
0.3333333333333333
 40
0.3333333333333333
 40
1.0
 40
1.0
 40
1.0
 40
1.0
 10
-3.3871
 20
13.4773
 30
0.0
 10
-3.3871
 20
13.4773
 30
0.0
 10
-3.3985
 20
13.4595
 30
0.0
 10
-3.3985
 20
13.4595
 30
0.0
 10
-3.3985
 20
13.4595
 30
0.0
 10
-3.3985
 20
13.4595
 30
0.0
 10
-3.4411
 20
13.424
 30
0.0
 10
-3.4411
 20
13.424
 30
0.0
  0
SPLINE
  5
E2
330
1F
100
AcDbEntity
  8
VRSTVA_1
 62
   250
100
AcDbSpline
210
0.0
220
0.0
230
1.0
 70
    24
 71
     3
 72
     8
 73
     4
 74
     0
 42
0.0000000001
 43
0.0000000001
 40
0.0
 40
0.0
 40
0.0
 40
0.0
 40
1.0
 40
1.0
 40
1.0
 40
1.0
 10
-4.6046
 20
13.4673
 30
0.0
 10
-4.6046
 20
13.4673
 30
0.0
 10
-4.6105
 20
13.4774
 30
0.0
 10
-4.6105
 20
13.4774
 30
0.0
  0
SPLINE
  5
E3
330
1F
100
AcDbEntity
  8
VRSTVA_1
 62
   250
100
AcDbSpline
210
0.0
220
0.0
230
1.0
 70
     8
 71
     3
 72
    12
 73
     8
 74
     0
 42
0.0000000001
 43
0.0000000001
 40
0.0
 40
0.0
 40
0.0
 40
0.0
 40
0.3333333333333333
 40
0.3333333333333333
 40
0.3333333333333333
 40
0.3333333333333333
 40
1.0
 40
1.0
 40
1.0
 40
1.0
 10
-4.1145
 20
-5.7958
 30
0.0
 10
-4.1145
 20
-5.7958
 30
0.0
 10
-4.105
 20
-5.7806
 30
0.0
 10
-4.105
 20
-5.7806
 30
0.0
 10
-4.105
 20
-5.7806
 30
0.0
 10
-4.105
 20
-5.7806
 30
0.0
 10
-4.065
 20
-5.7449
 30
0.0
 10
-4.065
 20
-5.7449
 30
0.0
  0
SPLINE
  5
E4
330
1F
100
AcDbEntity
  8
VRSTVA_1
 62
   250
100
AcDbSpline
210
0.0
220
0.0
230
1.0
 70
    24
 71
     3
 72
     8
 73
     4
 74
     0
 42
0.0000000001
 43
0.0000000001
 40
0.0
 40
0.0
 40
0.0
 40
0.0
 40
1.0
 40
1.0
 40
1.0
 40
1.0
 10
-4.1145
 20
-5.7958
 30
0.0
 10
-4.1145
 20
-5.7958
 30
0.0
 10
-4.1194
 20
-5.8006
 30
0.0
 10
-4.1194
 20
-5.8006
 30
0.0
  0
SPLINE
  5
E5
330
1F
100
AcDbEntity
  8
VRSTVA_1
 62
   250
100
AcDbSpline
210
0.0
220
0.0
230
1.0
 70
    24
 71
     3
 72
     8
 73
     4
 74
     0
 42
0.0000000001
 43
0.0000000001
 40
0.0
 40
0.0
 40
0.0
 40
0.0
 40
1.0
 40
1.0
 40
1.0
 40
1.0
 10
-3.1226
 20
-5.7958
 30
0.0
 10
-3.1226
 20
-5.7958
 30
0.0
 10
-3.1275
 20
-5.8006
 30
0.0
 10
-3.1275
 20
-5.8006
 30
0.0
  0
SPLINE
  5
E6
330
1F
100
AcDbEntity
  8
VRSTVA_1
 62
   250
100
AcDbSpline
210
0.0
220
0.0
230
1.0
 70
     8
 71
     3
 72
     8
 73
     4
 74
     0
 42
0.0000000001
 43
0.0000000001
 40
0.0
 40
0.0
 40
0.0
 40
0.0
 40
1.0
 40
1.0
 40
1.0
 40
1.0
 10
-48.8718
 20
14.5806
 30
0.0
 10
-48.8718
 20
14.3433
 30
0.0
 10
-48.6795
 20
14.151
 30
0.0
 10
-48.4422
 20
14.151
 30
0.0
  0
SPLINE
  5
E7
330
1F
100
AcDbEntity
  8
VRSTVA_1
 62
   250
100
AcDbSpline
210
0.0
220
0.0
230
1.0
 70
     8
 71
     3
 72
     8
 73
     4
 74
     0
 42
0.0000000001
 43
0.0000000001
 40
0.0
 40
0.0
 40
0.0
 40
0.0
 40
1.0
 40
1.0
 40
1.0
 40
1.0
 10
-47.5831
 20
13.7214
 30
0.0
 10
-47.5831
 20
13.9586
 30
0.0
 10
-47.7754
 20
14.151
 30
0.0
 10
-48.0127
 20
14.151
 30
0.0
  0
SPLINE
  5
E8
330
1F
100
AcDbEntity
  8
VRSTVA_1
 62
   250
100
AcDbSpline
210
0.0
220
0.0
230
1.0
 70
     8
 71
     3
 72
     8
 73
     4
 74
     0
 42
0.0000000001
 43
0.0000000001
 40
0.0
 40
0.0
 40
0.0
 40
0.0
 40
1.0
 40
1.0
 40
1.0
 40
1.0
 10
-48.6344
 20
16.2989
 30
0.0
 10
-48.7501
 20
16.2989
 30
0.0
 10
-48.845
 20
16.2073
 30
0.0
 10
-48.8491
 20
16.0917
 30
0.0
  0
SPLINE
  5
E9
330
1F
100
AcDbEntity
  8
VRSTVA_1
 62
   250
100
AcDbSpline
210
0.0
220
0.0
230
1.0
 70
     8
 71
     3
 72
     8
 73
     4
 74
     0
 42
0.0000000001
 43
0.0000000001
 40
0.0
 40
0.0
 40
0.0
 40
0.0
 40
1.0
 40
1.0
 40
1.0
 40
1.0
 10
-5.9126
 20
14.151
 30
0.0
 10
-5.6754
 20
14.151
 30
0.0
 10
-5.483
 20
14.3433
 30
0.0
 10
-5.483
 20
14.5806
 30
0.0
  0
SPLINE
  5
EA
330
1F
100
AcDbEntity
  8
VRSTVA_1
 62
   250
100
AcDbSpline
210
0.0
220
0.0
230
1.0
 70
     8
 71
     3
 72
     8
 73
     4
 74
     0
 42
0.0000000001
 43
0.0000000001
 40
0.0
 40
0.0
 40
0.0
 40
0.0
 40
1.0
 40
1.0
 40
1.0
 40
1.0
 10
-6.3422
 20
14.151
 30
0.0
 10
-6.4562
 20
14.151
 30
0.0
 10
-6.5654
 20
14.1057
 30
0.0
 10
-6.646
 20
14.0251
 30
0.0
  0
SPLINE
  5
EB
330
1F
100
AcDbEntity
  8
VRSTVA_1
 62
   250
100
AcDbSpline
210
0.0
220
0.0
230
1.0
 70
     8
 71
     3
 72
     8
 73
     4
 74
     0
 42
0.0000000001
 43
0.0000000001
 40
0.0
 40
0.0
 40
0.0
 40
0.0
 40
1.0
 40
1.0
 40
1.0
 40
1.0
 10
-6.646
 20
14.0251
 30
0.0
 10
-6.7265
 20
13.9446
 30
0.0
 10
-6.7718
 20
13.8353
 30
0.0
 10
-6.7718
 20
13.7214
 30
0.0
  0
SPLINE
  5
EC
330
1F
100
AcDbEntity
  8
VRSTVA_1
 62
   250
100
AcDbSpline
210
0.0
220
0.0
230
1.0
 70
     8
 71
     3
 72
     8
 73
     4
 74
     0
 42
0.0000000001
 43
0.0000000001
 40
0.0
 40
0.0
 40
0.0
 40
0.0
 40
1.0
 40
1.0
 40
1.0
 40
1.0
 10
-5.5058
 20
16.0917
 30
0.0
 10
-5.5098
 20
16.2073
 30
0.0
 10
-5.6047
 20
16.2989
 30
0.0
 10
-5.7205
 20
16.2989
 30
0.0
  0
SPLINE
  5
ED
330
1F
100
AcDbEntity
  8
VRSTVA_1
 62
   250
100
AcDbSpline
210
0.0
220
0.0
230
1.0
 70
     8
 71
     3
 72
   184
 73
   180
 74
     0
 42
0.0000000001
 43
0.0000000001
 40
0.0
 40
0.0
 40
0.0
 40
0.0
 40
0.0217391304347826
 40
0.0217391304347826
 40
0.0217391304347826
 40
0.0217391304347826
 40
0.0434782608695652
 40
0.0434782608695652
 40
0.0434782608695652
 40
0.0434782608695652
 40
0.0652173913043478
 40
0.0652173913043478
 40
0.0652173913043478
 40
0.0652173913043478
 40
0.0869565217391304
 40
0.0869565217391304
 40
0.0869565217391304
 40
0.0869565217391304
 40
0.108695652173913
 40
0.108695652173913
 40
0.108695652173913
 40
0.108695652173913
 40
0.1304347826086956
 40
0.1304347826086956
 40
0.1304347826086956
 40
0.1304347826086956
 40
0.1521739130434783
 40
0.1521739130434783
 40
0.1521739130434783
 40
0.1521739130434783
 40
0.1739130434782609
 40
0.1739130434782609
 40
0.1739130434782609
 40
0.1739130434782609
 40
0.1956521739130435
 40
0.1956521739130435
 40
0.1956521739130435
 40
0.1956521739130435
 40
0.2173913043478261
 40
0.2173913043478261
 40
0.2173913043478261
 40
0.2173913043478261
 40
0.2391304347826087
 40
0.2391304347826087
 40
0.2391304347826087
 40
0.2391304347826087
 40
0.2608695652173913
 40
0.2608695652173913
 40
0.2608695652173913
 40
0.2608695652173913
 40
0.2826086956521739
 40
0.2826086956521739
 40
0.2826086956521739
 40
0.2826086956521739
 40
0.3043478260869565
 40
0.3043478260869565
 40
0.3043478260869565
 40
0.3043478260869565
 40
0.3260869565217391
 40
0.3260869565217391
 40
0.3260869565217391
 40
0.3260869565217391
 40
0.3478260869565217
 40
0.3478260869565217
 40
0.3478260869565217
 40
0.3478260869565217
 40
0.3695652173913043
 40
0.3695652173913043
 40
0.3695652173913043
 40
0.3695652173913043
 40
0.391304347826087
 40
0.391304347826087
 40
0.391304347826087
 40
0.391304347826087
 40
0.4130434782608696
 40
0.4130434782608696
 40
0.4130434782608696
 40
0.4130434782608696
 40
0.4347826086956522
 40
0.4347826086956522
 40
0.4347826086956522
 40
0.4347826086956522
 40
0.4565217391304348
 40
0.4565217391304348
 40
0.4565217391304348
 40
0.4565217391304348
 40
0.4782608695652174
 40
0.4782608695652174
 40
0.4782608695652174
 40
0.4782608695652174
 40
0.5
 40
0.5
 40
0.5
 40
0.5
 40
0.5217391304347826
 40
0.5217391304347826
 40
0.5217391304347826
 40
0.5217391304347826
 40
0.5434782608695652
 40
0.5434782608695652
 40
0.5434782608695652
 40
0.5434782608695652
 40
0.5652173913043478
 40
0.5652173913043478
 40
0.5652173913043478
 40
0.5652173913043478
 40
0.5869565217391305
 40
0.5869565217391305
 40
0.5869565217391305
 40
0.5869565217391305
 40
0.6086956521739131
 40
0.6086956521739131
 40
0.6086956521739131
 40
0.6086956521739131
 40
0.6304347826086957
 40
0.6304347826086957
 40
0.6304347826086957
 40
0.6304347826086957
 40
0.6521739130434783
 40
0.6521739130434783
 40
0.6521739130434783
 40
0.6521739130434783
 40
0.6739130434782609
 40
0.6739130434782609
 40
0.6739130434782609
 40
0.6739130434782609
 40
0.6956521739130435
 40
0.6956521739130435
 40
0.6956521739130435
 40
0.6956521739130435
 40
0.717391304347826
 40
0.717391304347826
 40
0.717391304347826
 40
0.717391304347826
 40
0.7391304347826086
 40
0.7391304347826086
 40
0.7391304347826086
 40
0.7391304347826086
 40
0.7608695652173914
 40
0.7608695652173914
 40
0.7608695652173914
 40
0.7608695652173914
 40
0.782608695652174
 40
0.782608695652174
 40
0.782608695652174
 40
0.782608695652174
 40
0.8043478260869565
 40
0.8043478260869565
 40
0.8043478260869565
 40
0.8043478260869565
 40
0.8260869565217391
 40
0.8260869565217391
 40
0.8260869565217391
 40
0.8260869565217391
 40
0.8478260869565217
 40
0.8478260869565217
 40
0.8478260869565217
 40
0.8478260869565217
 40
0.8695652173913043
 40
0.8695652173913043
 40
0.8695652173913043
 40
0.8695652173913043
 40
0.8913043478260869
 40
0.8913043478260869
 40
0.8913043478260869
 40
0.8913043478260869
 40
0.9130434782608695
 40
0.9130434782608695
 40
0.9130434782608695
 40
0.9130434782608695
 40
0.9347826086956522
 40
0.9347826086956522
 40
0.9347826086956522
 40
0.9347826086956522
 40
0.9565217391304348
 40
0.9565217391304348
 40
0.9565217391304348
 40
0.9565217391304348
 40
1.0
 40
1.0
 40
1.0
 40
1.0
 10
-6.7718
 20
13.7214
 30
0.0
 10
-6.7718
 20
13.7214
 30
0.0
 10
-6.7757
 20
13.713
 30
0.0
 10
-6.7757
 20
13.713
 30
0.0
 10
-6.7757
 20
13.713
 30
0.0
 10
-6.7757
 20
13.713
 30
0.0
 10
-6.7873
 20
13.688
 30
0.0
 10
-6.7873
 20
13.688
 30
0.0
 10
-6.7873
 20
13.688
 30
0.0
 10
-6.7873
 20
13.688
 30
0.0
 10
-6.8065
 20
13.6465
 30
0.0
 10
-6.8065
 20
13.6465
 30
0.0
 10
-6.8065
 20
13.6465
 30
0.0
 10
-6.8065
 20
13.6465
 30
0.0
 10
-6.8332
 20
13.5885
 30
0.0
 10
-6.8332
 20
13.5885
 30
0.0
 10
-6.8332
 20
13.5885
 30
0.0
 10
-6.8332
 20
13.5885
 30
0.0
 10
-6.8672
 20
13.5144
 30
0.0
 10
-6.8672
 20
13.5144
 30
0.0
 10
-6.8672
 20
13.5144
 30
0.0
 10
-6.8672
 20
13.5144
 30
0.0
 10
-6.9082
 20
13.4242
 30
0.0
 10
-6.9082
 20
13.4242
 30
0.0
 10
-6.9082
 20
13.4242
 30
0.0
 10
-6.9082
 20
13.4242
 30
0.0
 10
-7.0102
 20
13.1971
 30
0.0
 10
-7.0102
 20
13.1971
 30
0.0
 10
-7.0102
 20
13.1971
 30
0.0
 10
-7.0102
 20
13.1971
 30
0.0
 10
-7.1365
 20
12.9098
 30
0.0
 10
-7.1365
 20
12.9098
 30
0.0
 10
-7.1365
 20
12.9098
 30
0.0
 10
-7.1365
 20
12.9098
 30
0.0
 10
-7.2837
 20
12.5655
 30
0.0
 10
-7.2837
 20
12.5655
 30
0.0
 10
-7.2837
 20
12.5655
 30
0.0
 10
-7.2837
 20
12.5655
 30
0.0
 10
-7.4481
 20
12.1672
 30
0.0
 10
-7.4481
 20
12.1672
 30
0.0
 10
-7.4481
 20
12.1672
 30
0.0
 10
-7.4481
 20
12.1672
 30
0.0
 10
-7.6257
 20
11.7183
 30
0.0
 10
-7.6257
 20
11.7183
 30
0.0
 10
-7.6257
 20
11.7183
 30
0.0
 10
-7.6257
 20
11.7183
 30
0.0
 10
-7.7942
 20
11.2715
 30
0.0
 10
-7.7942
 20
11.2715
 30
0.0
 10
-7.7942
 20
11.2715
 30
0.0
 10
-7.7942
 20
11.2715
 30
0.0
 10
-8.0039
 20
10.6808
 30
0.0
 10
-8.0039
 20
10.6808
 30
0.0
 10
-8.0039
 20
10.6808
 30
0.0
 10
-8.0039
 20
10.6808
 30
0.0
 10
-8.023
 20
10.6248
 30
0.0
 10
-8.023
 20
10.6248
 30
0.0
 10
-8.023
 20
10.6248
 30
0.0
 10
-8.023
 20
10.6248
 30
0.0
 10
-8.2122
 20
10.046
 30
0.0
 10
-8.2122
 20
10.046
 30
0.0
 10
-8.2122
 20
10.046
 30
0.0
 10
-8.2122
 20
10.046
 30
0.0
 10
-8.3833
 20
9.4771
 30
0.0
 10
-8.3833
 20
9.4771
 30
0.0
 10
-8.3833
 20
9.4771
 30
0.0
 10
-8.3833
 20
9.4771
 30
0.0
 10
-8.4511
 20
9.2367
 30
0.0
 10
-8.4511
 20
9.2367
 30
0.0
 10
-8.4511
 20
9.2367
 30
0.0
 10
-8.4511
 20
9.2367
 30
0.0
 10
-8.5977
 20
8.6797
 30
0.0
 10
-8.5977
 20
8.6797
 30
0.0
 10
-8.5977
 20
8.6797
 30
0.0
 10
-8.5977
 20
8.6797
 30
0.0
 10
-8.7275
 20
8.1306
 30
0.0
 10
-8.7275
 20
8.1306
 30
0.0
 10
-8.7275
 20
8.1306
 30
0.0
 10
-8.7275
 20
8.1306
 30
0.0
 10
-8.8108
 20
7.7404
 30
0.0
 10
-8.8108
 20
7.7404
 30
0.0
 10
-8.8108
 20
7.7404
 30
0.0
 10
-8.8108
 20
7.7404
 30
0.0
 10
-8.9133
 20
7.2011
 30
0.0
 10
-8.9133
 20
7.2011
 30
0.0
 10
-8.9133
 20
7.2011
 30
0.0
 10
-8.9133
 20
7.2011
 30
0.0
 10
-9.0002
 20
6.6676
 30
0.0
 10
-9.0002
 20
6.6676
 30
0.0
 10
-9.0002
 20
6.6676
 30
0.0
 10
-9.0002
 20
6.6676
 30
0.0
 10
-9.0676
 20
6.1735
 30
0.0
 10
-9.0676
 20
6.1735
 30
0.0
 10
-9.0676
 20
6.1735
 30
0.0
 10
-9.0676
 20
6.1735
 30
0.0
 10
-9.1255
 20
5.6457
 30
0.0
 10
-9.1255
 20
5.6457
 30
0.0
 10
-9.1255
 20
5.6457
 30
0.0
 10
-9.1255
 20
5.6457
 30
0.0
 10
-9.1685
 20
5.1216
 30
0.0
 10
-9.1685
 20
5.1216
 30
0.0
 10
-9.1685
 20
5.1216
 30
0.0
 10
-9.1685
 20
5.1216
 30
0.0
 10
-9.1696
 20
5.1057
 30
0.0
 10
-9.1696
 20
5.1057
 30
0.0
 10
-9.1696
 20
5.1057
 30
0.0
 10
-9.1696
 20
5.1057
 30
0.0
 10
-9.1976
 20
4.5816
 30
0.0
 10
-9.1976
 20
4.5816
 30
0.0
 10
-9.1976
 20
4.5816
 30
0.0
 10
-9.1976
 20
4.5816
 30
0.0
 10
-9.211
 20
4.058
 30
0.0
 10
-9.211
 20
4.058
 30
0.0
 10
-9.211
 20
4.058
 30
0.0
 10
-9.211
 20
4.058
 30
0.0
 10
-9.2098
 20
3.5358
 30
0.0
 10
-9.2098
 20
3.5358
 30
0.0
 10
-9.2098
 20
3.5358
 30
0.0
 10
-9.2098
 20
3.5358
 30
0.0
 10
-9.194
 20
3.0138
 30
0.0
 10
-9.194
 20
3.0138
 30
0.0
 10
-9.194
 20
3.0138
 30
0.0
 10
-9.194
 20
3.0138
 30
0.0
 10
-9.1636
 20
2.4896
 30
0.0
 10
-9.1636
 20
2.4896
 30
0.0
 10
-9.1636
 20
2.4896
 30
0.0
 10
-9.1636
 20
2.4896
 30
0.0
 10
-9.1184
 20
1.9636
 30
0.0
 10
-9.1184
 20
1.9636
 30
0.0
 10
-9.1184
 20
1.9636
 30
0.0
 10
-9.1184
 20
1.9636
 30
0.0
 10
-9.118
 20
1.9597
 30
0.0
 10
-9.118
 20
1.9597
 30
0.0
 10
-9.118
 20
1.9597
 30
0.0
 10
-9.118
 20
1.9597
 30
0.0
 10
-9.0581
 20
1.4326
 30
0.0
 10
-9.0581
 20
1.4326
 30
0.0
 10
-9.0581
 20
1.4326
 30
0.0
 10
-9.0581
 20
1.4326
 30
0.0
 10
-8.9831
 20
0.9014
 30
0.0
 10
-8.9831
 20
0.9014
 30
0.0
 10
-8.9831
 20
0.9014
 30
0.0
 10
-8.9831
 20
0.9014
 30
0.0
 10
-8.9063
 20
0.441
 30
0.0
 10
-8.9063
 20
0.441
 30
0.0
 10
-8.9063
 20
0.441
 30
0.0
 10
-8.9063
 20
0.441
 30
0.0
 10
-8.8029
 20
-0.0972
 30
0.0
 10
-8.8029
 20
-0.0972
 30
0.0
 10
-8.8029
 20
-0.0972
 30
0.0
 10
-8.8029
 20
-0.0972
 30
0.0
 10
-8.6833
 20
-0.6427
 30
0.0
 10
-8.6833
 20
-0.6427
 30
0.0
 10
-8.6833
 20
-0.6427
 30
0.0
 10
-8.6833
 20
-0.6427
 30
0.0
 10
-8.5473
 20
-1.1957
 30
0.0
 10
-8.5473
 20
-1.1957
 30
0.0
 10
-8.5473
 20
-1.1957
 30
0.0
 10
-8.5473
 20
-1.1957
 30
0.0
 10
-8.3944
 20
-1.7565
 30
0.0
 10
-8.3944
 20
-1.7565
 30
0.0
 10
-8.3944
 20
-1.7565
 30
0.0
 10
-8.3944
 20
-1.7565
 30
0.0
 10
-8.24
 20
-2.2755
 30
0.0
 10
-8.24
 20
-2.2755
 30
0.0
 10
-8.24
 20
-2.2755
 30
0.0
 10
-8.24
 20
-2.2755
 30
0.0
 10
-8.054
 20
-2.8516
 30
0.0
 10
-8.054
 20
-2.8516
 30
0.0
 10
-8.054
 20
-2.8516
 30
0.0
 10
-8.054
 20
-2.8516
 30
0.0
 10
-7.8494
 20
-3.4386
 30
0.0
 10
-7.8494
 20
-3.4386
 30
0.0
 10
-7.8494
 20
-3.4386
 30
0.0
 10
-7.8494
 20
-3.4386
 30
0.0
 10
-7.6253
 20
-4.0378
 30
0.0
 10
-7.6253
 20
-4.0378
 30
0.0
 10
-7.6253
 20
-4.0378
 30
0.0
 10
-7.6253
 20
-4.0378
 30
0.0
 10
-7.4884
 20
-4.3856
 30
0.0
 10
-7.4884
 20
-4.3856
 30
0.0
  0
SPLINE
  5
EE
330
1F
100
AcDbEntity
  8
VRSTVA_1
 62
   250
100
AcDbSpline
210
0.0
220
0.0
230
1.0
 70
     8
 71
     3
 72
    44
 73
    40
 74
     0
 42
0.0000000001
 43
0.0000000001
 40
0.0
 40
0.0
 40
0.0
 40
0.0
 40
0.0909090909090909
 40
0.0909090909090909
 40
0.0909090909090909
 40
0.0909090909090909
 40
0.1818181818181818
 40
0.1818181818181818
 40
0.1818181818181818
 40
0.1818181818181818
 40
0.2727272727272727
 40
0.2727272727272727
 40
0.2727272727272727
 40
0.2727272727272727
 40
0.3636363636363636
 40
0.3636363636363636
 40
0.3636363636363636
 40
0.3636363636363636
 40
0.4545454545454545
 40
0.4545454545454545
 40
0.4545454545454545
 40
0.4545454545454545
 40
0.5454545454545454
 40
0.5454545454545454
 40
0.5454545454545454
 40
0.5454545454545454
 40
0.6363636363636364
 40
0.6363636363636364
 40
0.6363636363636364
 40
0.6363636363636364
 40
0.7272727272727273
 40
0.7272727272727273
 40
0.7272727272727273
 40
0.7272727272727273
 40
0.8181818181818182
 40
0.8181818181818182
 40
0.8181818181818182
 40
0.8181818181818182
 40
1.0
 40
1.0
 40
1.0
 40
1.0
 10
-3.1203
 20
2.9948
 30
0.0
 10
-3.1203
 20
2.9948
 30
0.0
 10
-3.1217
 20
3.0794
 30
0.0
 10
-3.1217
 20
3.0794
 30
0.0
 10
-3.1217
 20
3.0794
 30
0.0
 10
-3.1217
 20
3.0794
 30
0.0
 10
-3.123
 20
3.1639
 30
0.0
 10
-3.123
 20
3.1639
 30
0.0
 10
-3.123
 20
3.1639
 30
0.0
 10
-3.123
 20
3.1639
 30
0.0
 10
-3.1245
 20
3.2485
 30
0.0
 10
-3.1245
 20
3.2485
 30
0.0
 10
-3.1245
 20
3.2485
 30
0.0
 10
-3.1245
 20
3.2485
 30
0.0
 10
-3.1258
 20
3.3331
 30
0.0
 10
-3.1258
 20
3.3331
 30
0.0
 10
-3.1258
 20
3.3331
 30
0.0
 10
-3.1258
 20
3.3331
 30
0.0
 10
-3.1272
 20
3.4177
 30
0.0
 10
-3.1272
 20
3.4177
 30
0.0
 10
-3.1272
 20
3.4177
 30
0.0
 10
-3.1272
 20
3.4177
 30
0.0
 10
-3.1286
 20
3.5022
 30
0.0
 10
-3.1286
 20
3.5022
 30
0.0
 10
-3.1286
 20
3.5022
 30
0.0
 10
-3.1286
 20
3.5022
 30
0.0
 10
-3.13
 20
3.5868
 30
0.0
 10
-3.13
 20
3.5868
 30
0.0
 10
-3.13
 20
3.5868
 30
0.0
 10
-3.13
 20
3.5868
 30
0.0
 10
-3.1314
 20
3.6714
 30
0.0
 10
-3.1314
 20
3.6714
 30
0.0
 10
-3.1314
 20
3.6714
 30
0.0
 10
-3.1314
 20
3.6714
 30
0.0
 10
-3.1327
 20
3.756
 30
0.0
 10
-3.1327
 20
3.756
 30
0.0
 10
-3.1327
 20
3.756
 30
0.0
 10
-3.1327
 20
3.756
 30
0.0
 10
-3.1341
 20
3.8405
 30
0.0
 10
-3.1341
 20
3.8405
 30
0.0
  0
SPLINE
  5
EF
330
1F
100
AcDbEntity
  8
VRSTVA_1
 62
   250
100
AcDbSpline
210
0.0
220
0.0
230
1.0
 70
     8
 71
     3
 72
    72
 73
    68
 74
     0
 42
0.0000000001
 43
0.0000000001
 40
0.0
 40
0.0
 40
0.0
 40
0.0
 40
0.0555555555555556
 40
0.0555555555555556
 40
0.0555555555555556
 40
0.0555555555555556
 40
0.1111111111111111
 40
0.1111111111111111
 40
0.1111111111111111
 40
0.1111111111111111
 40
0.1666666666666667
 40
0.1666666666666667
 40
0.1666666666666667
 40
0.1666666666666667
 40
0.2222222222222222
 40
0.2222222222222222
 40
0.2222222222222222
 40
0.2222222222222222
 40
0.2777777777777778
 40
0.2777777777777778
 40
0.2777777777777778
 40
0.2777777777777778
 40
0.3333333333333333
 40
0.3333333333333333
 40
0.3333333333333333
 40
0.3333333333333333
 40
0.3888888888888889
 40
0.3888888888888889
 40
0.3888888888888889
 40
0.3888888888888889
 40
0.4444444444444444
 40
0.4444444444444444
 40
0.4444444444444444
 40
0.4444444444444444
 40
0.5
 40
0.5
 40
0.5
 40
0.5
 40
0.5555555555555556
 40
0.5555555555555556
 40
0.5555555555555556
 40
0.5555555555555556
 40
0.6111111111111112
 40
0.6111111111111112
 40
0.6111111111111112
 40
0.6111111111111112
 40
0.6666666666666666
 40
0.6666666666666666
 40
0.6666666666666666
 40
0.6666666666666666
 40
0.7222222222222222
 40
0.7222222222222222
 40
0.7222222222222222
 40
0.7222222222222222
 40
0.7777777777777778
 40
0.7777777777777778
 40
0.7777777777777778
 40
0.7777777777777778
 40
0.8333333333333334
 40
0.8333333333333334
 40
0.8333333333333334
 40
0.8333333333333334
 40
0.8888888888888888
 40
0.8888888888888888
 40
0.8888888888888888
 40
0.8888888888888888
 40
1.0
 40
1.0
 40
1.0
 40
1.0
 10
-3.1341
 20
3.8405
 30
0.0
 10
-3.1341
 20
3.8405
 30
0.0
 10
-3.1418
 20
4.3061
 30
0.0
 10
-3.1418
 20
4.3061
 30
0.0
 10
-3.1418
 20
4.3061
 30
0.0
 10
-3.1418
 20
4.3061
 30
0.0
 10
-3.1574
 20
5.2574
 30
0.0
 10
-3.1574
 20
5.2574
 30
0.0
 10
-3.1574
 20
5.2574
 30
0.0
 10
-3.1574
 20
5.2574
 30
0.0
 10
-3.1733
 20
6.2087
 30
0.0
 10
-3.1733
 20
6.2087
 30
0.0
 10
-3.1733
 20
6.2087
 30
0.0
 10
-3.1733
 20
6.2087
 30
0.0
 10
-3.1896
 20
7.1599
 30
0.0
 10
-3.1896
 20
7.1599
 30
0.0
 10
-3.1896
 20
7.1599
 30
0.0
 10
-3.1896
 20
7.1599
 30
0.0
 10
-3.1999
 20
7.7402
 30
0.0
 10
-3.1999
 20
7.7402
 30
0.0
 10
-3.1999
 20
7.7402
 30
0.0
 10
-3.1999
 20
7.7402
 30
0.0
 10
-3.2174
 20
8.6914
 30
0.0
 10
-3.2174
 20
8.6914
 30
0.0
 10
-3.2174
 20
8.6914
 30
0.0
 10
-3.2174
 20
8.6914
 30
0.0
 10
-3.2257
 20
9.1223
 30
0.0
 10
-3.2257
 20
9.1223
 30
0.0
 10
-3.2257
 20
9.1223
 30
0.0
 10
-3.2257
 20
9.1223
 30
0.0
 10
-3.2451
 20
10.0735
 30
0.0
 10
-3.2451
 20
10.0735
 30
0.0
 10
-3.2451
 20
10.0735
 30
0.0
 10
-3.2451
 20
10.0735
 30
0.0
 10
-3.2503
 20
10.3124
 30
0.0
 10
-3.2503
 20
10.3124
 30
0.0
 10
-3.2503
 20
10.3124
 30
0.0
 10
-3.2503
 20
10.3124
 30
0.0
 10
-3.2729
 20
11.2635
 30
0.0
 10
-3.2729
 20
11.2635
 30
0.0
 10
-3.2729
 20
11.2635
 30
0.0
 10
-3.2729
 20
11.2635
 30
0.0
 10
-3.275
 20
11.3446
 30
0.0
 10
-3.275
 20
11.3446
 30
0.0
 10
-3.275
 20
11.3446
 30
0.0
 10
-3.275
 20
11.3446
 30
0.0
 10
-3.3006
 20
12.2249
 30
0.0
 10
-3.3006
 20
12.2249
 30
0.0
 10
-3.3006
 20
12.2249
 30
0.0
 10
-3.3006
 20
12.2249
 30
0.0
 10
-3.3092
 20
12.4757
 30
0.0
 10
-3.3092
 20
12.4757
 30
0.0
 10
-3.3092
 20
12.4757
 30
0.0
 10
-3.3092
 20
12.4757
 30
0.0
 10
-3.3283
 20
12.9281
 30
0.0
 10
-3.3283
 20
12.9281
 30
0.0
 10
-3.3283
 20
12.9281
 30
0.0
 10
-3.3283
 20
12.9281
 30
0.0
 10
-3.3422
 20
13.1757
 30
0.0
 10
-3.3422
 20
13.1757
 30
0.0
 10
-3.3422
 20
13.1757
 30
0.0
 10
-3.3422
 20
13.1757
 30
0.0
 10
-3.3435
 20
13.1943
 30
0.0
 10
-3.3435
 20
13.1943
 30
0.0
 10
-3.3435
 20
13.1943
 30
0.0
 10
-3.3435
 20
13.1943
 30
0.0
 10
-3.3561
 20
13.3513
 30
0.0
 10
-3.3561
 20
13.3513
 30
0.0
  0
SPLINE
  5
F0
330
1F
100
AcDbEntity
  8
VRSTVA_1
 62
   250
100
AcDbSpline
210
0.0
220
0.0
230
1.0
 70
     8
 71
     3
 72
    64
 73
    60
 74
     0
 42
0.0000000001
 43
0.0000000001
 40
0.0
 40
0.0
 40
0.0
 40
0.0
 40
0.0625
 40
0.0625
 40
0.0625
 40
0.0625
 40
0.125
 40
0.125
 40
0.125
 40
0.125
 40
0.1875
 40
0.1875
 40
0.1875
 40
0.1875
 40
0.25
 40
0.25
 40
0.25
 40
0.25
 40
0.3125
 40
0.3125
 40
0.3125
 40
0.3125
 40
0.375
 40
0.375
 40
0.375
 40
0.375
 40
0.4375
 40
0.4375
 40
0.4375
 40
0.4375
 40
0.5
 40
0.5
 40
0.5
 40
0.5
 40
0.5625
 40
0.5625
 40
0.5625
 40
0.5625
 40
0.625
 40
0.625
 40
0.625
 40
0.625
 40
0.6875
 40
0.6875
 40
0.6875
 40
0.6875
 40
0.75
 40
0.75
 40
0.75
 40
0.75
 40
0.8125
 40
0.8125
 40
0.8125
 40
0.8125
 40
0.875
 40
0.875
 40
0.875
 40
0.875
 40
1.0
 40
1.0
 40
1.0
 40
1.0
 10
-3.3561
 20
13.3513
 30
0.0
 10
-3.3561
 20
13.3513
 30
0.0
 10
-3.3564
 20
13.3549
 30
0.0
 10
-3.3564
 20
13.3549
 30
0.0
 10
-3.3564
 20
13.3549
 30
0.0
 10
-3.3564
 20
13.3549
 30
0.0
 10
-3.3579
 20
13.3683
 30
0.0
 10
-3.3579
 20
13.3683
 30
0.0
 10
-3.3579
 20
13.3683
 30
0.0
 10
-3.3579
 20
13.3683
 30
0.0
 10
-3.3593
 20
13.3816
 30
0.0
 10
-3.3593
 20
13.3816
 30
0.0
 10
-3.3593
 20
13.3816
 30
0.0
 10
-3.3593
 20
13.3816
 30
0.0
 10
-3.3609
 20
13.395
 30
0.0
 10
-3.3609
 20
13.395
 30
0.0
 10
-3.3609
 20
13.395
 30
0.0
 10
-3.3609
 20
13.395
 30
0.0
 10
-3.3626
 20
13.4085
 30
0.0
 10
-3.3626
 20
13.4085
 30
0.0
 10
-3.3626
 20
13.4085
 30
0.0
 10
-3.3626
 20
13.4085
 30
0.0
 10
-3.3627
 20
13.4095
 30
0.0
 10
-3.3627
 20
13.4095
 30
0.0
 10
-3.3627
 20
13.4095
 30
0.0
 10
-3.3627
 20
13.4095
 30
0.0
 10
-3.3647
 20
13.4231
 30
0.0
 10
-3.3647
 20
13.4231
 30
0.0
 10
-3.3647
 20
13.4231
 30
0.0
 10
-3.3647
 20
13.4231
 30
0.0
 10
-3.3668
 20
13.4366
 30
0.0
 10
-3.3668
 20
13.4366
 30
0.0
 10
-3.3668
 20
13.4366
 30
0.0
 10
-3.3668
 20
13.4366
 30
0.0
 10
-3.3691
 20
13.4494
 30
0.0
 10
-3.3691
 20
13.4494
 30
0.0
 10
-3.3691
 20
13.4494
 30
0.0
 10
-3.3691
 20
13.4494
 30
0.0
 10
-3.3715
 20
13.4603
 30
0.0
 10
-3.3715
 20
13.4603
 30
0.0
 10
-3.3715
 20
13.4603
 30
0.0
 10
-3.3715
 20
13.4603
 30
0.0
 10
-3.3756
 20
13.474
 30
0.0
 10
-3.3756
 20
13.474
 30
0.0
 10
-3.3756
 20
13.474
 30
0.0
 10
-3.3756
 20
13.474
 30
0.0
 10
-3.3758
 20
13.4743
 30
0.0
 10
-3.3758
 20
13.4743
 30
0.0
 10
-3.3758
 20
13.4743
 30
0.0
 10
-3.3758
 20
13.4743
 30
0.0
 10
-3.3778
 20
13.479
 30
0.0
 10
-3.3778
 20
13.479
 30
0.0
 10
-3.3778
 20
13.479
 30
0.0
 10
-3.3778
 20
13.479
 30
0.0
 10
-3.3798
 20
13.4813
 30
0.0
 10
-3.3798
 20
13.4813
 30
0.0
 10
-3.3798
 20
13.4813
 30
0.0
 10
-3.3798
 20
13.4813
 30
0.0
 10
-3.3822
 20
13.4821
 30
0.0
 10
-3.3822
 20
13.4821
 30
0.0
  0
SPLINE
  5
F1
330
1F
100
AcDbEntity
  8
VRSTVA_1
 62
   250
100
AcDbSpline
210
0.0
220
0.0
230
1.0
 70
     8
 71
     3
 72
    64
 73
    60
 74
     0
 42
0.0000000001
 43
0.0000000001
 40
0.0
 40
0.0
 40
0.0
 40
0.0
 40
0.0625
 40
0.0625
 40
0.0625
 40
0.0625
 40
0.125
 40
0.125
 40
0.125
 40
0.125
 40
0.1875
 40
0.1875
 40
0.1875
 40
0.1875
 40
0.25
 40
0.25
 40
0.25
 40
0.25
 40
0.3125
 40
0.3125
 40
0.3125
 40
0.3125
 40
0.375
 40
0.375
 40
0.375
 40
0.375
 40
0.4375
 40
0.4375
 40
0.4375
 40
0.4375
 40
0.5
 40
0.5
 40
0.5
 40
0.5
 40
0.5625
 40
0.5625
 40
0.5625
 40
0.5625
 40
0.625
 40
0.625
 40
0.625
 40
0.625
 40
0.6875
 40
0.6875
 40
0.6875
 40
0.6875
 40
0.75
 40
0.75
 40
0.75
 40
0.75
 40
0.8125
 40
0.8125
 40
0.8125
 40
0.8125
 40
0.875
 40
0.875
 40
0.875
 40
0.875
 40
1.0
 40
1.0
 40
1.0
 40
1.0
 10
-3.1275
 20
-5.8006
 30
0.0
 10
-3.1275
 20
-5.8006
 30
0.0
 10
-3.1294
 20
-5.7998
 30
0.0
 10
-3.1294
 20
-5.7998
 30
0.0
 10
-3.1294
 20
-5.7998
 30
0.0
 10
-3.1294
 20
-5.7998
 30
0.0
 10
-3.1308
 20
-5.7985
 30
0.0
 10
-3.1308
 20
-5.7985
 30
0.0
 10
-3.1308
 20
-5.7985
 30
0.0
 10
-3.1308
 20
-5.7985
 30
0.0
 10
-3.1332
 20
-5.7946
 30
0.0
 10
-3.1332
 20
-5.7946
 30
0.0
 10
-3.1332
 20
-5.7946
 30
0.0
 10
-3.1332
 20
-5.7946
 30
0.0
 10
-3.134
 20
-5.7924
 30
0.0
 10
-3.134
 20
-5.7924
 30
0.0
 10
-3.134
 20
-5.7924
 30
0.0
 10
-3.134
 20
-5.7924
 30
0.0
 10
-3.1379
 20
-5.78
 30
0.0
 10
-3.1379
 20
-5.78
 30
0.0
 10
-3.1379
 20
-5.78
 30
0.0
 10
-3.1379
 20
-5.78
 30
0.0
 10
-3.1406
 20
-5.7678
 30
0.0
 10
-3.1406
 20
-5.7678
 30
0.0
 10
-3.1406
 20
-5.7678
 30
0.0
 10
-3.1406
 20
-5.7678
 30
0.0
 10
-3.1407
 20
-5.7669
 30
0.0
 10
-3.1407
 20
-5.7669
 30
0.0
 10
-3.1407
 20
-5.7669
 30
0.0
 10
-3.1407
 20
-5.7669
 30
0.0
 10
-3.1432
 20
-5.7535
 30
0.0
 10
-3.1432
 20
-5.7535
 30
0.0
 10
-3.1432
 20
-5.7535
 30
0.0
 10
-3.1432
 20
-5.7535
 30
0.0
 10
-3.1452
 20
-5.7401
 30
0.0
 10
-3.1452
 20
-5.7401
 30
0.0
 10
-3.1452
 20
-5.7401
 30
0.0
 10
-3.1452
 20
-5.7401
 30
0.0
 10
-3.1471
 20
-5.7267
 30
0.0
 10
-3.1471
 20
-5.7267
 30
0.0
 10
-3.1471
 20
-5.7267
 30
0.0
 10
-3.1471
 20
-5.7267
 30
0.0
 10
-3.1476
 20
-5.7232
 30
0.0
 10
-3.1476
 20
-5.7232
 30
0.0
 10
-3.1476
 20
-5.7232
 30
0.0
 10
-3.1476
 20
-5.7232
 30
0.0
 10
-3.1492
 20
-5.7098
 30
0.0
 10
-3.1492
 20
-5.7098
 30
0.0
 10
-3.1492
 20
-5.7098
 30
0.0
 10
-3.1492
 20
-5.7098
 30
0.0
 10
-3.1508
 20
-5.6964
 30
0.0
 10
-3.1508
 20
-5.6964
 30
0.0
 10
-3.1508
 20
-5.6964
 30
0.0
 10
-3.1508
 20
-5.6964
 30
0.0
 10
-3.1522
 20
-5.6829
 30
0.0
 10
-3.1522
 20
-5.6829
 30
0.0
 10
-3.1522
 20
-5.6829
 30
0.0
 10
-3.1522
 20
-5.6829
 30
0.0
 10
-3.1536
 20
-5.6694
 30
0.0
 10
-3.1536
 20
-5.6694
 30
0.0
  0
SPLINE
  5
F2
330
1F
100
AcDbEntity
  8
VRSTVA_1
 62
   250
100
AcDbSpline
210
0.0
220
0.0
230
1.0
 70
     8
 71
     3
 72
    96
 73
    92
 74
     0
 42
0.0000000001
 43
0.0000000001
 40
0.0
 40
0.0
 40
0.0
 40
0.0
 40
0.0416666666666667
 40
0.0416666666666667
 40
0.0416666666666667
 40
0.0416666666666667
 40
0.0833333333333333
 40
0.0833333333333333
 40
0.0833333333333333
 40
0.0833333333333333
 40
0.125
 40
0.125
 40
0.125
 40
0.125
 40
0.1666666666666667
 40
0.1666666666666667
 40
0.1666666666666667
 40
0.1666666666666667
 40
0.2083333333333333
 40
0.2083333333333333
 40
0.2083333333333333
 40
0.2083333333333333
 40
0.25
 40
0.25
 40
0.25
 40
0.25
 40
0.2916666666666667
 40
0.2916666666666667
 40
0.2916666666666667
 40
0.2916666666666667
 40
0.3333333333333333
 40
0.3333333333333333
 40
0.3333333333333333
 40
0.3333333333333333
 40
0.375
 40
0.375
 40
0.375
 40
0.375
 40
0.4166666666666667
 40
0.4166666666666667
 40
0.4166666666666667
 40
0.4166666666666667
 40
0.4583333333333333
 40
0.4583333333333333
 40
0.4583333333333333
 40
0.4583333333333333
 40
0.5
 40
0.5
 40
0.5
 40
0.5
 40
0.5416666666666666
 40
0.5416666666666666
 40
0.5416666666666666
 40
0.5416666666666666
 40
0.5833333333333334
 40
0.5833333333333334
 40
0.5833333333333334
 40
0.5833333333333334
 40
0.625
 40
0.625
 40
0.625
 40
0.625
 40
0.6666666666666666
 40
0.6666666666666666
 40
0.6666666666666666
 40
0.6666666666666666
 40
0.7083333333333334
 40
0.7083333333333334
 40
0.7083333333333334
 40
0.7083333333333334
 40
0.75
 40
0.75
 40
0.75
 40
0.75
 40
0.7916666666666666
 40
0.7916666666666666
 40
0.7916666666666666
 40
0.7916666666666666
 40
0.8333333333333334
 40
0.8333333333333334
 40
0.8333333333333334
 40
0.8333333333333334
 40
0.875
 40
0.875
 40
0.875
 40
0.875
 40
0.9166666666666666
 40
0.9166666666666666
 40
0.9166666666666666
 40
0.9166666666666666
 40
1.0
 40
1.0
 40
1.0
 40
1.0
 10
-3.1536
 20
-5.6694
 30
0.0
 10
-3.1536
 20
-5.6694
 30
0.0
 10
-3.1675
 20
-5.4936
 30
0.0
 10
-3.1675
 20
-5.4936
 30
0.0
 10
-3.1675
 20
-5.4936
 30
0.0
 10
-3.1675
 20
-5.4936
 30
0.0
 10
-3.1814
 20
-5.2459
 30
0.0
 10
-3.1814
 20
-5.2459
 30
0.0
 10
-3.1814
 20
-5.2459
 30
0.0
 10
-3.1814
 20
-5.2459
 30
0.0
 10
-3.207
 20
-4.6053
 30
0.0
 10
-3.207
 20
-4.6053
 30
0.0
 10
-3.207
 20
-4.6053
 30
0.0
 10
-3.207
 20
-4.6053
 30
0.0
 10
-3.2091
 20
-4.5427
 30
0.0
 10
-3.2091
 20
-4.5427
 30
0.0
 10
-3.2091
 20
-4.5427
 30
0.0
 10
-3.2091
 20
-4.5427
 30
0.0
 10
-3.2368
 20
-3.5813
 30
0.0
 10
-3.2368
 20
-3.5813
 30
0.0
 10
-3.2368
 20
-3.5813
 30
0.0
 10
-3.2368
 20
-3.5813
 30
0.0
 10
-3.2646
 20
-2.3915
 30
0.0
 10
-3.2646
 20
-2.3915
 30
0.0
 10
-3.2646
 20
-2.3915
 30
0.0
 10
-3.2646
 20
-2.3915
 30
0.0
 10
-3.2694
 20
-2.1622
 30
0.0
 10
-3.2694
 20
-2.1622
 30
0.0
 10
-3.2694
 20
-2.1622
 30
0.0
 10
-3.2694
 20
-2.1622
 30
0.0
 10
-3.3062
 20
-0.26
 30
0.0
 10
-3.3062
 20
-0.26
 30
0.0
 10
-3.3062
 20
-0.26
 30
0.0
 10
-3.3062
 20
-0.26
 30
0.0
 10
-3.3153
 20
0.2523
 30
0.0
 10
-3.3153
 20
0.2523
 30
0.0
 10
-3.3153
 20
0.2523
 30
0.0
 10
-3.3153
 20
0.2523
 30
0.0
 10
-3.3478
 20
2.1547
 30
0.0
 10
-3.3478
 20
2.1547
 30
0.0
 10
-3.3478
 20
2.1547
 30
0.0
 10
-3.3478
 20
2.1547
 30
0.0
 10
-3.3582
 20
2.7834
 30
0.0
 10
-3.3582
 20
2.7834
 30
0.0
 10
-3.3582
 20
2.7834
 30
0.0
 10
-3.3582
 20
2.7834
 30
0.0
 10
-3.3894
 20
4.6858
 30
0.0
 10
-3.3894
 20
4.6858
 30
0.0
 10
-3.3894
 20
4.6858
 30
0.0
 10
-3.3894
 20
4.6858
 30
0.0
 10
-3.3988
 20
5.2562
 30
0.0
 10
-3.3988
 20
5.2562
 30
0.0
 10
-3.3988
 20
5.2562
 30
0.0
 10
-3.3988
 20
5.2562
 30
0.0
 10
-3.431
 20
7.1585
 30
0.0
 10
-3.431
 20
7.1585
 30
0.0
 10
-3.431
 20
7.1585
 30
0.0
 10
-3.431
 20
7.1585
 30
0.0
 10
-3.437
 20
7.4999
 30
0.0
 10
-3.437
 20
7.4999
 30
0.0
 10
-3.437
 20
7.4999
 30
0.0
 10
-3.437
 20
7.4999
 30
0.0
 10
-3.4726
 20
9.4022
 30
0.0
 10
-3.4726
 20
9.4022
 30
0.0
 10
-3.4726
 20
9.4022
 30
0.0
 10
-3.4726
 20
9.4022
 30
0.0
 10
-3.4934
 20
10.3888
 30
0.0
 10
-3.4934
 20
10.3888
 30
0.0
 10
-3.4934
 20
10.3888
 30
0.0
 10
-3.4934
 20
10.3888
 30
0.0
 10
-3.5142
 20
11.2618
 30
0.0
 10
-3.5142
 20
11.2618
 30
0.0
 10
-3.5142
 20
11.2618
 30
0.0
 10
-3.5142
 20
11.2618
 30
0.0
 10
-3.535
 20
12.0061
 30
0.0
 10
-3.535
 20
12.0061
 30
0.0
 10
-3.535
 20
12.0061
 30
0.0
 10
-3.535
 20
12.0061
 30
0.0
 10
-3.5558
 20
12.6089
 30
0.0
 10
-3.5558
 20
12.6089
 30
0.0
 10
-3.5558
 20
12.6089
 30
0.0
 10
-3.5558
 20
12.6089
 30
0.0
 10
-3.5766
 20
13.0597
 30
0.0
 10
-3.5766
 20
13.0597
 30
0.0
 10
-3.5766
 20
13.0597
 30
0.0
 10
-3.5766
 20
13.0597
 30
0.0
 10
-3.5795
 20
13.1114
 30
0.0
 10
-3.5795
 20
13.1114
 30
0.0
 10
-3.5795
 20
13.1114
 30
0.0
 10
-3.5795
 20
13.1114
 30
0.0
 10
-3.5974
 20
13.3506
 30
0.0
 10
-3.5974
 20
13.3506
 30
0.0
  0
SPLINE
  5
F3
330
1F
100
AcDbEntity
  8
VRSTVA_1
 62
   250
100
AcDbSpline
210
0.0
220
0.0
230
1.0
 70
     8
 71
     3
 72
    52
 73
    48
 74
     0
 42
0.0000000001
 43
0.0000000001
 40
0.0
 40
0.0
 40
0.0
 40
0.0
 40
0.0769230769230769
 40
0.0769230769230769
 40
0.0769230769230769
 40
0.0769230769230769
 40
0.1538461538461539
 40
0.1538461538461539
 40
0.1538461538461539
 40
0.1538461538461539
 40
0.2307692307692308
 40
0.2307692307692308
 40
0.2307692307692308
 40
0.2307692307692308
 40
0.3076923076923077
 40
0.3076923076923077
 40
0.3076923076923077
 40
0.3076923076923077
 40
0.3846153846153846
 40
0.3846153846153846
 40
0.3846153846153846
 40
0.3846153846153846
 40
0.4615384615384616
 40
0.4615384615384616
 40
0.4615384615384616
 40
0.4615384615384616
 40
0.5384615384615384
 40
0.5384615384615384
 40
0.5384615384615384
 40
0.5384615384615384
 40
0.6153846153846154
 40
0.6153846153846154
 40
0.6153846153846154
 40
0.6153846153846154
 40
0.6923076923076923
 40
0.6923076923076923
 40
0.6923076923076923
 40
0.6923076923076923
 40
0.7692307692307693
 40
0.7692307692307693
 40
0.7692307692307693
 40
0.7692307692307693
 40
0.8461538461538461
 40
0.8461538461538461
 40
0.8461538461538461
 40
0.8461538461538461
 40
1.0
 40
1.0
 40
1.0
 40
1.0
 10
-3.5974
 20
13.3506
 30
0.0
 10
-3.5974
 20
13.3506
 30
0.0
 10
-3.5984
 20
13.36
 30
0.0
 10
-3.5984
 20
13.36
 30
0.0
 10
-3.5984
 20
13.36
 30
0.0
 10
-3.5984
 20
13.36
 30
0.0
 10
-3.5998
 20
13.3728
 30
0.0
 10
-3.5998
 20
13.3728
 30
0.0
 10
-3.5998
 20
13.3728
 30
0.0
 10
-3.5998
 20
13.3728
 30
0.0
 10
-3.6012
 20
13.3856
 30
0.0
 10
-3.6012
 20
13.3856
 30
0.0
 10
-3.6012
 20
13.3856
 30
0.0
 10
-3.6012
 20
13.3856
 30
0.0
 10
-3.6027
 20
13.3984
 30
0.0
 10
-3.6027
 20
13.3984
 30
0.0
 10
-3.6027
 20
13.3984
 30
0.0
 10
-3.6027
 20
13.3984
 30
0.0
 10
-3.6042
 20
13.41
 30
0.0
 10
-3.6042
 20
13.41
 30
0.0
 10
-3.6042
 20
13.41
 30
0.0
 10
-3.6042
 20
13.41
 30
0.0
 10
-3.606
 20
13.4227
 30
0.0
 10
-3.606
 20
13.4227
 30
0.0
 10
-3.606
 20
13.4227
 30
0.0
 10
-3.606
 20
13.4227
 30
0.0
 10
-3.608
 20
13.4354
 30
0.0
 10
-3.608
 20
13.4354
 30
0.0
 10
-3.608
 20
13.4354
 30
0.0
 10
-3.608
 20
13.4354
 30
0.0
 10
-3.6082
 20
13.4365
 30
0.0
 10
-3.6082
 20
13.4365
 30
0.0
 10
-3.6082
 20
13.4365
 30
0.0
 10
-3.6082
 20
13.4365
 30
0.0
 10
-3.6105
 20
13.4492
 30
0.0
 10
-3.6105
 20
13.4492
 30
0.0
 10
-3.6105
 20
13.4492
 30
0.0
 10
-3.6105
 20
13.4492
 30
0.0
 10
-3.6133
 20
13.4618
 30
0.0
 10
-3.6133
 20
13.4618
 30
0.0
 10
-3.6133
 20
13.4618
 30
0.0
 10
-3.6133
 20
13.4618
 30
0.0
 10
-3.6155
 20
13.4698
 30
0.0
 10
-3.6155
 20
13.4698
 30
0.0
 10
-3.6155
 20
13.4698
 30
0.0
 10
-3.6155
 20
13.4698
 30
0.0
 10
-3.6186
 20
13.4773
 30
0.0
 10
-3.6186
 20
13.4773
 30
0.0
  0
SPLINE
  5
F4
330
1F
100
AcDbEntity
  8
VRSTVA_1
 62
   250
100
AcDbSpline
210
0.0
220
0.0
230
1.0
 70
    24
 71
     3
 72
     8
 73
     4
 74
     0
 42
0.0000000001
 43
0.0000000001
 40
0.0
 40
0.0
 40
0.0
 40
0.0
 40
1.0
 40
1.0
 40
1.0
 40
1.0
 10
4.0092
 20
22.1836
 30
0.0
 10
4.0092
 20
22.1836
 30
0.0
 10
-16.4579
 20
22.1836
 30
0.0
 10
-16.4579
 20
22.1836
 30
0.0
  0
SPLINE
  5
F5
330
1F
100
AcDbEntity
  8
VRSTVA_1
 62
   250
100
AcDbSpline
210
0.0
220
0.0
230
1.0
 70
    24
 71
     3
 72
     8
 73
     4
 74
     0
 42
0.0000000001
 43
0.0000000001
 40
0.0
 40
0.0
 40
0.0
 40
0.0
 40
1.0
 40
1.0
 40
1.0
 40
1.0
 10
-56.1619
 20
18.7457
 30
0.0
 10
-56.1619
 20
18.7457
 30
0.0
 10
-56.1619
 20
-8.1317
 30
0.0
 10
-56.1619
 20
-8.1317
 30
0.0
  0
SPLINE
  5
F6
330
1F
100
AcDbEntity
  8
VRSTVA_1
 62
   250
100
AcDbSpline
210
0.0
220
0.0
230
1.0
 70
    11
 71
     3
 72
    20
 73
    16
 74
     0
 42
0.0000000001
 43
0.0000000001
 40
0.0
 40
0.0
 40
0.0
 40
0.0
 40
0.2
 40
0.2
 40
0.2
 40
0.2
 40
0.4
 40
0.4
 40
0.4
 40
0.4
 40
0.6
 40
0.6
 40
0.6
 40
0.6
 40
1.0
 40
1.0
 40
1.0
 40
1.0
 10
-56.6596
 20
16.2352
 30
0.0
 10
-56.6596
 20
16.2352
 30
0.0
 10
-56.2362
 20
19.2353
 30
0.0
 10
-56.2362
 20
19.2353
 30
0.0
 10
-56.2362
 20
19.2353
 30
0.0
 10
-56.2362
 20
19.2353
 30
0.0
 10
-56.1422
 20
19.2353
 30
0.0
 10
-56.1422
 20
19.2353
 30
0.0
 10
-56.1422
 20
19.2353
 30
0.0
 10
-56.1422
 20
19.2353
 30
0.0
 10
-55.6906
 20
16.2352
 30
0.0
 10
-55.6906
 20
16.2352
 30
0.0
 10
-55.6906
 20
16.2352
 30
0.0
 10
-55.6906
 20
16.2352
 30
0.0
 10
-56.6596
 20
16.2352
 30
0.0
 10
-56.6596
 20
16.2352
 30
0.0
  0
SPLINE
  5
F7
330
1F
100
AcDbEntity
  8
VRSTVA_1
 62
   250
100
AcDbSpline
210
0.0
220
0.0
230
1.0
 70
    11
 71
     3
 72
    20
 73
    16
 74
     0
 42
0.0000000001
 43
0.0000000001
 40
0.0
 40
0.0
 40
0.0
 40
0.0
 40
0.2
 40
0.2
 40
0.2
 40
0.2
 40
0.4
 40
0.4
 40
0.4
 40
0.4
 40
0.6
 40
0.6
 40
0.6
 40
0.6
 40
1.0
 40
1.0
 40
1.0
 40
1.0
 10
-55.6774
 20
-5.6381
 30
0.0
 10
-55.6774
 20
-5.6381
 30
0.0
 10
-56.1008
 20
-8.6381
 30
0.0
 10
-56.1008
 20
-8.6381
 30
0.0
 10
-56.1008
 20
-8.6381
 30
0.0
 10
-56.1008
 20
-8.6381
 30
0.0
 10
-56.1948
 20
-8.6381
 30
0.0
 10
-56.1948
 20
-8.6381
 30
0.0
 10
-56.1948
 20
-8.6381
 30
0.0
 10
-56.1948
 20
-8.6381
 30
0.0
 10
-56.6464
 20
-5.6381
 30
0.0
 10
-56.6464
 20
-5.6381
 30
0.0
 10
-56.6464
 20
-5.6381
 30
0.0
 10
-56.6464
 20
-5.6381
 30
0.0
 10
-55.6774
 20
-5.6381
 30
0.0
 10
-55.6774
 20
-5.6381
 30
0.0
  0
SPLINE
  5
F8
330
1F
100
AcDbEntity
  8
VRSTVA_1
 62
   250
100
AcDbSpline
210
0.0
220
0.0
230
1.0
 70
    11
 71
     3
 72
    80
 73
    76
 74
     0
 42
0.0000000001
 43
0.0000000001
 40
0.0
 40
0.0
 40
0.0
 40
0.0
 40
0.05
 40
0.05
 40
0.05
 40
0.05
 40
0.1
 40
0.1
 40
0.1
 40
0.1
 40
0.15
 40
0.15
 40
0.15
 40
0.15
 40
0.2
 40
0.2
 40
0.2
 40
0.2
 40
0.25
 40
0.25
 40
0.25
 40
0.25
 40
0.3
 40
0.3
 40
0.3
 40
0.3
 40
0.35
 40
0.35
 40
0.35
 40
0.35
 40
0.4
 40
0.4
 40
0.4
 40
0.4
 40
0.45
 40
0.45
 40
0.45
 40
0.45
 40
0.5
 40
0.5
 40
0.5
 40
0.5
 40
0.55
 40
0.55
 40
0.55
 40
0.55
 40
0.6
 40
0.6
 40
0.6
 40
0.6
 40
0.65
 40
0.65
 40
0.65
 40
0.65
 40
0.7
 40
0.7
 40
0.7
 40
0.7
 40
0.75
 40
0.75
 40
0.75
 40
0.75
 40
0.8
 40
0.8
 40
0.8
 40
0.8
 40
0.85
 40
0.85
 40
0.85
 40
0.85
 40
0.9
 40
0.9
 40
0.9
 40
0.9
 40
1.0
 40
1.0
 40
1.0
 40
1.0
 10
-57.997
 20
8.3458
 30
0.0
 10
-57.997
 20
8.3458
 30
0.0
 10
-57.9778
 20
8.0993
 30
0.0
 10
-57.9778
 20
8.0993
 30
0.0
 10
-57.9778
 20
8.0993
 30
0.0
 10
-58.0751
 20
8.0772
 30
0.0
 10
-58.1461
 20
8.0462
 30
0.0
 10
-58.1899
 20
8.0057
 30
0.0
 10
-58.1899
 20
8.0057
 30
0.0
 10
-58.2609
 20
7.9385
 30
0.0
 10
-58.2962
 20
7.8557
 30
0.0
 10
-58.2962
 20
7.7574
 30
0.0
 10
-58.2962
 20
7.7574
 30
0.0
 10
-58.2962
 20
7.6784
 30
0.0
 10
-58.2741
 20
7.6092
 30
0.0
 10
-58.2299
 20
7.5495
 30
0.0
 10
-58.2299
 20
7.5495
 30
0.0
 10
-58.173
 20
7.4714
 30
0.0
 10
-58.0897
 20
7.4098
 30
0.0
 10
-57.9806
 20
7.3646
 30
0.0
 10
-57.9806
 20
7.3646
 30
0.0
 10
-57.8715
 20
7.32
 30
0.0
 10
-57.7158
 20
7.2964
 30
0.0
 10
-57.5135
 20
7.2946
 30
0.0
 10
-57.5135
 20
7.2946
 30
0.0
 10
-57.6043
 20
7.3543
 30
0.0
 10
-57.672
 20
7.4272
 30
0.0
 10
-57.7162
 20
7.5137
 30
0.0
 10
-57.7162
 20
7.5137
 30
0.0
 10
-57.76
 20
7.5998
 30
0.0
 10
-57.7821
 20
7.6906
 30
0.0
 10
-57.7821
 20
7.7851
 30
0.0
 10
-57.7821
 20
7.7851
 30
0.0
 10
-57.7821
 20
7.9507
 30
0.0
 10
-57.7214
 20
8.0913
 30
0.0
 10
-57.5996
 20
8.2075
 30
0.0
 10
-57.5996
 20
8.2075
 30
0.0
 10
-57.4778
 20
8.3237
 30
0.0
 10
-57.3207
 20
8.382
 30
0.0
 10
-57.1278
 20
8.382
 30
0.0
 10
-57.1278
 20
8.382
 30
0.0
 10
-57.0008
 20
8.382
 30
0.0
 10
-56.8833
 20
8.3543
 30
0.0
 10
-56.7741
 20
8.2997
 30
0.0
 10
-56.7741
 20
8.2997
 30
0.0
 10
-56.6655
 20
8.2451
 30
0.0
 10
-56.5818
 20
8.1699
 30
0.0
 10
-56.5239
 20
8.0744
 30
0.0
 10
-56.5239
 20
8.0744
 30
0.0
 10
-56.4661
 20
7.9789
 30
0.0
 10
-56.4374
 20
7.8707
 30
0.0
 10
-56.4374
 20
7.7494
 30
0.0
 10
-56.4374
 20
7.7494
 30
0.0
 10
-56.4374
 20
7.5424
 30
0.0
 10
-56.5131
 20
7.3741
 30
0.0
 10
-56.6655
 20
7.2438
 30
0.0
 10
-56.6655
 20
7.2438
 30
0.0
 10
-56.8174
 20
7.113
 30
0.0
 10
-57.0681
 20
7.0481
 30
0.0
 10
-57.4171
 20
7.0481
 30
0.0
 10
-57.4171
 20
7.0481
 30
0.0
 10
-57.8075
 20
7.0481
 30
0.0
 10
-58.0911
 20
7.1201
 30
0.0
 10
-58.2684
 20
7.2645
 30
0.0
 10
-58.2684
 20
7.2645
 30
0.0
 10
-58.4227
 20
7.39
 30
0.0
 10
-58.5003
 20
7.5594
 30
0.0
 10
-58.5003
 20
7.7729
 30
0.0
 10
-58.5003
 20
7.7729
 30
0.0
 10
-58.5003
 20
7.9314
 30
0.0
 10
-58.4556
 20
8.0617
 30
0.0
 10
-58.3663
 20
8.1633
 30
0.0
 10
-58.3663
 20
8.1633
 30
0.0
 10
-58.2774
 20
8.2649
 30
0.0
 10
-58.1541
 20
8.3256
 30
0.0
 10
-57.997
 20
8.3458
 30
0.0
  0
SPLINE
  5
F9
330
1F
100
AcDbEntity
  8
VRSTVA_1
 62
   250
100
AcDbSpline
210
0.0
220
0.0
230
1.0
 70
    11
 71
     3
 72
    40
 73
    36
 74
     0
 42
0.0000000001
 43
0.0000000001
 40
0.0
 40
0.0
 40
0.0
 40
0.0
 40
0.1
 40
0.1
 40
0.1
 40
0.1
 40
0.2
 40
0.2
 40
0.2
 40
0.2
 40
0.3
 40
0.3
 40
0.3
 40
0.3
 40
0.4
 40
0.4
 40
0.4
 40
0.4
 40
0.5
 40
0.5
 40
0.5
 40
0.5
 40
0.6
 40
0.6
 40
0.6
 40
0.6
 40
0.7
 40
0.7
 40
0.7
 40
0.7
 40
0.8
 40
0.8
 40
0.8
 40
0.8
 40
1.0
 40
1.0
 40
1.0
 40
1.0
 10
-57.1264
 20
7.3331
 30
0.0
 10
-57.0408
 20
7.3331
 30
0.0
 10
-56.959
 20
7.3515
 30
0.0
 10
-56.8809
 20
7.3877
 30
0.0
 10
-56.8809
 20
7.3877
 30
0.0
 10
-56.8028
 20
7.4239
 30
0.0
 10
-56.7436
 20
7.4747
 30
0.0
 10
-56.7026
 20
7.5396
 30
0.0
 10
-56.7026
 20
7.5396
 30
0.0
 10
-56.6617
 20
7.605
 30
0.0
 10
-56.641
 20
7.6737
 30
0.0
 10
-56.641
 20
7.7452
 30
0.0
 10
-56.641
 20
7.7452
 30
0.0
 10
-56.641
 20
7.85
 30
0.0
 10
-56.6834
 20
7.9399
 30
0.0
 10
-56.768
 20
8.0151
 30
0.0
 10
-56.768
 20
8.0151
 30
0.0
 10
-56.8527
 20
8.0904
 30
0.0
 10
-56.9674
 20
8.128
 30
0.0
 10
-57.1123
 20
8.128
 30
0.0
 10
-57.1123
 20
8.128
 30
0.0
 10
-57.252
 20
8.128
 30
0.0
 10
-57.3621
 20
8.0909
 30
0.0
 10
-57.4425
 20
8.0165
 30
0.0
 10
-57.4425
 20
8.0165
 30
0.0
 10
-57.5229
 20
7.9422
 30
0.0
 10
-57.5629
 20
7.8486
 30
0.0
 10
-57.5629
 20
7.7358
 30
0.0
 10
-57.5629
 20
7.7358
 30
0.0
 10
-57.5629
 20
7.6233
 30
0.0
 10
-57.5229
 20
7.5283
 30
0.0
 10
-57.4425
 20
7.4502
 30
0.0
 10
-57.4425
 20
7.4502
 30
0.0
 10
-57.3621
 20
7.3722
 30
0.0
 10
-57.2567
 20
7.3331
 30
0.0
 10
-57.1264
 20
7.3331
 30
0.0
  0
SPLINE
  5
FA
330
1F
100
AcDbEntity
  8
VRSTVA_1
 62
   250
100
AcDbSpline
210
0.0
220
0.0
230
1.0
 70
    11
 71
     3
 72
    92
 73
    88
 74
     0
 42
0.0000000001
 43
0.0000000001
 40
0.0
 40
0.0
 40
0.0
 40
0.0
 40
0.0434782608695652
 40
0.0434782608695652
 40
0.0434782608695652
 40
0.0434782608695652
 40
0.0869565217391304
 40
0.0869565217391304
 40
0.0869565217391304
 40
0.0869565217391304
 40
0.1304347826086956
 40
0.1304347826086956
 40
0.1304347826086956
 40
0.1304347826086956
 40
0.1739130434782609
 40
0.1739130434782609
 40
0.1739130434782609
 40
0.1739130434782609
 40
0.2173913043478261
 40
0.2173913043478261
 40
0.2173913043478261
 40
0.2173913043478261
 40
0.2608695652173913
 40
0.2608695652173913
 40
0.2608695652173913
 40
0.2608695652173913
 40
0.3043478260869565
 40
0.3043478260869565
 40
0.3043478260869565
 40
0.3043478260869565
 40
0.3478260869565217
 40
0.3478260869565217
 40
0.3478260869565217
 40
0.3478260869565217
 40
0.391304347826087
 40
0.391304347826087
 40
0.391304347826087
 40
0.391304347826087
 40
0.4347826086956522
 40
0.4347826086956522
 40
0.4347826086956522
 40
0.4347826086956522
 40
0.4782608695652174
 40
0.4782608695652174
 40
0.4782608695652174
 40
0.4782608695652174
 40
0.5217391304347826
 40
0.5217391304347826
 40
0.5217391304347826
 40
0.5217391304347826
 40
0.5652173913043478
 40
0.5652173913043478
 40
0.5652173913043478
 40
0.5652173913043478
 40
0.6086956521739131
 40
0.6086956521739131
 40
0.6086956521739131
 40
0.6086956521739131
 40
0.6521739130434783
 40
0.6521739130434783
 40
0.6521739130434783
 40
0.6521739130434783
 40
0.6956521739130435
 40
0.6956521739130435
 40
0.6956521739130435
 40
0.6956521739130435
 40
0.7391304347826086
 40
0.7391304347826086
 40
0.7391304347826086
 40
0.7391304347826086
 40
0.782608695652174
 40
0.782608695652174
 40
0.782608695652174
 40
0.782608695652174
 40
0.8260869565217391
 40
0.8260869565217391
 40
0.8260869565217391
 40
0.8260869565217391
 40
0.8695652173913043
 40
0.8695652173913043
 40
0.8695652173913043
 40
0.8695652173913043
 40
0.9130434782608695
 40
0.9130434782608695
 40
0.9130434782608695
 40
0.9130434782608695
 40
1.0
 40
1.0
 40
1.0
 40
1.0
 10
-57.0008
 20
8.6285
 30
0.0
 10
-57.0008
 20
8.6285
 30
0.0
 10
-57.023
 20
8.8891
 30
0.0
 10
-57.023
 20
8.8891
 30
0.0
 10
-57.023
 20
8.8891
 30
0.0
 10
-56.896
 20
8.9084
 30
0.0
 10
-56.8009
 20
8.9531
 30
0.0
 10
-56.737
 20
9.0231
 30
0.0
 10
-56.737
 20
9.0231
 30
0.0
 10
-56.673
 20
9.0937
 30
0.0
 10
-56.641
 20
9.1784
 30
0.0
 10
-56.641
 20
9.2776
 30
0.0
 10
-56.641
 20
9.2776
 30
0.0
 10
-56.641
 20
9.3971
 30
0.0
 10
-56.6862
 20
9.4982
 30
0.0
 10
-56.776
 20
9.5805
 30
0.0
 10
-56.776
 20
9.5805
 30
0.0
 10
-56.8663
 20
9.6633
 30
0.0
 10
-56.9858
 20
9.7047
 30
0.0
 10
-57.1344
 20
9.7047
 30
0.0
 10
-57.1344
 20
9.7047
 30
0.0
 10
-57.276
 20
9.7047
 30
0.0
 10
-57.3875
 20
9.6652
 30
0.0
 10
-57.4693
 20
9.5857
 30
0.0
 10
-57.4693
 20
9.5857
 30
0.0
 10
-57.5512
 20
9.5062
 30
0.0
 10
-57.5921
 20
9.4022
 30
0.0
 10
-57.5921
 20
9.2734
 30
0.0
 10
-57.5921
 20
9.2734
 30
0.0
 10
-57.5921
 20
9.1934
 30
0.0
 10
-57.5737
 20
9.1214
 30
0.0
 10
-57.5375
 20
9.057
 30
0.0
 10
-57.5375
 20
9.057
 30
0.0
 10
-57.5013
 20
8.9926
 30
0.0
 10
-57.4543
 20
8.9422
 30
0.0
 10
-57.3964
 20
8.9056
 30
0.0
 10
-57.3964
 20
8.9056
 30
0.0
 10
-57.3964
 20
8.9056
 30
0.0
 10
-57.4265
 20
8.6727
 30
0.0
 10
-57.4265
 20
8.6727
 30
0.0
 10
-57.4265
 20
8.6727
 30
0.0
 10
-57.4265
 20
8.6727
 30
0.0
 10
-58.4641
 20
8.8684
 30
0.0
 10
-58.4641
 20
8.8684
 30
0.0
 10
-58.4641
 20
8.8684
 30
0.0
 10
-58.4641
 20
8.8684
 30
0.0
 10
-58.4641
 20
9.8731
 30
0.0
 10
-58.4641
 20
9.8731
 30
0.0
 10
-58.4641
 20
9.8731
 30
0.0
 10
-58.4641
 20
9.8731
 30
0.0
 10
-58.227
 20
9.8731
 30
0.0
 10
-58.227
 20
9.8731
 30
0.0
 10
-58.227
 20
9.8731
 30
0.0
 10
-58.227
 20
9.8731
 30
0.0
 10
-58.227
 20
9.0669
 30
0.0
 10
-58.227
 20
9.0669
 30
0.0
 10
-58.227
 20
9.0669
 30
0.0
 10
-58.227
 20
9.0669
 30
0.0
 10
-57.6843
 20
8.9578
 30
0.0
 10
-57.6843
 20
8.9578
 30
0.0
 10
-57.6843
 20
8.9578
 30
0.0
 10
-57.7689
 20
9.0791
 30
0.0
 10
-57.8113
 20
9.2066
 30
0.0
 10
-57.8113
 20
9.3397
 30
0.0
 10
-57.8113
 20
9.3397
 30
0.0
 10
-57.8113
 20
9.5161
 30
0.0
 10
-57.7501
 20
9.6647
 30
0.0
 10
-57.6278
 20
9.786
 30
0.0
 10
-57.6278
 20
9.786
 30
0.0
 10
-57.5055
 20
9.9074
 30
0.0
 10
-57.3484
 20
9.9681
 30
0.0
 10
-57.1565
 20
9.9681
 30
0.0
 10
-57.1565
 20
9.9681
 30
0.0
 10
-56.9736
 20
9.9681
 30
0.0
 10
-56.8155
 20
9.9145
 30
0.0
 10
-56.6824
 20
9.8082
 30
0.0
 10
-56.6824
 20
9.8082
 30
0.0
 10
-56.5192
 20
9.6783
 30
0.0
 10
-56.4374
 20
9.5015
 30
0.0
 10
-56.4374
 20
9.2776
 30
0.0
 10
-56.4374
 20
9.2776
 30
0.0
 10
-56.4374
 20
9.0937
 30
0.0
 10
-56.4886
 20
8.9437
 30
0.0
 10
-56.5916
 20
8.8275
 30
0.0
 10
-56.5916
 20
8.8275
 30
0.0
 10
-56.6946
 20
8.7113
 30
0.0
 10
-56.831
 20
8.645
 30
0.0
 10
-57.0008
 20
8.6285
 30
0.0
  0
SPLINE
  5
FB
330
1F
100
AcDbEntity
  8
VRSTVA_1
 62
   250
100
AcDbSpline
210
0.0
220
0.0
230
1.0
 70
    24
 71
     3
 72
     8
 73
     4
 74
     0
 42
0.0000000001
 43
0.0000000001
 40
0.0
 40
0.0
 40
0.0
 40
0.0
 40
1.0
 40
1.0
 40
1.0
 40
1.0
 10
-49.1373
 20
16.2822
 30
0.0
 10
-49.1373
 20
16.2822
 30
0.0
 10
-51.6426
 20
16.2822
 30
0.0
 10
-51.6426
 20
16.2822
 30
0.0
  0
SPLINE
  5
FC
330
1F
100
AcDbEntity
  8
VRSTVA_1
 62
   250
100
AcDbSpline
210
0.0
220
0.0
230
1.0
 70
     8
 71
     3
 72
    16
 73
    12
 74
     0
 42
0.0000000001
 43
0.0000000001
 40
0.0
 40
0.0
 40
0.0
 40
0.0
 40
0.25
 40
0.25
 40
0.25
 40
0.25
 40
0.5
 40
0.5
 40
0.5
 40
0.5
 40
1.0
 40
1.0
 40
1.0
 40
1.0
 10
2.8522
 20
15.6912
 30
0.0
 10
2.8522
 20
15.6912
 30
0.0
 10
-3.1358
 20
15.6912
 30
0.0
 10
-3.1358
 20
15.6912
 30
0.0
 10
-3.1358
 20
15.6912
 30
0.0
 10
-3.1358
 20
15.6912
 30
0.0
 10
-3.1534
 20
-7.9219
 30
0.0
 10
-3.1534
 20
-7.9219
 30
0.0
 10
-3.1534
 20
-7.9219
 30
0.0
 10
-3.1534
 20
-7.9219
 30
0.0
 10
2.9137
 20
-7.9219
 30
0.0
 10
2.9137
 20
-7.9219
 30
0.0
  0
SPLINE
  5
FD
330
1F
100
AcDbEntity
  8
VRSTVA_1
 62
   250
100
AcDbSpline
210
0.0
220
0.0
230
1.0
 70
     8
 71
     3
 72
   124
 73
   120
 74
     0
 42
0.0000000001
 43
0.0000000001
 40
0.0
 40
0.0
 40
0.0
 40
0.0
 40
0.032258064516129
 40
0.032258064516129
 40
0.032258064516129
 40
0.032258064516129
 40
0.0645161290322581
 40
0.0645161290322581
 40
0.0645161290322581
 40
0.0645161290322581
 40
0.0967741935483871
 40
0.0967741935483871
 40
0.0967741935483871
 40
0.0967741935483871
 40
0.1290322580645161
 40
0.1290322580645161
 40
0.1290322580645161
 40
0.1290322580645161
 40
0.1612903225806452
 40
0.1612903225806452
 40
0.1612903225806452
 40
0.1612903225806452
 40
0.1935483870967742
 40
0.1935483870967742
 40
0.1935483870967742
 40
0.1935483870967742
 40
0.2258064516129032
 40
0.2258064516129032
 40
0.2258064516129032
 40
0.2258064516129032
 40
0.2580645161290323
 40
0.2580645161290323
 40
0.2580645161290323
 40
0.2580645161290323
 40
0.2903225806451613
 40
0.2903225806451613
 40
0.2903225806451613
 40
0.2903225806451613
 40
0.3225806451612903
 40
0.3225806451612903
 40
0.3225806451612903
 40
0.3225806451612903
 40
0.3548387096774194
 40
0.3548387096774194
 40
0.3548387096774194
 40
0.3548387096774194
 40
0.3870967741935484
 40
0.3870967741935484
 40
0.3870967741935484
 40
0.3870967741935484
 40
0.4193548387096774
 40
0.4193548387096774
 40
0.4193548387096774
 40
0.4193548387096774
 40
0.4516129032258064
 40
0.4516129032258064
 40
0.4516129032258064
 40
0.4516129032258064
 40
0.4838709677419355
 40
0.4838709677419355
 40
0.4838709677419355
 40
0.4838709677419355
 40
0.5161290322580645
 40
0.5161290322580645
 40
0.5161290322580645
 40
0.5161290322580645
 40
0.5483870967741935
 40
0.5483870967741935
 40
0.5483870967741935
 40
0.5483870967741935
 40
0.5806451612903226
 40
0.5806451612903226
 40
0.5806451612903226
 40
0.5806451612903226
 40
0.6129032258064516
 40
0.6129032258064516
 40
0.6129032258064516
 40
0.6129032258064516
 40
0.6451612903225806
 40
0.6451612903225806
 40
0.6451612903225806
 40
0.6451612903225806
 40
0.6774193548387096
 40
0.6774193548387096
 40
0.6774193548387096
 40
0.6774193548387096
 40
0.7096774193548387
 40
0.7096774193548387
 40
0.7096774193548387
 40
0.7096774193548387
 40
0.7419354838709677
 40
0.7419354838709677
 40
0.7419354838709677
 40
0.7419354838709677
 40
0.7741935483870968
 40
0.7741935483870968
 40
0.7741935483870968
 40
0.7741935483870968
 40
0.8064516129032258
 40
0.8064516129032258
 40
0.8064516129032258
 40
0.8064516129032258
 40
0.8387096774193549
 40
0.8387096774193549
 40
0.8387096774193549
 40
0.8387096774193549
 40
0.8709677419354839
 40
0.8709677419354839
 40
0.8709677419354839
 40
0.8709677419354839
 40
0.9032258064516129
 40
0.9032258064516129
 40
0.9032258064516129
 40
0.9032258064516129
 40
0.9354838709677419
 40
0.9354838709677419
 40
0.9354838709677419
 40
0.9354838709677419
 40
1.0
 40
1.0
 40
1.0
 40
1.0
 10
1.9968
 20
-7.8019
 30
0.0
 10
1.9968
 20
-7.8019
 30
0.0
 10
-1.8527
 20
-7.8019
 30
0.0
 10
-1.8527
 20
-7.8019
 30
0.0
 10
-1.8527
 20
-7.8019
 30
0.0
 10
-1.8527
 20
-7.8019
 30
0.0
 10
-1.8463
 20
-5.0535
 30
0.0
 10
-1.8463
 20
-5.0535
 30
0.0
 10
-1.8463
 20
-5.0535
 30
0.0
 10
-1.8463
 20
-5.0535
 30
0.0
 10
2.259
 20
-5.0204
 30
0.0
 10
2.259
 20
-5.0204
 30
0.0
 10
2.259
 20
-5.0204
 30
0.0
 10
2.259
 20
-5.0204
 30
0.0
 10
2.557
 20
-4.8548
 30
0.0
 10
2.557
 20
-4.8548
 30
0.0
 10
2.557
 20
-4.8548
 30
0.0
 10
2.557
 20
-4.8548
 30
0.0
 10
2.855
 20
-4.5237
 30
0.0
 10
2.855
 20
-4.5237
 30
0.0
 10
2.855
 20
-4.5237
 30
0.0
 10
2.855
 20
-4.5237
 30
0.0
 10
2.855
 20
-4.2258
 30
0.0
 10
2.855
 20
-4.2258
 30
0.0
 10
2.855
 20
-4.2258
 30
0.0
 10
2.855
 20
-4.2258
 30
0.0
 10
2.6894
 20
-4.0271
 30
0.0
 10
2.6894
 20
-4.0271
 30
0.0
 10
2.6894
 20
-4.0271
 30
0.0
 10
2.6894
 20
-4.0271
 30
0.0
 10
2.4908
 20
-3.8285
 30
0.0
 10
2.4908
 20
-3.8285
 30
0.0
 10
2.4908
 20
-3.8285
 30
0.0
 10
2.4908
 20
-3.8285
 30
0.0
 10
2.0273
 20
-3.7954
 30
0.0
 10
2.0273
 20
-3.7954
 30
0.0
 10
2.0273
 20
-3.7954
 30
0.0
 10
2.0273
 20
-3.7954
 30
0.0
 10
-1.7801
 20
-3.7623
 30
0.0
 10
-1.7801
 20
-3.7623
 30
0.0
 10
-1.7801
 20
-3.7623
 30
0.0
 10
-1.7801
 20
-3.7623
 30
0.0
 10
-1.8463
 20
3.1242
 30
0.0
 10
-1.8463
 20
3.1242
 30
0.0
 10
-1.8463
 20
3.1242
 30
0.0
 10
-1.8463
 20
3.1242
 30
0.0
 10
1.9942
 20
3.0911
 30
0.0
 10
1.9942
 20
3.0911
 30
0.0
 10
1.9942
 20
3.0911
 30
0.0
 10
1.9942
 20
3.0911
 30
0.0
 10
2.3584
 20
3.1904
 30
0.0
 10
2.3584
 20
3.1904
 30
0.0
 10
2.3584
 20
3.1904
 30
0.0
 10
2.3584
 20
3.1904
 30
0.0
 10
2.6563
 20
3.389
 30
0.0
 10
2.6563
 20
3.389
 30
0.0
 10
2.6563
 20
3.389
 30
0.0
 10
2.6563
 20
3.389
 30
0.0
 10
2.8219
 20
3.7201
 30
0.0
 10
2.8219
 20
3.7201
 30
0.0
 10
2.8219
 20
3.7201
 30
0.0
 10
2.8219
 20
3.7201
 30
0.0
 10
2.8219
 20
4.1174
 30
0.0
 10
2.8219
 20
4.1174
 30
0.0
 10
2.8219
 20
4.1174
 30
0.0
 10
2.8219
 20
4.1174
 30
0.0
 10
2.6894
 20
4.4154
 30
0.0
 10
2.6894
 20
4.4154
 30
0.0
 10
2.6894
 20
4.4154
 30
0.0
 10
2.6894
 20
4.4154
 30
0.0
 10
2.4246
 20
4.6471
 30
0.0
 10
2.4246
 20
4.6471
 30
0.0
 10
2.4246
 20
4.6471
 30
0.0
 10
2.4246
 20
4.6471
 30
0.0
 10
2.0935
 20
4.7465
 30
0.0
 10
2.0935
 20
4.7465
 30
0.0
 10
2.0935
 20
4.7465
 30
0.0
 10
2.0935
 20
4.7465
 30
0.0
 10
-1.8132
 20
4.7134
 30
0.0
 10
-1.8132
 20
4.7134
 30
0.0
 10
-1.8132
 20
4.7134
 30
0.0
 10
-1.8132
 20
4.7134
 30
0.0
 10
-1.8463
 20
11.6329
 30
0.0
 10
-1.8463
 20
11.6329
 30
0.0
 10
-1.8463
 20
11.6329
 30
0.0
 10
-1.8463
 20
11.6329
 30
0.0
 10
2.1566
 20
11.6415
 30
0.0
 10
2.1566
 20
11.6415
 30
0.0
 10
2.1566
 20
11.6415
 30
0.0
 10
2.1566
 20
11.6415
 30
0.0
 10
2.5798
 20
11.7662
 30
0.0
 10
2.5798
 20
11.7662
 30
0.0
 10
2.5798
 20
11.7662
 30
0.0
 10
2.5798
 20
11.7662
 30
0.0
 10
2.8535
 20
12.1154
 30
0.0
 10
2.8535
 20
12.1154
 30
0.0
 10
2.8535
 20
12.1154
 30
0.0
 10
2.8535
 20
12.1154
 30
0.0
 10
2.8535
 20
12.3897
 30
0.0
 10
2.8535
 20
12.3897
 30
0.0
 10
2.8535
 20
12.3897
 30
0.0
 10
2.8535
 20
12.3897
 30
0.0
 10
2.7291
 20
12.6391
 30
0.0
 10
2.7291
 20
12.6391
 30
0.0
 10
2.7291
 20
12.6391
 30
0.0
 10
2.7291
 20
12.6391
 30
0.0
 10
2.3309
 20
12.7887
 30
0.0
 10
2.3309
 20
12.7887
 30
0.0
 10
2.3309
 20
12.7887
 30
0.0
 10
2.3309
 20
12.7887
 30
0.0
 10
2.057
 20
12.8386
 30
0.0
 10
2.057
 20
12.8386
 30
0.0
 10
2.057
 20
12.8386
 30
0.0
 10
2.057
 20
12.8386
 30
0.0
 10
-1.8505
 20
12.8386
 30
0.0
 10
-1.8505
 20
12.8386
 30
0.0
 10
-1.8505
 20
12.8386
 30
0.0
 10
-1.8505
 20
12.8386
 30
0.0
 10
-1.8505
 20
15.7316
 30
0.0
 10
-1.8505
 20
15.7316
 30
0.0
  0
SPLINE
  5
FE
330
1F
100
AcDbEntity
  8
VRSTVA_1
 62
   250
100
AcDbSpline
210
0.0
220
0.0
230
1.0
 70
     8
 71
     3
 72
    36
 73
    32
 74
     0
 42
0.0000000001
 43
0.0000000001
 40
0.0
 40
0.0
 40
0.0
 40
0.0
 40
0.1111111111111111
 40
0.1111111111111111
 40
0.1111111111111111
 40
0.1111111111111111
 40
0.2222222222222222
 40
0.2222222222222222
 40
0.2222222222222222
 40
0.2222222222222222
 40
0.3333333333333333
 40
0.3333333333333333
 40
0.3333333333333333
 40
0.3333333333333333
 40
0.4444444444444444
 40
0.4444444444444444
 40
0.4444444444444444
 40
0.4444444444444444
 40
0.5555555555555556
 40
0.5555555555555556
 40
0.5555555555555556
 40
0.5555555555555556
 40
0.6666666666666666
 40
0.6666666666666666
 40
0.6666666666666666
 40
0.6666666666666666
 40
0.7777777777777778
 40
0.7777777777777778
 40
0.7777777777777778
 40
0.7777777777777778
 40
1.0
 40
1.0
 40
1.0
 40
1.0
 10
-1.864
 20
15.4822
 30
0.0
 10
-1.864
 20
15.4822
 30
0.0
 10
3.4488
 20
15.4776
 30
0.0
 10
3.9212
 20
15.4776
 30
0.0
 10
3.9212
 20
15.4776
 30
0.0
 10
4.3936
 20
15.4776
 30
0.0
 10
4.7768
 20
15.0938
 30
0.0
 10
4.7768
 20
14.6215
 30
0.0
 10
4.7768
 20
14.6215
 30
0.0
 10
4.7768
 20
14.1492
 30
0.0
 10
4.793
 20
-6.7595
 30
0.0
 10
4.793
 20
-6.7595
 30
0.0
 10
4.793
 20
-6.7595
 30
0.0
 10
4.793
 20
-6.7595
 30
0.0
 10
4.6703
 20
-7.0976
 30
0.0
 10
4.6703
 20
-7.0976
 30
0.0
 10
4.6703
 20
-7.0976
 30
0.0
 10
4.6703
 20
-7.0976
 30
0.0
 10
4.5155
 20
-7.3954
 30
0.0
 10
4.5155
 20
-7.3954
 30
0.0
 10
4.5155
 20
-7.3954
 30
0.0
 10
4.5155
 20
-7.3954
 30
0.0
 10
4.2654
 20
-7.574
 30
0.0
 10
4.2654
 20
-7.574
 30
0.0
 10
4.2654
 20
-7.574
 30
0.0
 10
4.2654
 20
-7.574
 30
0.0
 10
3.9915
 20
-7.6216
 30
0.0
 10
3.9915
 20
-7.6216
 30
0.0
 10
3.9915
 20
-7.6216
 30
0.0
 10
3.9915
 20
-7.6216
 30
0.0
 10
-1.8793
 20
-7.6097
 30
0.0
 10
-1.8793
 20
-7.6097
 30
0.0
  0
SPLINE
  5
FF
330
1F
100
AcDbEntity
  8
VRSTVA_1
 62
   250
100
AcDbSpline
210
0.0
220
0.0
230
1.0
 70
    11
 71
     3
 72
    20
 73
    16
 74
     0
 42
0.0000000001
 43
0.0000000001
 40
0.0
 40
0.0
 40
0.0
 40
0.0
 40
0.2
 40
0.2
 40
0.2
 40
0.2
 40
0.4
 40
0.4
 40
0.4
 40
0.4
 40
0.6
 40
0.6
 40
0.6
 40
0.6
 40
1.0
 40
1.0
 40
1.0
 40
1.0
 10
29.119
 20
-5.8455
 30
0.0
 10
29.119
 20
-5.8455
 30
0.0
 10
27.0064
 20
-8.1901
 30
0.0
 10
27.0064
 20
-8.1901
 30
0.0
 10
27.0064
 20
-8.1901
 30
0.0
 10
27.0064
 20
-8.1901
 30
0.0
 10
27.0693
 20
-8.2652
 30
0.0
 10
27.0693
 20
-8.2652
 30
0.0
 10
27.0693
 20
-8.2652
 30
0.0
 10
27.0693
 20
-8.2652
 30
0.0
 10
29.7671
 20
-6.6193
 30
0.0
 10
29.7671
 20
-6.6193
 30
0.0
 10
29.7671
 20
-6.6193
 30
0.0
 10
29.7671
 20
-6.6193
 30
0.0
 10
29.119
 20
-5.8455
 30
0.0
 10
29.119
 20
-5.8455
 30
0.0
  0
SPLINE
  5
100
330
1F
100
AcDbEntity
  8
VRSTVA_1
 62
   250
100
AcDbSpline
210
0.0
220
0.0
230
1.0
 70
    11
 71
     3
 72
    20
 73
    16
 74
     0
 42
0.0000000001
 43
0.0000000001
 40
0.0
 40
0.0
 40
0.0
 40
0.0
 40
0.2
 40
0.2
 40
0.2
 40
0.2
 40
0.4
 40
0.4
 40
0.4
 40
0.4
 40
0.6
 40
0.6
 40
0.6
 40
0.6
 40
1.0
 40
1.0
 40
1.0
 40
1.0
 10
32.3179
 20
0.6463
 30
0.0
 10
32.3179
 20
0.6463
 30
0.0
 10
32.1538
 20
3.798
 30
0.0
 10
32.1538
 20
3.798
 30
0.0
 10
32.1538
 20
3.798
 30
0.0
 10
32.1538
 20
3.798
 30
0.0
 10
32.0562
 20
3.8067
 30
0.0
 10
32.0562
 20
3.8067
 30
0.0
 10
32.0562
 20
3.8067
 30
0.0
 10
32.0562
 20
3.8067
 30
0.0
 10
31.3124
 20
0.7352
 30
0.0
 10
31.3124
 20
0.7352
 30
0.0
 10
31.3124
 20
0.7352
 30
0.0
 10
31.3124
 20
0.7352
 30
0.0
 10
32.3179
 20
0.6463
 30
0.0
 10
32.3179
 20
0.6463
 30
0.0
  0
SPLINE
  5
101
330
1F
100
AcDbEntity
  8
VRSTVA_1
 62
   250
100
AcDbSpline
210
0.0
220
0.0
230
1.0
 70
    11
 71
     3
 72
    48
 73
    44
 74
     0
 42
0.0000000001
 43
0.0000000001
 40
0.0
 40
0.0
 40
0.0
 40
0.0
 40
0.0833333333333333
 40
0.0833333333333333
 40
0.0833333333333333
 40
0.0833333333333333
 40
0.1666666666666667
 40
0.1666666666666667
 40
0.1666666666666667
 40
0.1666666666666667
 40
0.25
 40
0.25
 40
0.25
 40
0.25
 40
0.3333333333333333
 40
0.3333333333333333
 40
0.3333333333333333
 40
0.3333333333333333
 40
0.4166666666666667
 40
0.4166666666666667
 40
0.4166666666666667
 40
0.4166666666666667
 40
0.5
 40
0.5
 40
0.5
 40
0.5
 40
0.5833333333333334
 40
0.5833333333333334
 40
0.5833333333333334
 40
0.5833333333333334
 40
0.6666666666666666
 40
0.6666666666666666
 40
0.6666666666666666
 40
0.6666666666666666
 40
0.75
 40
0.75
 40
0.75
 40
0.75
 40
0.8333333333333334
 40
0.8333333333333334
 40
0.8333333333333334
 40
0.8333333333333334
 40
1.0
 40
1.0
 40
1.0
 40
1.0
 10
30.1532
 20
-3.7639
 30
0.0
 10
30.1532
 20
-3.7639
 30
0.0
 10
29.7769
 20
-3.4601
 30
0.0
 10
29.7769
 20
-3.4601
 30
0.0
 10
29.7769
 20
-3.4601
 30
0.0
 10
29.7769
 20
-3.4601
 30
0.0
 10
29.2264
 20
-4.1419
 30
0.0
 10
29.2264
 20
-4.1419
 30
0.0
 10
29.2264
 20
-4.1419
 30
0.0
 10
29.2264
 20
-4.1419
 30
0.0
 10
29.0493
 20
-3.9989
 30
0.0
 10
29.0493
 20
-3.9989
 30
0.0
 10
29.0493
 20
-3.9989
 30
0.0
 10
29.0493
 20
-3.9989
 30
0.0
 10
28.61
 20
-2.4592
 30
0.0
 10
28.61
 20
-2.4592
 30
0.0
 10
28.61
 20
-2.4592
 30
0.0
 10
28.61
 20
-2.4592
 30
0.0
 10
28.7373
 20
-2.3015
 30
0.0
 10
28.7373
 20
-2.3015
 30
0.0
 10
28.7373
 20
-2.3015
 30
0.0
 10
28.7373
 20
-2.3015
 30
0.0
 10
29.7558
 20
-3.1239
 30
0.0
 10
29.7558
 20
-3.1239
 30
0.0
 10
29.7558
 20
-3.1239
 30
0.0
 10
29.7558
 20
-3.1239
 30
0.0
 10
29.9272
 20
-2.9116
 30
0.0
 10
29.9272
 20
-2.9116
 30
0.0
 10
29.9272
 20
-2.9116
 30
0.0
 10
29.9272
 20
-2.9116
 30
0.0
 10
30.1043
 20
-3.0546
 30
0.0
 10
30.1043
 20
-3.0546
 30
0.0
 10
30.1043
 20
-3.0546
 30
0.0
 10
30.1043
 20
-3.0546
 30
0.0
 10
29.9329
 20
-3.2669
 30
0.0
 10
29.9329
 20
-3.2669
 30
0.0
 10
29.9329
 20
-3.2669
 30
0.0
 10
29.9329
 20
-3.2669
 30
0.0
 10
30.3092
 20
-3.5706
 30
0.0
 10
30.3092
 20
-3.5706
 30
0.0
 10
30.3092
 20
-3.5706
 30
0.0
 10
30.3092
 20
-3.5706
 30
0.0
 10
30.1532
 20
-3.7639
 30
0.0
 10
30.1532
 20
-3.7639
 30
0.0
  0
SPLINE
  5
102
330
1F
100
AcDbEntity
  8
VRSTVA_1
 62
   250
100
AcDbSpline
210
0.0
220
0.0
230
1.0
 70
    11
 71
     3
 72
    16
 73
    12
 74
     0
 42
0.0000000001
 43
0.0000000001
 40
0.0
 40
0.0
 40
0.0
 40
0.0
 40
0.25
 40
0.25
 40
0.25
 40
0.25
 40
0.5
 40
0.5
 40
0.5
 40
0.5
 40
1.0
 40
1.0
 40
1.0
 40
1.0
 10
29.5998
 20
-3.3171
 30
0.0
 10
29.5998
 20
-3.3171
 30
0.0
 10
28.8913
 20
-2.745
 30
0.0
 10
28.8913
 20
-2.745
 30
0.0
 10
28.8913
 20
-2.745
 30
0.0
 10
28.8913
 20
-2.745
 30
0.0
 10
29.2027
 20
-3.8089
 30
0.0
 10
29.2027
 20
-3.8089
 30
0.0
 10
29.2027
 20
-3.8089
 30
0.0
 10
29.2027
 20
-3.8089
 30
0.0
 10
29.5998
 20
-3.3171
 30
0.0
 10
29.5998
 20
-3.3171
 30
0.0
  0
SPLINE
  5
103
330
1F
100
AcDbEntity
  8
VRSTVA_1
 62
   250
100
AcDbSpline
210
0.0
220
0.0
230
1.0
 70
    11
 71
     3
 72
    92
 73
    88
 74
     0
 42
0.0000000001
 43
0.0000000001
 40
0.0
 40
0.0
 40
0.0
 40
0.0
 40
0.0434782608695652
 40
0.0434782608695652
 40
0.0434782608695652
 40
0.0434782608695652
 40
0.0869565217391304
 40
0.0869565217391304
 40
0.0869565217391304
 40
0.0869565217391304
 40
0.1304347826086956
 40
0.1304347826086956
 40
0.1304347826086956
 40
0.1304347826086956
 40
0.1739130434782609
 40
0.1739130434782609
 40
0.1739130434782609
 40
0.1739130434782609
 40
0.2173913043478261
 40
0.2173913043478261
 40
0.2173913043478261
 40
0.2173913043478261
 40
0.2608695652173913
 40
0.2608695652173913
 40
0.2608695652173913
 40
0.2608695652173913
 40
0.3043478260869565
 40
0.3043478260869565
 40
0.3043478260869565
 40
0.3043478260869565
 40
0.3478260869565217
 40
0.3478260869565217
 40
0.3478260869565217
 40
0.3478260869565217
 40
0.391304347826087
 40
0.391304347826087
 40
0.391304347826087
 40
0.391304347826087
 40
0.4347826086956522
 40
0.4347826086956522
 40
0.4347826086956522
 40
0.4347826086956522
 40
0.4782608695652174
 40
0.4782608695652174
 40
0.4782608695652174
 40
0.4782608695652174
 40
0.5217391304347826
 40
0.5217391304347826
 40
0.5217391304347826
 40
0.5217391304347826
 40
0.5652173913043478
 40
0.5652173913043478
 40
0.5652173913043478
 40
0.5652173913043478
 40
0.6086956521739131
 40
0.6086956521739131
 40
0.6086956521739131
 40
0.6086956521739131
 40
0.6521739130434783
 40
0.6521739130434783
 40
0.6521739130434783
 40
0.6521739130434783
 40
0.6956521739130435
 40
0.6956521739130435
 40
0.6956521739130435
 40
0.6956521739130435
 40
0.7391304347826086
 40
0.7391304347826086
 40
0.7391304347826086
 40
0.7391304347826086
 40
0.782608695652174
 40
0.782608695652174
 40
0.782608695652174
 40
0.782608695652174
 40
0.8260869565217391
 40
0.8260869565217391
 40
0.8260869565217391
 40
0.8260869565217391
 40
0.8695652173913043
 40
0.8695652173913043
 40
0.8695652173913043
 40
0.8695652173913043
 40
0.9130434782608695
 40
0.9130434782608695
 40
0.9130434782608695
 40
0.9130434782608695
 40
1.0
 40
1.0
 40
1.0
 40
1.0
 10
30.2281
 20
-2.8287
 30
0.0
 10
30.2281
 20
-2.8287
 30
0.0
 10
30.3746
 20
-2.612
 30
0.0
 10
30.3746
 20
-2.612
 30
0.0
 10
30.3746
 20
-2.612
 30
0.0
 10
30.4856
 20
-2.6768
 30
0.0
 10
30.5876
 20
-2.7018
 30
0.0
 10
30.6814
 20
-2.6874
 30
0.0
 10
30.6814
 20
-2.6874
 30
0.0
 10
30.7755
 20
-2.6727
 30
0.0
 10
30.8535
 20
-2.6269
 30
0.0
 10
30.9159
 20
-2.5497
 30
0.0
 10
30.9159
 20
-2.5497
 30
0.0
 10
30.9909
 20
-2.4567
 30
0.0
 10
31.0193
 20
-2.3497
 30
0.0
 10
31.0011
 20
-2.2292
 30
0.0
 10
31.0011
 20
-2.2292
 30
0.0
 10
30.9829
 20
-2.1081
 30
0.0
 10
30.9159
 20
-2.0008
 30
0.0
 10
30.8003
 20
-1.9074
 30
0.0
 10
30.8003
 20
-1.9074
 30
0.0
 10
30.6901
 20
-1.8185
 30
0.0
 10
30.5786
 20
-1.7792
 30
0.0
 10
30.465
 20
-1.7896
 30
0.0
 10
30.465
 20
-1.7896
 30
0.0
 10
30.3513
 20
-1.8
 30
0.0
 10
30.2542
 20
-1.8552
 30
0.0
 10
30.1732
 20
-1.9555
 30
0.0
 10
30.1732
 20
-1.9555
 30
0.0
 10
30.123
 20
-2.0177
 30
0.0
 10
30.0921
 20
-2.0852
 30
0.0
 10
30.0797
 20
-2.1581
 30
0.0
 10
30.0797
 20
-2.1581
 30
0.0
 10
30.0674
 20
-2.231
 30
0.0
 10
30.0724
 20
-2.2997
 30
0.0
 10
30.0944
 20
-2.3646
 30
0.0
 10
30.0944
 20
-2.3646
 30
0.0
 10
30.0944
 20
-2.3646
 30
0.0
 10
29.9247
 20
-2.5269
 30
0.0
 10
29.9247
 20
-2.5269
 30
0.0
 10
29.9247
 20
-2.5269
 30
0.0
 10
29.9247
 20
-2.5269
 30
0.0
 10
29.2403
 20
-1.7227
 30
0.0
 10
29.2403
 20
-1.7227
 30
0.0
 10
29.2403
 20
-1.7227
 30
0.0
 10
29.2403
 20
-1.7227
 30
0.0
 10
29.8715
 20
-0.941
 30
0.0
 10
29.8715
 20
-0.941
 30
0.0
 10
29.8715
 20
-0.941
 30
0.0
 10
29.8715
 20
-0.941
 30
0.0
 10
30.0559
 20
-1.09
 30
0.0
 10
30.0559
 20
-1.09
 30
0.0
 10
30.0559
 20
-1.09
 30
0.0
 10
30.0559
 20
-1.09
 30
0.0
 10
29.5494
 20
-1.7172
 30
0.0
 10
29.5494
 20
-1.7172
 30
0.0
 10
29.5494
 20
-1.7172
 30
0.0
 10
29.5494
 20
-1.7172
 30
0.0
 10
29.9032
 20
-2.1431
 30
0.0
 10
29.9032
 20
-2.1431
 30
0.0
 10
29.9032
 20
-2.1431
 30
0.0
 10
29.9136
 20
-1.9955
 30
0.0
 10
29.9607
 20
-1.8698
 30
0.0
 10
30.0444
 20
-1.7662
 30
0.0
 10
30.0444
 20
-1.7662
 30
0.0
 10
30.1552
 20
-1.6289
 30
0.0
 10
30.2961
 20
-1.5517
 30
0.0
 10
30.4675
 20
-1.5341
 30
0.0
 10
30.4675
 20
-1.5341
 30
0.0
 10
30.6389
 20
-1.5165
 30
0.0
 10
30.7993
 20
-1.568
 30
0.0
 10
30.9486
 20
-1.6886
 30
0.0
 10
30.9486
 20
-1.6886
 30
0.0
 10
31.0909
 20
-1.8035
 30
0.0
 10
31.1802
 20
-1.9445
 30
0.0
 10
31.217
 20
-2.1109
 30
0.0
 10
31.217
 20
-2.1109
 30
0.0
 10
31.2624
 20
-2.3144
 30
0.0
 10
31.215
 20
-2.5035
 30
0.0
 10
31.0743
 20
-2.6776
 30
0.0
 10
31.0743
 20
-2.6776
 30
0.0
 10
30.9588
 20
-2.8207
 30
0.0
 10
30.8247
 20
-2.9053
 30
0.0
 10
30.6715
 20
-2.931
 30
0.0
 10
30.6715
 20
-2.931
 30
0.0
 10
30.5184
 20
-2.9566
 30
0.0
 10
30.3706
 20
-2.9225
 30
0.0
 10
30.2281
 20
-2.8287
 30
0.0
  0
SPLINE
  5
104
330
1F
100
AcDbEntity
  8
VRSTVA_1
 62
   250
100
AcDbSpline
210
0.0
220
0.0
230
1.0
 70
    11
 71
     3
 72
    36
 73
    32
 74
     0
 42
0.0000000001
 43
0.0000000001
 40
0.0
 40
0.0
 40
0.0
 40
0.0
 40
0.1111111111111111
 40
0.1111111111111111
 40
0.1111111111111111
 40
0.1111111111111111
 40
0.2222222222222222
 40
0.2222222222222222
 40
0.2222222222222222
 40
0.2222222222222222
 40
0.3333333333333333
 40
0.3333333333333333
 40
0.3333333333333333
 40
0.3333333333333333
 40
0.4444444444444444
 40
0.4444444444444444
 40
0.4444444444444444
 40
0.4444444444444444
 40
0.5555555555555556
 40
0.5555555555555556
 40
0.5555555555555556
 40
0.5555555555555556
 40
0.6666666666666666
 40
0.6666666666666666
 40
0.6666666666666666
 40
0.6666666666666666
 40
0.7777777777777778
 40
0.7777777777777778
 40
0.7777777777777778
 40
0.7777777777777778
 40
1.0
 40
1.0
 40
1.0
 40
1.0
 10
30.3614
 20
-0.8427
 30
0.0
 10
30.2794
 20
-0.7765
 30
0.0
 10
30.2328
 20
-0.6905
 30
0.0
 10
30.222
 20
-0.5856
 30
0.0
 10
30.222
 20
-0.5856
 30
0.0
 10
30.2111
 20
-0.4807
 30
0.0
 10
30.2386
 20
-0.3875
 30
0.0
 10
30.3045
 20
-0.3059
 30
0.0
 10
30.3045
 20
-0.3059
 30
0.0
 10
30.3713
 20
-0.2231
 30
0.0
 10
30.457
 20
-0.1762
 30
0.0
 10
30.5618
 20
-0.1647
 30
0.0
 10
30.5618
 20
-0.1647
 30
0.0
 10
30.6663
 20
-0.1536
 30
0.0
 10
30.7599
 20
-0.1814
 30
0.0
 10
30.8419
 20
-0.2476
 30
0.0
 10
30.8419
 20
-0.2476
 30
0.0
 10
30.9242
 20
-0.3141
 30
0.0
 10
30.9708
 20
-0.4001
 30
0.0
 10
30.9821
 20
-0.5053
 30
0.0
 10
30.9821
 20
-0.5053
 30
0.0
 10
30.9933
 20
-0.6105
 30
0.0
 10
30.9658
 20
-0.7044
 30
0.0
 10
30.8996
 20
-0.7863
 30
0.0
 10
30.8996
 20
-0.7863
 30
0.0
 10
30.8337
 20
-0.8679
 30
0.0
 10
30.7484
 20
-0.9145
 30
0.0
 10
30.6436
 20
-0.926
 30
0.0
 10
30.6436
 20
-0.926
 30
0.0
 10
30.5384
 20
-0.9372
 30
0.0
 10
30.4445
 20
-0.9098
 30
0.0
 10
30.3614
 20
-0.8427
 30
0.0
  0
SPLINE
  5
105
330
1F
100
AcDbEntity
  8
VRSTVA_1
 62
   250
100
AcDbSpline
210
0.0
220
0.0
230
1.0
 70
    11
 71
     3
 72
    36
 73
    32
 74
     0
 42
0.0000000001
 43
0.0000000001
 40
0.0
 40
0.0
 40
0.0
 40
0.0
 40
0.1111111111111111
 40
0.1111111111111111
 40
0.1111111111111111
 40
0.1111111111111111
 40
0.2222222222222222
 40
0.2222222222222222
 40
0.2222222222222222
 40
0.2222222222222222
 40
0.3333333333333333
 40
0.3333333333333333
 40
0.3333333333333333
 40
0.3333333333333333
 40
0.4444444444444444
 40
0.4444444444444444
 40
0.4444444444444444
 40
0.4444444444444444
 40
0.5555555555555556
 40
0.5555555555555556
 40
0.5555555555555556
 40
0.5555555555555556
 40
0.6666666666666666
 40
0.6666666666666666
 40
0.6666666666666666
 40
0.6666666666666666
 40
0.7777777777777778
 40
0.7777777777777778
 40
0.7777777777777778
 40
0.7777777777777778
 40
1.0
 40
1.0
 40
1.0
 40
1.0
 10
30.4557
 20
-0.7259
 30
0.0
 10
30.5058
 20
-0.7664
 30
0.0
 10
30.5631
 20
-0.7831
 30
0.0
 10
30.6266
 20
-0.7763
 30
0.0
 10
30.6266
 20
-0.7763
 30
0.0
 10
30.6908
 20
-0.7694
 30
0.0
 10
30.7429
 20
-0.7408
 30
0.0
 10
30.7831
 20
-0.691
 30
0.0
 10
30.7831
 20
-0.691
 30
0.0
 10
30.823
 20
-0.6416
 30
0.0
 10
30.8397
 20
-0.585
 30
0.0
 10
30.8329
 20
-0.5208
 30
0.0
 10
30.8329
 20
-0.5208
 30
0.0
 10
30.8261
 20
-0.4573
 30
0.0
 10
30.7977
 20
-0.4048
 30
0.0
 10
30.7476
 20
-0.3644
 30
0.0
 10
30.7476
 20
-0.3644
 30
0.0
 10
30.6978
 20
-0.3242
 30
0.0
 10
30.6405
 20
-0.3075
 30
0.0
 10
30.5767
 20
-0.314
 30
0.0
 10
30.5767
 20
-0.314
 30
0.0
 10
30.5129
 20
-0.3211
 30
0.0
 10
30.4607
 20
-0.3491
 30
0.0
 10
30.4208
 20
-0.3985
 30
0.0
 10
30.4208
 20
-0.3985
 30
0.0
 10
30.3806
 20
-0.4483
 30
0.0
 10
30.3639
 20
-0.5056
 30
0.0
 10
30.3704
 20
-0.5694
 30
0.0
 10
30.3704
 20
-0.5694
 30
0.0
 10
30.3776
 20
-0.6332
 30
0.0
 10
30.4059
 20
-0.6857
 30
0.0
 10
30.4557
 20
-0.7259
 30
0.0
  0
SPLINE
  5
106
330
1F
100
AcDbEntity
  8
VRSTVA_1
 62
   250
100
AcDbSpline
210
0.0
220
0.0
230
1.0
 70
     8
 71
     3
 72
    20
 73
    16
 74
     0
 42
0.0000000001
 43
0.0000000001
 40
0.0
 40
0.0
 40
0.0
 40
0.0
 40
0.2
 40
0.2
 40
0.2
 40
0.2
 40
0.4
 40
0.4
 40
0.4
 40
0.4
 40
0.6
 40
0.6
 40
0.6
 40
0.6
 40
1.0
 40
1.0
 40
1.0
 40
1.0
 10
27.2592
 20
-8.0628
 30
0.0
 10
27.2592
 20
-8.0628
 30
0.0
 10
29.2309
 20
-6.4086
 30
0.0
 10
29.2309
 20
-6.4086
 30
0.0
 10
29.2309
 20
-6.4086
 30
0.0
 10
29.2309
 20
-6.4086
 30
0.0
 10
29.6524
 20
-5.9472
 30
0.0
 10
29.6524
 20
-5.9472
 30
0.0
 10
29.6524
 20
-5.9472
 30
0.0
 10
29.6524
 20
-5.9472
 30
0.0
 10
29.9569
 20
-5.4614
 30
0.0
 10
29.9569
 20
-5.4614
 30
0.0
 10
29.9569
 20
-5.4614
 30
0.0
 10
29.9569
 20
-5.4614
 30
0.0
 10
30.1839
 20
-4.9121
 30
0.0
 10
30.1839
 20
-4.9121
 30
0.0
  0
SPLINE
  5
107
330
1F
100
AcDbEntity
  8
VRSTVA_1
 62
   250
100
AcDbSpline
210
0.0
220
0.0
230
1.0
 70
    24
 71
     3
 72
     8
 73
     4
 74
     0
 42
0.0000000001
 43
0.0000000001
 40
0.0
 40
0.0
 40
0.0
 40
0.0
 40
1.0
 40
1.0
 40
1.0
 40
1.0
 10
31.992
 20
2.3687
 30
0.0
 10
31.992
 20
2.3687
 30
0.0
 10
31.5938
 20
-0.3025
 30
0.0
 10
31.5938
 20
-0.3025
 30
0.0
  0
SPLINE
  5
108
330
1F
100
AcDbEntity
  8
VRSTVA_1
  6
NEW_LINE3
 62
   250
100
AcDbSpline
210
0.0
220
0.0
230
1.0
 70
    24
 71
     3
 72
     8
 73
     4
 74
     0
 42
0.0000000001
 43
0.0000000001
 40
0.0
 40
0.0
 40
0.0
 40
0.0
 40
1.0
 40
1.0
 40
1.0
 40
1.0
 10
52.3974
 20
-33.8366
 30
0.0
 10
52.3974
 20
-33.8366
 30
0.0
 10
13.6153
 20
4.9454
 30
0.0
 10
13.6153
 20
4.9454
 30
0.0
  0
SPLINE
  5
10A
330
1F
100
AcDbEntity
  8
VRSTVA_1
 62
   250
100
AcDbSpline
210
0.0
220
0.0
230
1.0
 70
    24
 71
     3
 72
     8
 73
     4
 74
     0
 42
0.0000000001
 43
0.0000000001
 40
0.0
 40
0.0
 40
0.0
 40
0.0
 40
1.0
 40
1.0
 40
1.0
 40
1.0
 10
8.9904
 20
11.8815
 30
0.0
 10
8.9904
 20
11.8815
 30
0.0
 10
8.9904
 20
-5.1056
 30
0.0
 10
8.9904
 20
-5.1056
 30
0.0
  0
SPLINE
  5
10B
330
1F
100
AcDbEntity
  8
VRSTVA_1
 62
   250
100
AcDbSpline
210
0.0
220
0.0
230
1.0
 70
    24
 71
     3
 72
     8
 73
     4
 74
     0
 42
0.0000000001
 43
0.0000000001
 40
0.0
 40
0.0
 40
0.0
 40
0.0
 40
1.0
 40
1.0
 40
1.0
 40
1.0
 10
49.3197
 20
-15.5648
 30
0.0
 10
49.3197
 20
-15.5648
 30
0.0
 10
34.1246
 20
-30.7599
 30
0.0
 10
34.1246
 20
-30.7599
 30
0.0
  0
SPLINE
  5
10C
330
1F
100
AcDbEntity
  8
VRSTVA_1
 62
   250
100
AcDbSpline
210
0.0
220
0.0
230
1.0
 70
    11
 71
     3
 72
    84
 73
    80
 74
     0
 42
0.0000000001
 43
0.0000000001
 40
0.0
 40
0.0
 40
0.0
 40
0.0
 40
0.0476190476190476
 40
0.0476190476190476
 40
0.0476190476190476
 40
0.0476190476190476
 40
0.0952380952380952
 40
0.0952380952380952
 40
0.0952380952380952
 40
0.0952380952380952
 40
0.1428571428571428
 40
0.1428571428571428
 40
0.1428571428571428
 40
0.1428571428571428
 40
0.1904761904761905
 40
0.1904761904761905
 40
0.1904761904761905
 40
0.1904761904761905
 40
0.2380952380952381
 40
0.2380952380952381
 40
0.2380952380952381
 40
0.2380952380952381
 40
0.2857142857142857
 40
0.2857142857142857
 40
0.2857142857142857
 40
0.2857142857142857
 40
0.3333333333333333
 40
0.3333333333333333
 40
0.3333333333333333
 40
0.3333333333333333
 40
0.3809523809523809
 40
0.3809523809523809
 40
0.3809523809523809
 40
0.3809523809523809
 40
0.4285714285714285
 40
0.4285714285714285
 40
0.4285714285714285
 40
0.4285714285714285
 40
0.4761904761904762
 40
0.4761904761904762
 40
0.4761904761904762
 40
0.4761904761904762
 40
0.5238095238095238
 40
0.5238095238095238
 40
0.5238095238095238
 40
0.5238095238095238
 40
0.5714285714285714
 40
0.5714285714285714
 40
0.5714285714285714
 40
0.5714285714285714
 40
0.6190476190476191
 40
0.6190476190476191
 40
0.6190476190476191
 40
0.6190476190476191
 40
0.6666666666666666
 40
0.6666666666666666
 40
0.6666666666666666
 40
0.6666666666666666
 40
0.7142857142857143
 40
0.7142857142857143
 40
0.7142857142857143
 40
0.7142857142857143
 40
0.7619047619047619
 40
0.7619047619047619
 40
0.7619047619047619
 40
0.7619047619047619
 40
0.8095238095238095
 40
0.8095238095238095
 40
0.8095238095238095
 40
0.8095238095238095
 40
0.8571428571428571
 40
0.8571428571428571
 40
0.8571428571428571
 40
0.8571428571428571
 40
0.9047619047619048
 40
0.9047619047619048
 40
0.9047619047619048
 40
0.9047619047619048
 40
1.0
 40
1.0
 40
1.0
 40
1.0
 10
6.668
 20
3.379
 30
0.0
 10
6.668
 20
3.379
 30
0.0
 10
6.4089
 20
3.6104
 30
0.0
 10
6.4089
 20
3.6104
 30
0.0
 10
6.4089
 20
3.6104
 30
0.0
 10
6.4089
 20
3.6104
 30
0.0
 10
6.5246
 20
3.7468
 30
0.0
 10
6.5246
 20
3.7468
 30
0.0
 10
6.5246
 20
3.7468
 30
0.0
 10
6.5246
 20
3.7468
 30
0.0
 10
6.7974
 20
3.5046
 30
0.0
 10
6.7974
 20
3.5046
 30
0.0
 10
6.7974
 20
3.5046
 30
0.0
 10
6.915
 20
3.5836
 30
0.0
 10
7.018
 20
3.6367
 30
0.0
 10
7.1059
 20
3.6645
 30
0.0
 10
7.1059
 20
3.6645
 30
0.0
 10
7.2217
 20
3.7012
 30
0.0
 10
7.3515
 20
3.7195
 30
0.0
 10
7.4945
 20
3.7195
 30
0.0
 10
7.4945
 20
3.7195
 30
0.0
 10
7.7014
 20
3.7195
 30
0.0
 10
7.8858
 20
3.6777
 30
0.0
 10
8.0471
 20
3.5939
 30
0.0
 10
8.0471
 20
3.5939
 30
0.0
 10
8.209
 20
3.5102
 30
0.0
 10
8.3312
 20
3.3931
 30
0.0
 10
8.414
 20
3.2421
 30
0.0
 10
8.414
 20
3.2421
 30
0.0
 10
8.4963
 20
3.0906
 30
0.0
 10
8.5377
 20
2.9303
 30
0.0
 10
8.5377
 20
2.7605
 30
0.0
 10
8.5377
 20
2.7605
 30
0.0
 10
8.5377
 20
2.6335
 30
0.0
 10
8.5199
 20
2.5187
 30
0.0
 10
8.4841
 20
2.4157
 30
0.0
 10
8.4841
 20
2.4157
 30
0.0
 10
8.4564
 20
2.3367
 30
0.0
 10
8.4037
 20
2.2445
 30
0.0
 10
8.3256
 20
2.1386
 30
0.0
 10
8.3256
 20
2.1386
 30
0.0
 10
8.3256
 20
2.1386
 30
0.0
 10
8.5848
 20
1.9072
 30
0.0
 10
8.5848
 20
1.9072
 30
0.0
 10
8.5848
 20
1.9072
 30
0.0
 10
8.5848
 20
1.9072
 30
0.0
 10
8.4691
 20
1.7708
 30
0.0
 10
8.4691
 20
1.7708
 30
0.0
 10
8.4691
 20
1.7708
 30
0.0
 10
8.4691
 20
1.7708
 30
0.0
 10
8.1977
 20
2.0135
 30
0.0
 10
8.1977
 20
2.0135
 30
0.0
 10
8.1977
 20
2.0135
 30
0.0
 10
8.0608
 20
1.9232
 30
0.0
 10
7.9437
 20
1.863
 30
0.0
 10
7.8468
 20
1.8329
 30
0.0
 10
7.8468
 20
1.8329
 30
0.0
 10
7.7499
 20
1.8028
 30
0.0
 10
7.6332
 20
1.7873
 30
0.0
 10
7.4973
 20
1.7873
 30
0.0
 10
7.4973
 20
1.7873
 30
0.0
 10
7.2899
 20
1.7873
 30
0.0
 10
7.105
 20
1.8287
 30
0.0
 10
6.9427
 20
1.9114
 30
0.0
 10
6.9427
 20
1.9114
 30
0.0
 10
6.7804
 20
1.9942
 30
0.0
 10
6.6577
 20
2.1099
 30
0.0
 10
6.574
 20
2.2595
 30
0.0
 10
6.574
 20
2.2595
 30
0.0
 10
6.4907
 20
2.4086
 30
0.0
 10
6.4488
 20
2.5747
 30
0.0
 10
6.4488
 20
2.7576
 30
0.0
 10
6.4488
 20
2.7576
 30
0.0
 10
6.4488
 20
2.8809
 30
0.0
 10
6.4648
 20
2.9886
 30
0.0
 10
6.4978
 20
3.0808
 30
0.0
 10
6.4978
 20
3.0808
 30
0.0
 10
6.5302
 20
3.173
 30
0.0
 10
6.5871
 20
3.2727
 30
0.0
 10
6.668
 20
3.379
 30
0.0
  0
SPLINE
  5
10D
330
1F
100
AcDbEntity
  8
VRSTVA_1
 62
   250
100
AcDbSpline
210
0.0
220
0.0
230
1.0
 70
    11
 71
     3
 72
    32
 73
    28
 74
     0
 42
0.0000000001
 43
0.0000000001
 40
0.0
 40
0.0
 40
0.0
 40
0.0
 40
0.125
 40
0.125
 40
0.125
 40
0.125
 40
0.25
 40
0.25
 40
0.25
 40
0.25
 40
0.375
 40
0.375
 40
0.375
 40
0.375
 40
0.5
 40
0.5
 40
0.5
 40
0.5
 40
0.625
 40
0.625
 40
0.625
 40
0.625
 40
0.75
 40
0.75
 40
0.75
 40
0.75
 40
1.0
 40
1.0
 40
1.0
 40
1.0
 10
6.8538
 20
3.2139
 30
0.0
 10
6.7861
 20
3.1273
 30
0.0
 10
6.7395
 20
3.0516
 30
0.0
 10
6.7146
 20
2.9872
 30
0.0
 10
6.7146
 20
2.9872
 30
0.0
 10
6.6901
 20
2.9223
 30
0.0
 10
6.6774
 20
2.8461
 30
0.0
 10
6.6774
 20
2.759
 30
0.0
 10
6.6774
 20
2.759
 30
0.0
 10
6.6774
 20
2.5577
 30
0.0
 10
6.7456
 20
2.3917
 30
0.0
 10
6.882
 20
2.26
 30
0.0
 10
6.882
 20
2.26
 30
0.0
 10
7.0185
 20
2.1287
 30
0.0
 10
7.2221
 20
2.0629
 30
0.0
 10
7.4935
 20
2.0629
 30
0.0
 10
7.4935
 20
2.0629
 30
0.0
 10
7.5998
 20
2.0629
 30
0.0
 10
7.6944
 20
2.0732
 30
0.0
 10
7.7772
 20
2.0935
 30
0.0
 10
7.7772
 20
2.0935
 30
0.0
 10
7.8388
 20
2.1081
 30
0.0
 10
7.9145
 20
2.1386
 30
0.0
 10
8.0043
 20
2.1857
 30
0.0
 10
8.0043
 20
2.1857
 30
0.0
 10
8.0043
 20
2.1857
 30
0.0
 10
6.8538
 20
3.2139
 30
0.0
 10
6.8538
 20
3.2139
 30
0.0
  0
SPLINE
  5
10E
330
1F
100
AcDbEntity
  8
VRSTVA_1
 62
   250
100
AcDbSpline
210
0.0
220
0.0
230
1.0
 70
    11
 71
     3
 72
    28
 73
    24
 74
     0
 42
0.0000000001
 43
0.0000000001
 40
0.0
 40
0.0
 40
0.0
 40
0.0
 40
0.1428571428571428
 40
0.1428571428571428
 40
0.1428571428571428
 40
0.1428571428571428
 40
0.2857142857142857
 40
0.2857142857142857
 40
0.2857142857142857
 40
0.2857142857142857
 40
0.4285714285714285
 40
0.4285714285714285
 40
0.4285714285714285
 40
0.4285714285714285
 40
0.5714285714285714
 40
0.5714285714285714
 40
0.5714285714285714
 40
0.5714285714285714
 40
0.7142857142857143
 40
0.7142857142857143
 40
0.7142857142857143
 40
0.7142857142857143
 40
1.0
 40
1.0
 40
1.0
 40
1.0
 10
6.9959
 20
3.3268
 30
0.0
 10
6.9959
 20
3.3268
 30
0.0
 10
8.1422
 20
2.3028
 30
0.0
 10
8.1422
 20
2.3028
 30
0.0
 10
8.1422
 20
2.3028
 30
0.0
 10
8.2
 20
2.3733
 30
0.0
 10
8.2405
 20
2.4387
 30
0.0
 10
8.2635
 20
2.4985
 30
0.0
 10
8.2635
 20
2.4985
 30
0.0
 10
8.2941
 20
2.5765
 30
0.0
 10
8.3091
 20
2.6612
 30
0.0
 10
8.3091
 20
2.752
 30
0.0
 10
8.3091
 20
2.752
 30
0.0
 10
8.3091
 20
2.9524
 30
0.0
 10
8.2386
 20
3.1175
 30
0.0
 10
8.097
 20
3.2482
 30
0.0
 10
8.097
 20
3.2482
 30
0.0
 10
7.9554
 20
3.3785
 30
0.0
 10
7.7569
 20
3.4439
 30
0.0
 10
7.5015
 20
3.4439
 30
0.0
 10
7.5015
 20
3.4439
 30
0.0
 10
7.3106
 20
3.4439
 30
0.0
 10
7.1417
 20
3.4049
 30
0.0
 10
6.9959
 20
3.3268
 30
0.0
  0
SPLINE
  5
10F
330
1F
100
AcDbEntity
  8
VRSTVA_1
 62
   250
100
AcDbSpline
210
0.0
220
0.0
230
1.0
 70
    11
 71
     3
 72
    48
 73
    44
 74
     0
 42
0.0000000001
 43
0.0000000001
 40
0.0
 40
0.0
 40
0.0
 40
0.0
 40
0.0833333333333333
 40
0.0833333333333333
 40
0.0833333333333333
 40
0.0833333333333333
 40
0.1666666666666667
 40
0.1666666666666667
 40
0.1666666666666667
 40
0.1666666666666667
 40
0.25
 40
0.25
 40
0.25
 40
0.25
 40
0.3333333333333333
 40
0.3333333333333333
 40
0.3333333333333333
 40
0.3333333333333333
 40
0.4166666666666667
 40
0.4166666666666667
 40
0.4166666666666667
 40
0.4166666666666667
 40
0.5
 40
0.5
 40
0.5
 40
0.5
 40
0.5833333333333334
 40
0.5833333333333334
 40
0.5833333333333334
 40
0.5833333333333334
 40
0.6666666666666666
 40
0.6666666666666666
 40
0.6666666666666666
 40
0.6666666666666666
 40
0.75
 40
0.75
 40
0.75
 40
0.75
 40
0.8333333333333334
 40
0.8333333333333334
 40
0.8333333333333334
 40
0.8333333333333334
 40
1.0
 40
1.0
 40
1.0
 40
1.0
 10
8.5034
 20
4.7637
 30
0.0
 10
8.5034
 20
4.7637
 30
0.0
 10
8.0199
 20
4.7637
 30
0.0
 10
8.0199
 20
4.7637
 30
0.0
 10
8.0199
 20
4.7637
 30
0.0
 10
8.0199
 20
4.7637
 30
0.0
 10
8.0199
 20
3.8874
 30
0.0
 10
8.0199
 20
3.8874
 30
0.0
 10
8.0199
 20
3.8874
 30
0.0
 10
8.0199
 20
3.8874
 30
0.0
 10
7.7922
 20
3.8874
 30
0.0
 10
7.7922
 20
3.8874
 30
0.0
 10
7.7922
 20
3.8874
 30
0.0
 10
7.7922
 20
3.8874
 30
0.0
 10
6.4832
 20
4.8094
 30
0.0
 10
6.4832
 20
4.8094
 30
0.0
 10
6.4832
 20
4.8094
 30
0.0
 10
6.4832
 20
4.8094
 30
0.0
 10
6.4832
 20
5.0121
 30
0.0
 10
6.4832
 20
5.0121
 30
0.0
 10
6.4832
 20
5.0121
 30
0.0
 10
6.4832
 20
5.0121
 30
0.0
 10
7.7922
 20
5.0121
 30
0.0
 10
7.7922
 20
5.0121
 30
0.0
 10
7.7922
 20
5.0121
 30
0.0
 10
7.7922
 20
5.0121
 30
0.0
 10
7.7922
 20
5.2849
 30
0.0
 10
7.7922
 20
5.2849
 30
0.0
 10
7.7922
 20
5.2849
 30
0.0
 10
7.7922
 20
5.2849
 30
0.0
 10
8.0199
 20
5.2849
 30
0.0
 10
8.0199
 20
5.2849
 30
0.0
 10
8.0199
 20
5.2849
 30
0.0
 10
8.0199
 20
5.2849
 30
0.0
 10
8.0199
 20
5.0121
 30
0.0
 10
8.0199
 20
5.0121
 30
0.0
 10
8.0199
 20
5.0121
 30
0.0
 10
8.0199
 20
5.0121
 30
0.0
 10
8.5034
 20
5.0121
 30
0.0
 10
8.5034
 20
5.0121
 30
0.0
 10
8.5034
 20
5.0121
 30
0.0
 10
8.5034
 20
5.0121
 30
0.0
 10
8.5034
 20
4.7637
 30
0.0
 10
8.5034
 20
4.7637
 30
0.0
  0
SPLINE
  5
110
330
1F
100
AcDbEntity
  8
VRSTVA_1
 62
   250
100
AcDbSpline
210
0.0
220
0.0
230
1.0
 70
    11
 71
     3
 72
    16
 73
    12
 74
     0
 42
0.0000000001
 43
0.0000000001
 40
0.0
 40
0.0
 40
0.0
 40
0.0
 40
0.25
 40
0.25
 40
0.25
 40
0.25
 40
0.5
 40
0.5
 40
0.5
 40
0.5
 40
1.0
 40
1.0
 40
1.0
 40
1.0
 10
7.7922
 20
4.7637
 30
0.0
 10
7.7922
 20
4.7637
 30
0.0
 10
6.8816
 20
4.7637
 30
0.0
 10
6.8816
 20
4.7637
 30
0.0
 10
6.8816
 20
4.7637
 30
0.0
 10
6.8816
 20
4.7637
 30
0.0
 10
7.7922
 20
4.1316
 30
0.0
 10
7.7922
 20
4.1316
 30
0.0
 10
7.7922
 20
4.1316
 30
0.0
 10
7.7922
 20
4.1316
 30
0.0
 10
7.7922
 20
4.7637
 30
0.0
 10
7.7922
 20
4.7637
 30
0.0
  0
SPLINE
  5
111
330
1F
100
AcDbEntity
  8
VRSTVA_1
 62
   250
100
AcDbSpline
210
0.0
220
0.0
230
1.0
 70
    11
 71
     3
 72
    52
 73
    48
 74
     0
 42
0.0000000001
 43
0.0000000001
 40
0.0
 40
0.0
 40
0.0
 40
0.0
 40
0.0769230769230769
 40
0.0769230769230769
 40
0.0769230769230769
 40
0.0769230769230769
 40
0.1538461538461539
 40
0.1538461538461539
 40
0.1538461538461539
 40
0.1538461538461539
 40
0.2307692307692308
 40
0.2307692307692308
 40
0.2307692307692308
 40
0.2307692307692308
 40
0.3076923076923077
 40
0.3076923076923077
 40
0.3076923076923077
 40
0.3076923076923077
 40
0.3846153846153846
 40
0.3846153846153846
 40
0.3846153846153846
 40
0.3846153846153846
 40
0.4615384615384616
 40
0.4615384615384616
 40
0.4615384615384616
 40
0.4615384615384616
 40
0.5384615384615384
 40
0.5384615384615384
 40
0.5384615384615384
 40
0.5384615384615384
 40
0.6153846153846154
 40
0.6153846153846154
 40
0.6153846153846154
 40
0.6153846153846154
 40
0.6923076923076923
 40
0.6923076923076923
 40
0.6923076923076923
 40
0.6923076923076923
 40
0.7692307692307693
 40
0.7692307692307693
 40
0.7692307692307693
 40
0.7692307692307693
 40
0.8461538461538461
 40
0.8461538461538461
 40
0.8461538461538461
 40
0.8461538461538461
 40
1.0
 40
1.0
 40
1.0
 40
1.0
 10
7.5072
 20
5.5384
 30
0.0
 10
7.2682
 20
5.5384
 30
0.0
 10
7.0758
 20
5.5629
 30
0.0
 10
6.9305
 20
5.6123
 30
0.0
 10
6.9305
 20
5.6123
 30
0.0
 10
6.7847
 20
5.6612
 30
0.0
 10
6.6723
 20
5.7346
 30
0.0
 10
6.5932
 20
5.8315
 30
0.0
 10
6.5932
 20
5.8315
 30
0.0
 10
6.5142
 20
5.9284
 30
0.0
 10
6.4747
 20
6.0502
 30
0.0
 10
6.4747
 20
6.1969
 30
0.0
 10
6.4747
 20
6.1969
 30
0.0
 10
6.4747
 20
6.3056
 30
0.0
 10
6.4968
 20
6.4006
 30
0.0
 10
6.5406
 20
6.4824
 30
0.0
 10
6.5406
 20
6.4824
 30
0.0
 10
6.5838
 20
6.5643
 30
0.0
 10
6.6469
 20
6.6316
 30
0.0
 10
6.7292
 20
6.6852
 30
0.0
 10
6.7292
 20
6.6852
 30
0.0
 10
6.8115
 20
6.7383
 30
0.0
 10
6.9117
 20
6.7802
 30
0.0
 10
7.0297
 20
6.8103
 30
0.0
 10
7.0297
 20
6.8103
 30
0.0
 10
7.1478
 20
6.8409
 30
0.0
 10
7.3068
 20
6.8559
 30
0.0
 10
7.5072
 20
6.8559
 30
0.0
 10
7.5072
 20
6.8559
 30
0.0
 10
7.7442
 20
6.8559
 30
0.0
 10
7.9352
 20
6.8315
 30
0.0
 10
8.081
 20
6.783
 30
0.0
 10
8.081
 20
6.783
 30
0.0
 10
8.2268
 20
6.7341
 30
0.0
 10
8.3392
 20
6.6612
 30
0.0
 10
8.4187
 20
6.5643
 30
0.0
 10
8.4187
 20
6.5643
 30
0.0
 10
8.4982
 20
6.4674
 30
0.0
 10
8.5377
 20
6.3451
 30
0.0
 10
8.5377
 20
6.1969
 30
0.0
 10
8.5377
 20
6.1969
 30
0.0
 10
8.5377
 20
6.0022
 30
0.0
 10
8.4681
 20
5.8493
 30
0.0
 10
8.3284
 20
5.7383
 30
0.0
 10
8.3284
 20
5.7383
 30
0.0
 10
8.1605
 20
5.6052
 30
0.0
 10
7.8863
 20
5.5384
 30
0.0
 10
7.5072
 20
5.5384
 30
0.0
  0
SPLINE
  5
112
330
1F
100
AcDbEntity
  8
VRSTVA_1
 62
   250
100
AcDbSpline
210
0.0
220
0.0
230
1.0
 70
    11
 71
     3
 72
    36
 73
    32
 74
     0
 42
0.0000000001
 43
0.0000000001
 40
0.0
 40
0.0
 40
0.0
 40
0.0
 40
0.1111111111111111
 40
0.1111111111111111
 40
0.1111111111111111
 40
0.1111111111111111
 40
0.2222222222222222
 40
0.2222222222222222
 40
0.2222222222222222
 40
0.2222222222222222
 40
0.3333333333333333
 40
0.3333333333333333
 40
0.3333333333333333
 40
0.3333333333333333
 40
0.4444444444444444
 40
0.4444444444444444
 40
0.4444444444444444
 40
0.4444444444444444
 40
0.5555555555555556
 40
0.5555555555555556
 40
0.5555555555555556
 40
0.5555555555555556
 40
0.6666666666666666
 40
0.6666666666666666
 40
0.6666666666666666
 40
0.6666666666666666
 40
0.7777777777777778
 40
0.7777777777777778
 40
0.7777777777777778
 40
0.7777777777777778
 40
1.0
 40
1.0
 40
1.0
 40
1.0
 10
7.5072
 20
5.7934
 30
0.0
 10
7.8388
 20
5.7934
 30
0.0
 10
8.0594
 20
5.8324
 30
0.0
 10
8.1694
 20
5.91
 30
0.0
 10
8.1694
 20
5.91
 30
0.0
 10
8.279
 20
5.9876
 30
0.0
 10
8.3341
 20
6.0831
 30
0.0
 10
8.3341
 20
6.1969
 30
0.0
 10
8.3341
 20
6.1969
 30
0.0
 10
8.3341
 20
6.3112
 30
0.0
 10
8.2786
 20
6.4067
 30
0.0
 10
8.1685
 20
6.4843
 30
0.0
 10
8.1685
 20
6.4843
 30
0.0
 10
8.0584
 20
6.5619
 30
0.0
 10
7.8378
 20
6.601
 30
0.0
 10
7.5072
 20
6.601
 30
0.0
 10
7.5072
 20
6.601
 30
0.0
 10
7.1746
 20
6.601
 30
0.0
 10
6.9535
 20
6.5619
 30
0.0
 10
6.8444
 20
6.4843
 30
0.0
 10
6.8444
 20
6.4843
 30
0.0
 10
6.7348
 20
6.4067
 30
0.0
 10
6.6803
 20
6.3103
 30
0.0
 10
6.6803
 20
6.1946
 30
0.0
 10
6.6803
 20
6.1946
 30
0.0
 10
6.6803
 20
6.0803
 30
0.0
 10
6.7287
 20
5.9895
 30
0.0
 10
6.8251
 20
5.9213
 30
0.0
 10
6.8251
 20
5.9213
 30
0.0
 10
6.9479
 20
5.8362
 30
0.0
 10
7.1756
 20
5.7934
 30
0.0
 10
7.5072
 20
5.7934
 30
0.0
  0
SPLINE
  5
113
330
1F
100
AcDbEntity
  8
VRSTVA_1
 62
   250
100
AcDbSpline
210
0.0
220
0.0
230
1.0
 70
    11
 71
     3
 72
    84
 73
    80
 74
     0
 42
0.0000000001
 43
0.0000000001
 40
0.0
 40
0.0
 40
0.0
 40
0.0
 40
0.0476190476190476
 40
0.0476190476190476
 40
0.0476190476190476
 40
0.0476190476190476
 40
0.0952380952380952
 40
0.0952380952380952
 40
0.0952380952380952
 40
0.0952380952380952
 40
0.1428571428571428
 40
0.1428571428571428
 40
0.1428571428571428
 40
0.1428571428571428
 40
0.1904761904761905
 40
0.1904761904761905
 40
0.1904761904761905
 40
0.1904761904761905
 40
0.2380952380952381
 40
0.2380952380952381
 40
0.2380952380952381
 40
0.2380952380952381
 40
0.2857142857142857
 40
0.2857142857142857
 40
0.2857142857142857
 40
0.2857142857142857
 40
0.3333333333333333
 40
0.3333333333333333
 40
0.3333333333333333
 40
0.3333333333333333
 40
0.3809523809523809
 40
0.3809523809523809
 40
0.3809523809523809
 40
0.3809523809523809
 40
0.4285714285714285
 40
0.4285714285714285
 40
0.4285714285714285
 40
0.4285714285714285
 40
0.4761904761904762
 40
0.4761904761904762
 40
0.4761904761904762
 40
0.4761904761904762
 40
0.5238095238095238
 40
0.5238095238095238
 40
0.5238095238095238
 40
0.5238095238095238
 40
0.5714285714285714
 40
0.5714285714285714
 40
0.5714285714285714
 40
0.5714285714285714
 40
0.6190476190476191
 40
0.6190476190476191
 40
0.6190476190476191
 40
0.6190476190476191
 40
0.6666666666666666
 40
0.6666666666666666
 40
0.6666666666666666
 40
0.6666666666666666
 40
0.7142857142857143
 40
0.7142857142857143
 40
0.7142857142857143
 40
0.7142857142857143
 40
0.7619047619047619
 40
0.7619047619047619
 40
0.7619047619047619
 40
0.7619047619047619
 40
0.8095238095238095
 40
0.8095238095238095
 40
0.8095238095238095
 40
0.8095238095238095
 40
0.8571428571428571
 40
0.8571428571428571
 40
0.8571428571428571
 40
0.8571428571428571
 40
0.9047619047619048
 40
0.9047619047619048
 40
0.9047619047619048
 40
0.9047619047619048
 40
1.0
 40
1.0
 40
1.0
 40
1.0
 10
39.7651
 20
-21.9127
 30
0.0
 10
39.7651
 20
-21.9127
 30
0.0
 10
39.7455
 20
-21.5659
 30
0.0
 10
39.7455
 20
-21.5659
 30
0.0
 10
39.7455
 20
-21.5659
 30
0.0
 10
39.7455
 20
-21.5659
 30
0.0
 10
39.9238
 20
-21.5512
 30
0.0
 10
39.9238
 20
-21.5512
 30
0.0
 10
39.9238
 20
-21.5512
 30
0.0
 10
39.9238
 20
-21.5512
 30
0.0
 10
39.9454
 20
-21.9154
 30
0.0
 10
39.9454
 20
-21.9154
 30
0.0
 10
39.9454
 20
-21.9154
 30
0.0
 10
40.0844
 20
-21.9427
 30
0.0
 10
40.1948
 20
-21.978
 30
0.0
 10
40.2766
 20
-22.0205
 30
0.0
 10
40.2766
 20
-22.0205
 30
0.0
 10
40.3845
 20
-22.0764
 30
0.0
 10
40.4892
 20
-22.1553
 30
0.0
 10
40.5903
 20
-22.2564
 30
0.0
 10
40.5903
 20
-22.2564
 30
0.0
 10
40.7366
 20
-22.4027
 30
0.0
 10
40.8374
 20
-22.5626
 30
0.0
 10
40.8922
 20
-22.7359
 30
0.0
 10
40.8922
 20
-22.7359
 30
0.0
 10
40.9475
 20
-22.9096
 30
0.0
 10
40.9511
 20
-23.0788
 30
0.0
 10
40.9029
 20
-23.2441
 30
0.0
 10
40.9029
 20
-23.2441
 30
0.0
 10
40.854
 20
-23.4095
 30
0.0
 10
40.7699
 20
-23.5521
 30
0.0
 10
40.6498
 20
-23.6721
 30
0.0
 10
40.6498
 20
-23.6721
 30
0.0
 10
40.56
 20
-23.7619
 30
0.0
 10
40.4663
 20
-23.8305
 30
0.0
 10
40.3681
 20
-23.8781
 30
0.0
 10
40.3681
 20
-23.8781
 30
0.0
 10
40.2927
 20
-23.9143
 30
0.0
 10
40.1902
 20
-23.9423
 30
0.0
 10
40.0601
 20
-23.9619
 30
0.0
 10
40.0601
 20
-23.9619
 30
0.0
 10
40.0601
 20
-23.9619
 30
0.0
 10
40.0798
 20
-24.3088
 30
0.0
 10
40.0798
 20
-24.3088
 30
0.0
 10
40.0798
 20
-24.3088
 30
0.0
 10
40.0798
 20
-24.3088
 30
0.0
 10
39.9015
 20
-24.3235
 30
0.0
 10
39.9015
 20
-24.3235
 30
0.0
 10
39.9015
 20
-24.3235
 30
0.0
 10
39.9015
 20
-24.3235
 30
0.0
 10
39.8812
 20
-23.9599
 30
0.0
 10
39.8812
 20
-23.9599
 30
0.0
 10
39.8812
 20
-23.9599
 30
0.0
 10
39.7206
 20
-23.927
 30
0.0
 10
39.5952
 20
-23.8867
 30
0.0
 10
39.5054
 20
-23.8395
 30
0.0
 10
39.5054
 20
-23.8395
 30
0.0
 10
39.4156
 20
-23.7923
 30
0.0
 10
39.3221
 20
-23.7207
 30
0.0
 10
39.226
 20
-23.6246
 30
0.0
 10
39.226
 20
-23.6246
 30
0.0
 10
39.0794
 20
-23.478
 30
0.0
 10
38.9779
 20
-23.318
 30
0.0
 10
38.9216
 20
-23.1447
 30
0.0
 10
38.9216
 20
-23.1447
 30
0.0
 10
38.8654
 20
-22.9714
 30
0.0
 10
38.8604
 20
-22.8028
 30
0.0
 10
38.907
 20
-22.6379
 30
0.0
 10
38.907
 20
-22.6379
 30
0.0
 10
38.9536
 20
-22.4735
 30
0.0
 10
39.0414
 20
-22.3264
 30
0.0
 10
39.1707
 20
-22.1971
 30
0.0
 10
39.1707
 20
-22.1971
 30
0.0
 10
39.2579
 20
-22.1099
 30
0.0
 10
39.3454
 20
-22.0451
 30
0.0
 10
39.4339
 20
-22.0032
 30
0.0
 10
39.4339
 20
-22.0032
 30
0.0
 10
39.522
 20
-21.9609
 30
0.0
 10
39.6327
 20
-21.9307
 30
0.0
 10
39.7651
 20
-21.9127
 30
0.0
  0
SPLINE
  5
114
330
1F
100
AcDbEntity
  8
VRSTVA_1
 62
   250
100
AcDbSpline
210
0.0
220
0.0
230
1.0
 70
    11
 71
     3
 72
    32
 73
    28
 74
     0
 42
0.0000000001
 43
0.0000000001
 40
0.0
 40
0.0
 40
0.0
 40
0.0
 40
0.125
 40
0.125
 40
0.125
 40
0.125
 40
0.25
 40
0.25
 40
0.25
 40
0.25
 40
0.375
 40
0.375
 40
0.375
 40
0.375
 40
0.5
 40
0.5
 40
0.5
 40
0.5
 40
0.625
 40
0.625
 40
0.625
 40
0.625
 40
0.75
 40
0.75
 40
0.75
 40
0.75
 40
1.0
 40
1.0
 40
1.0
 40
1.0
 10
39.7798
 20
-22.1608
 30
0.0
 10
39.6706
 20
-22.1742
 30
0.0
 10
39.5842
 20
-22.1948
 30
0.0
 10
39.521
 20
-22.2227
 30
0.0
 10
39.521
 20
-22.2227
 30
0.0
 10
39.4578
 20
-22.2513
 30
0.0
 10
39.3949
 20
-22.2962
 30
0.0
 10
39.3334
 20
-22.3578
 30
0.0
 10
39.3334
 20
-22.3578
 30
0.0
 10
39.191
 20
-22.5001
 30
0.0
 10
39.1219
 20
-22.6657
 30
0.0
 10
39.1252
 20
-22.8553
 30
0.0
 10
39.1252
 20
-22.8553
 30
0.0
 10
39.1289
 20
-23.0447
 30
0.0
 10
39.2263
 20
-23.2351
 30
0.0
 10
39.4182
 20
-23.4271
 30
0.0
 10
39.4182
 20
-23.4271
 30
0.0
 10
39.4934
 20
-23.5022
 30
0.0
 10
39.5675
 20
-23.5618
 30
0.0
 10
39.6405
 20
-23.606
 30
0.0
 10
39.6405
 20
-23.606
 30
0.0
 10
39.6943
 20
-23.6393
 30
0.0
 10
39.7694
 20
-23.6712
 30
0.0
 10
39.8662
 20
-23.7014
 30
0.0
 10
39.8662
 20
-23.7014
 30
0.0
 10
39.8662
 20
-23.7014
 30
0.0
 10
39.7798
 20
-22.1608
 30
0.0
 10
39.7798
 20
-22.1608
 30
0.0
  0
SPLINE
  5
115
330
1F
100
AcDbEntity
  8
VRSTVA_1
 62
   250
100
AcDbSpline
210
0.0
220
0.0
230
1.0
 70
    11
 71
     3
 72
    28
 73
    24
 74
     0
 42
0.0000000001
 43
0.0000000001
 40
0.0
 40
0.0
 40
0.0
 40
0.0
 40
0.1428571428571428
 40
0.1428571428571428
 40
0.1428571428571428
 40
0.1428571428571428
 40
0.2857142857142857
 40
0.2857142857142857
 40
0.2857142857142857
 40
0.2857142857142857
 40
0.4285714285714285
 40
0.4285714285714285
 40
0.4285714285714285
 40
0.4285714285714285
 40
0.5714285714285714
 40
0.5714285714285714
 40
0.5714285714285714
 40
0.5714285714285714
 40
0.7142857142857143
 40
0.7142857142857143
 40
0.7142857142857143
 40
0.7142857142857143
 40
1.0
 40
1.0
 40
1.0
 40
1.0
 10
39.9601
 20
-22.1815
 30
0.0
 10
39.9601
 20
-22.1815
 30
0.0
 10
40.0465
 20
-23.7161
 30
0.0
 10
40.0465
 20
-23.7161
 30
0.0
 10
40.0465
 20
-23.7161
 30
0.0
 10
40.1373
 20
-23.7071
 30
0.0
 10
40.2121
 20
-23.6895
 30
0.0
 10
40.2707
 20
-23.6635
 30
0.0
 10
40.2707
 20
-23.6635
 30
0.0
 10
40.3475
 20
-23.63
 30
0.0
 10
40.418
 20
-23.5807
 30
0.0
 10
40.4822
 20
-23.5165
 30
0.0
 10
40.4822
 20
-23.5165
 30
0.0
 10
40.6239
 20
-23.3748
 30
0.0
 10
40.6908
 20
-23.2082
 30
0.0
 10
40.6831
 20
-23.0157
 30
0.0
 10
40.6831
 20
-23.0157
 30
0.0
 10
40.6751
 20
-22.8234
 30
0.0
 10
40.581
 20
-22.6368
 30
0.0
 10
40.4004
 20
-22.4562
 30
0.0
 10
40.4004
 20
-22.4562
 30
0.0
 10
40.2654
 20
-22.3212
 30
0.0
 10
40.1184
 20
-22.2294
 30
0.0
 10
39.9601
 20
-22.1815
 30
0.0
  0
SPLINE
  5
116
330
1F
100
AcDbEntity
  8
VRSTVA_1
 62
   250
100
AcDbSpline
210
0.0
220
0.0
230
1.0
 70
    11
 71
     3
 72
    92
 73
    88
 74
     0
 42
0.0000000001
 43
0.0000000001
 40
0.0
 40
0.0
 40
0.0
 40
0.0
 40
0.0434782608695652
 40
0.0434782608695652
 40
0.0434782608695652
 40
0.0434782608695652
 40
0.0869565217391304
 40
0.0869565217391304
 40
0.0869565217391304
 40
0.0869565217391304
 40
0.1304347826086956
 40
0.1304347826086956
 40
0.1304347826086956
 40
0.1304347826086956
 40
0.1739130434782609
 40
0.1739130434782609
 40
0.1739130434782609
 40
0.1739130434782609
 40
0.2173913043478261
 40
0.2173913043478261
 40
0.2173913043478261
 40
0.2173913043478261
 40
0.2608695652173913
 40
0.2608695652173913
 40
0.2608695652173913
 40
0.2608695652173913
 40
0.3043478260869565
 40
0.3043478260869565
 40
0.3043478260869565
 40
0.3043478260869565
 40
0.3478260869565217
 40
0.3478260869565217
 40
0.3478260869565217
 40
0.3478260869565217
 40
0.391304347826087
 40
0.391304347826087
 40
0.391304347826087
 40
0.391304347826087
 40
0.4347826086956522
 40
0.4347826086956522
 40
0.4347826086956522
 40
0.4347826086956522
 40
0.4782608695652174
 40
0.4782608695652174
 40
0.4782608695652174
 40
0.4782608695652174
 40
0.5217391304347826
 40
0.5217391304347826
 40
0.5217391304347826
 40
0.5217391304347826
 40
0.5652173913043478
 40
0.5652173913043478
 40
0.5652173913043478
 40
0.5652173913043478
 40
0.6086956521739131
 40
0.6086956521739131
 40
0.6086956521739131
 40
0.6086956521739131
 40
0.6521739130434783
 40
0.6521739130434783
 40
0.6521739130434783
 40
0.6521739130434783
 40
0.6956521739130435
 40
0.6956521739130435
 40
0.6956521739130435
 40
0.6956521739130435
 40
0.7391304347826086
 40
0.7391304347826086
 40
0.7391304347826086
 40
0.7391304347826086
 40
0.782608695652174
 40
0.782608695652174
 40
0.782608695652174
 40
0.782608695652174
 40
0.8260869565217391
 40
0.8260869565217391
 40
0.8260869565217391
 40
0.8260869565217391
 40
0.8695652173913043
 40
0.8695652173913043
 40
0.8695652173913043
 40
0.8695652173913043
 40
0.9130434782608695
 40
0.9130434782608695
 40
0.9130434782608695
 40
0.9130434782608695
 40
1.0
 40
1.0
 40
1.0
 40
1.0
 10
41.1058
 20
-22.4193
 30
0.0
 10
41.1058
 20
-22.4193
 30
0.0
 10
41.2744
 20
-22.2194
 30
0.0
 10
41.2744
 20
-22.2194
 30
0.0
 10
41.2744
 20
-22.2194
 30
0.0
 10
41.3779
 20
-22.2955
 30
0.0
 10
41.4767
 20
-22.3311
 30
0.0
 10
41.5715
 20
-22.3268
 30
0.0
 10
41.5715
 20
-22.3268
 30
0.0
 10
41.6666
 20
-22.3222
 30
0.0
 10
41.7491
 20
-22.2849
 30
0.0
 10
41.8193
 20
-22.2148
 30
0.0
 10
41.8193
 20
-22.2148
 30
0.0
 10
41.9038
 20
-22.1303
 30
0.0
 10
41.9433
 20
-22.0268
 30
0.0
 10
41.938
 20
-21.9052
 30
0.0
 10
41.938
 20
-21.9052
 30
0.0
 10
41.9327
 20
-21.7828
 30
0.0
 10
41.8775
 20
-21.669
 30
0.0
 10
41.7724
 20
-21.5639
 30
0.0
 10
41.7724
 20
-21.5639
 30
0.0
 10
41.6723
 20
-21.4638
 30
0.0
 10
41.5655
 20
-21.4129
 30
0.0
 10
41.4514
 20
-21.4112
 30
0.0
 10
41.4514
 20
-21.4112
 30
0.0
 10
41.3373
 20
-21.4095
 30
0.0
 10
41.2349
 20
-21.4541
 30
0.0
 10
41.1438
 20
-21.5452
 30
0.0
 10
41.1438
 20
-21.5452
 30
0.0
 10
41.0872
 20
-21.6018
 30
0.0
 10
41.0493
 20
-21.6656
 30
0.0
 10
41.0293
 20
-21.7368
 30
0.0
 10
41.0293
 20
-21.7368
 30
0.0
 10
41.0094
 20
-21.808
 30
0.0
 10
41.0071
 20
-21.8768
 30
0.0
 10
41.0221
 20
-21.9437
 30
0.0
 10
41.0221
 20
-21.9437
 30
0.0
 10
41.0221
 20
-21.9437
 30
0.0
 10
40.8361
 20
-22.0871
 30
0.0
 10
40.8361
 20
-22.0871
 30
0.0
 10
40.8361
 20
-22.0871
 30
0.0
 10
40.8361
 20
-22.0871
 30
0.0
 10
40.2407
 20
-21.2149
 30
0.0
 10
40.2407
 20
-21.2149
 30
0.0
 10
40.2407
 20
-21.2149
 30
0.0
 10
40.2407
 20
-21.2149
 30
0.0
 10
40.9511
 20
-20.5045
 30
0.0
 10
40.9511
 20
-20.5045
 30
0.0
 10
40.9511
 20
-20.5045
 30
0.0
 10
40.9511
 20
-20.5045
 30
0.0
 10
41.1188
 20
-20.6722
 30
0.0
 10
41.1188
 20
-20.6722
 30
0.0
 10
41.1188
 20
-20.6722
 30
0.0
 10
41.1188
 20
-20.6722
 30
0.0
 10
40.5487
 20
-21.2422
 30
0.0
 10
40.5487
 20
-21.2422
 30
0.0
 10
40.5487
 20
-21.2422
 30
0.0
 10
40.5487
 20
-21.2422
 30
0.0
 10
40.8554
 20
-21.7032
 30
0.0
 10
40.8554
 20
-21.7032
 30
0.0
 10
40.8554
 20
-21.7032
 30
0.0
 10
40.8813
 20
-21.5575
 30
0.0
 10
40.9415
 20
-21.4375
 30
0.0
 10
41.0356
 20
-21.3434
 30
0.0
 10
41.0356
 20
-21.3434
 30
0.0
 10
41.1604
 20
-21.2186
 30
0.0
 10
41.3087
 20
-21.1568
 30
0.0
 10
41.481
 20
-21.1574
 30
0.0
 10
41.481
 20
-21.1574
 30
0.0
 10
41.6532
 20
-21.1581
 30
0.0
 10
41.8072
 20
-21.2263
 30
0.0
 10
41.9429
 20
-21.362
 30
0.0
 10
41.9429
 20
-21.362
 30
0.0
 10
42.0723
 20
-21.4914
 30
0.0
 10
42.1462
 20
-21.641
 30
0.0
 10
42.1652
 20
-21.8103
 30
0.0
 10
42.1652
 20
-21.8103
 30
0.0
 10
42.1888
 20
-22.0175
 30
0.0
 10
42.1215
 20
-22.2004
 30
0.0
 10
41.9632
 20
-22.3588
 30
0.0
 10
41.9632
 20
-22.3588
 30
0.0
 10
41.8332
 20
-22.4888
 30
0.0
 10
41.6909
 20
-22.5587
 30
0.0
 10
41.5359
 20
-22.568
 30
0.0
 10
41.5359
 20
-22.568
 30
0.0
 10
41.3809
 20
-22.5773
 30
0.0
 10
41.2375
 20
-22.5277
 30
0.0
 10
41.1058
 20
-22.4193
 30
0.0
  0
SPLINE
  5
117
330
1F
100
AcDbEntity
  8
VRSTVA_1
 62
   250
100
AcDbSpline
210
0.0
220
0.0
230
1.0
 70
    11
 71
     3
 72
    52
 73
    48
 74
     0
 42
0.0000000001
 43
0.0000000001
 40
0.0
 40
0.0
 40
0.0
 40
0.0
 40
0.0769230769230769
 40
0.0769230769230769
 40
0.0769230769230769
 40
0.0769230769230769
 40
0.1538461538461539
 40
0.1538461538461539
 40
0.1538461538461539
 40
0.1538461538461539
 40
0.2307692307692308
 40
0.2307692307692308
 40
0.2307692307692308
 40
0.2307692307692308
 40
0.3076923076923077
 40
0.3076923076923077
 40
0.3076923076923077
 40
0.3076923076923077
 40
0.3846153846153846
 40
0.3846153846153846
 40
0.3846153846153846
 40
0.3846153846153846
 40
0.4615384615384616
 40
0.4615384615384616
 40
0.4615384615384616
 40
0.4615384615384616
 40
0.5384615384615384
 40
0.5384615384615384
 40
0.5384615384615384
 40
0.5384615384615384
 40
0.6153846153846154
 40
0.6153846153846154
 40
0.6153846153846154
 40
0.6153846153846154
 40
0.6923076923076923
 40
0.6923076923076923
 40
0.6923076923076923
 40
0.6923076923076923
 40
0.7692307692307693
 40
0.7692307692307693
 40
0.7692307692307693
 40
0.7692307692307693
 40
0.8461538461538461
 40
0.8461538461538461
 40
0.8461538461538461
 40
0.8461538461538461
 40
1.0
 40
1.0
 40
1.0
 40
1.0
 10
41.8854
 20
-20.9792
 30
0.0
 10
41.7164
 20
-20.8102
 30
0.0
 10
41.5977
 20
-20.6568
 30
0.0
 10
41.5299
 20
-20.5192
 30
0.0
 10
41.5299
 20
-20.5192
 30
0.0
 10
41.4614
 20
-20.3815
 30
0.0
 10
41.4338
 20
-20.2501
 30
0.0
 10
41.4464
 20
-20.1256
 30
0.0
 10
41.4464
 20
-20.1256
 30
0.0
 10
41.4591
 20
-20.0013
 30
0.0
 10
41.5173
 20
-19.8872
 30
0.0
 10
41.621
 20
-19.7835
 30
0.0
 10
41.621
 20
-19.7835
 30
0.0
 10
41.6978
 20
-19.7066
 30
0.0
 10
41.7807
 20
-19.6551
 30
0.0
 10
41.8695
 20
-19.6282
 30
0.0
 10
41.8695
 20
-19.6282
 30
0.0
 10
41.9579
 20
-19.6008
 30
0.0
 10
42.0501
 20
-19.5979
 30
0.0
 10
42.1462
 20
-19.6182
 30
0.0
 10
42.1462
 20
-19.6182
 30
0.0
 10
42.242
 20
-19.6388
 30
0.0
 10
42.3424
 20
-19.68
 30
0.0
 10
42.4472
 20
-19.7422
 30
0.0
 10
42.4472
 20
-19.7422
 30
0.0
 10
42.5523
 20
-19.8041
 30
0.0
 10
42.6754
 20
-19.9059
 30
0.0
 10
42.8171
 20
-20.0476
 30
0.0
 10
42.8171
 20
-20.0476
 30
0.0
 10
42.9846
 20
-20.2152
 30
0.0
 10
43.1024
 20
-20.3675
 30
0.0
 10
43.1712
 20
-20.5049
 30
0.0
 10
43.1712
 20
-20.5049
 30
0.0
 10
43.2398
 20
-20.6425
 30
0.0
 10
43.2677
 20
-20.7736
 30
0.0
 10
43.2554
 20
-20.8983
 30
0.0
 10
43.2554
 20
-20.8983
 30
0.0
 10
43.2431
 20
-21.023
 30
0.0
 10
43.1845
 20
-21.1374
 30
0.0
 10
43.0797
 20
-21.2422
 30
0.0
 10
43.0797
 20
-21.2422
 30
0.0
 10
42.9421
 20
-21.3799
 30
0.0
 10
42.7847
 20
-21.4388
 30
0.0
 10
42.6075
 20
-21.4185
 30
0.0
 10
42.6075
 20
-21.4185
 30
0.0
 10
42.3946
 20
-21.3939
 30
0.0
 10
42.1535
 20
-21.2473
 30
0.0
 10
41.8854
 20
-20.9792
 30
0.0
  0
SPLINE
  5
118
330
1F
100
AcDbEntity
  8
VRSTVA_1
 62
   250
100
AcDbSpline
210
0.0
220
0.0
230
1.0
 70
    11
 71
     3
 72
    36
 73
    32
 74
     0
 42
0.0000000001
 43
0.0000000001
 40
0.0
 40
0.0
 40
0.0
 40
0.0
 40
0.1111111111111111
 40
0.1111111111111111
 40
0.1111111111111111
 40
0.1111111111111111
 40
0.2222222222222222
 40
0.2222222222222222
 40
0.2222222222222222
 40
0.2222222222222222
 40
0.3333333333333333
 40
0.3333333333333333
 40
0.3333333333333333
 40
0.3333333333333333
 40
0.4444444444444444
 40
0.4444444444444444
 40
0.4444444444444444
 40
0.4444444444444444
 40
0.5555555555555556
 40
0.5555555555555556
 40
0.5555555555555556
 40
0.5555555555555556
 40
0.6666666666666666
 40
0.6666666666666666
 40
0.6666666666666666
 40
0.6666666666666666
 40
0.7777777777777778
 40
0.7777777777777778
 40
0.7777777777777778
 40
0.7777777777777778
 40
1.0
 40
1.0
 40
1.0
 40
1.0
 10
42.0658
 20
-20.7989
 30
0.0
 10
42.3002
 20
-21.0334
 30
0.0
 10
42.4838
 20
-21.1618
 30
0.0
 10
42.6165
 20
-21.1847
 30
0.0
 10
42.6165
 20
-21.1847
 30
0.0
 10
42.7488
 20
-21.2073
 30
0.0
 10
42.8553
 20
-21.1787
 30
0.0
 10
42.9358
 20
-21.0983
 30
0.0
 10
42.9358
 20
-21.0983
 30
0.0
 10
43.0166
 20
-21.0175
 30
0.0
 10
43.0449
 20
-20.9107
 30
0.0
 10
43.0219
 20
-20.778
 30
0.0
 10
43.0219
 20
-20.778
 30
0.0
 10
42.9989
 20
-20.6452
 30
0.0
 10
42.8706
 20
-20.4616
 30
0.0
 10
42.6368
 20
-20.2278
 30
0.0
 10
42.6368
 20
-20.2278
 30
0.0
 10
42.4016
 20
-19.9926
 30
0.0
 10
42.2176
 20
-19.8639
 30
0.0
 10
42.0856
 20
-19.8417
 30
0.0
 10
42.0856
 20
-19.8417
 30
0.0
 10
41.9533
 20
-19.819
 30
0.0
 10
41.8466
 20
-19.8487
 30
0.0
 10
41.7647
 20
-19.9305
 30
0.0
 10
41.7647
 20
-19.9305
 30
0.0
 10
41.6839
 20
-20.0113
 30
0.0
 10
41.6539
 20
-20.1097
 30
0.0
 10
41.6739
 20
-20.2261
 30
0.0
 10
41.6739
 20
-20.2261
 30
0.0
 10
41.7005
 20
-20.3731
 30
0.0
 10
41.8313
 20
-20.5644
 30
0.0
 10
42.0658
 20
-20.7989
 30
0.0
  0
SPLINE
  5
119
330
1F
100
AcDbEntity
  8
VRSTVA_1
 62
   250
100
AcDbSpline
210
0.0
220
0.0
230
1.0
 70
    11
 71
     3
 72
    20
 73
    16
 74
     0
 42
0.0000000001
 43
0.0000000001
 40
0.0
 40
0.0
 40
0.0
 40
0.0
 40
0.2
 40
0.2
 40
0.2
 40
0.2
 40
0.4
 40
0.4
 40
0.4
 40
0.4
 40
0.6
 40
0.6
 40
0.6
 40
0.6
 40
1.0
 40
1.0
 40
1.0
 40
1.0
 10
8.4753
 20
9.4376
 30
0.0
 10
8.4753
 20
9.4376
 30
0.0
 10
8.8987
 20
12.4376
 30
0.0
 10
8.8987
 20
12.4376
 30
0.0
 10
8.8987
 20
12.4376
 30
0.0
 10
8.8987
 20
12.4376
 30
0.0
 10
8.9927
 20
12.4376
 30
0.0
 10
8.9927
 20
12.4376
 30
0.0
 10
8.9927
 20
12.4376
 30
0.0
 10
8.9927
 20
12.4376
 30
0.0
 10
9.4442
 20
9.4376
 30
0.0
 10
9.4442
 20
9.4376
 30
0.0
 10
9.4442
 20
9.4376
 30
0.0
 10
9.4442
 20
9.4376
 30
0.0
 10
8.4753
 20
9.4376
 30
0.0
 10
8.4753
 20
9.4376
 30
0.0
  0
SPLINE
  5
11A
330
1F
100
AcDbEntity
  8
VRSTVA_1
 62
   250
100
AcDbSpline
210
0.0
220
0.0
230
1.0
 70
    11
 71
     3
 72
    20
 73
    16
 74
     0
 42
0.0000000001
 43
0.0000000001
 40
0.0
 40
0.0
 40
0.0
 40
0.0
 40
0.2
 40
0.2
 40
0.2
 40
0.2
 40
0.4
 40
0.4
 40
0.4
 40
0.4
 40
0.6
 40
0.6
 40
0.6
 40
0.6
 40
1.0
 40
1.0
 40
1.0
 40
1.0
 10
47.1792
 20
-17.0429
 30
0.0
 10
47.1792
 20
-17.0429
 30
0.0
 10
49.5999
 20
-15.2209
 30
0.0
 10
49.5999
 20
-15.2209
 30
0.0
 10
49.5999
 20
-15.2209
 30
0.0
 10
49.5999
 20
-15.2209
 30
0.0
 10
49.6664
 20
-15.2874
 30
0.0
 10
49.6664
 20
-15.2874
 30
0.0
 10
49.6664
 20
-15.2874
 30
0.0
 10
49.6664
 20
-15.2874
 30
0.0
 10
47.8644
 20
-17.728
 30
0.0
 10
47.8644
 20
-17.728
 30
0.0
 10
47.8644
 20
-17.728
 30
0.0
 10
47.8644
 20
-17.728
 30
0.0
 10
47.1792
 20
-17.0429
 30
0.0
 10
47.1792
 20
-17.0429
 30
0.0
  0
SPLINE
  5
11B
330
1F
100
AcDbEntity
  8
VRSTVA_1
 62
   250
100
AcDbSpline
210
0.0
220
0.0
230
1.0
 70
    11
 71
     3
 72
    20
 73
    16
 74
     0
 42
0.0000000001
 43
0.0000000001
 40
0.0
 40
0.0
 40
0.0
 40
0.0
 40
0.2
 40
0.2
 40
0.2
 40
0.2
 40
0.4
 40
0.4
 40
0.4
 40
0.4
 40
0.6
 40
0.6
 40
0.6
 40
0.6
 40
1.0
 40
1.0
 40
1.0
 40
1.0
 10
9.4351
 20
-2.1023
 30
0.0
 10
9.4351
 20
-2.1023
 30
0.0
 10
9.0117
 20
-5.1023
 30
0.0
 10
9.0117
 20
-5.1023
 30
0.0
 10
9.0117
 20
-5.1023
 30
0.0
 10
9.0117
 20
-5.1023
 30
0.0
 10
8.9177
 20
-5.1023
 30
0.0
 10
8.9177
 20
-5.1023
 30
0.0
 10
8.9177
 20
-5.1023
 30
0.0
 10
8.9177
 20
-5.1023
 30
0.0
 10
8.4662
 20
-2.1023
 30
0.0
 10
8.4662
 20
-2.1023
 30
0.0
 10
8.4662
 20
-2.1023
 30
0.0
 10
8.4662
 20
-2.1023
 30
0.0
 10
9.4351
 20
-2.1023
 30
0.0
 10
9.4351
 20
-2.1023
 30
0.0
  0
SPLINE
  5
11C
330
1F
100
AcDbEntity
  8
VRSTVA_1
 62
   250
100
AcDbSpline
210
0.0
220
0.0
230
1.0
 70
    11
 71
     3
 72
    20
 73
    16
 74
     0
 42
0.0000000001
 43
0.0000000001
 40
0.0
 40
0.0
 40
0.0
 40
0.0
 40
0.2
 40
0.2
 40
0.2
 40
0.2
 40
0.4
 40
0.4
 40
0.4
 40
0.4
 40
0.6
 40
0.6
 40
0.6
 40
0.6
 40
1.0
 40
1.0
 40
1.0
 40
1.0
 10
36.5627
 20
-28.9507
 30
0.0
 10
36.5627
 20
-28.9507
 30
0.0
 10
34.142
 20
-30.7726
 30
0.0
 10
34.142
 20
-30.7726
 30
0.0
 10
34.142
 20
-30.7726
 30
0.0
 10
34.142
 20
-30.7726
 30
0.0
 10
34.0755
 20
-30.7061
 30
0.0
 10
34.0755
 20
-30.7061
 30
0.0
 10
34.0755
 20
-30.7061
 30
0.0
 10
34.0755
 20
-30.7061
 30
0.0
 10
35.8776
 20
-28.2655
 30
0.0
 10
35.8776
 20
-28.2655
 30
0.0
 10
35.8776
 20
-28.2655
 30
0.0
 10
35.8776
 20
-28.2655
 30
0.0
 10
36.5627
 20
-28.9507
 30
0.0
 10
36.5627
 20
-28.9507
 30
0.0
  0
SPLINE
  5
11D
330
1F
100
AcDbEntity
  8
VRSTVA_1
 62
   250
100
AcDbSpline
210
0.0
220
0.0
230
1.0
 70
    24
 71
     3
 72
     8
 73
     4
 74
     0
 42
0.0000000001
 43
0.0000000001
 40
0.0
 40
0.0
 40
0.0
 40
0.0
 40
1.0
 40
1.0
 40
1.0
 40
1.0
 10
11.5751
 20
12.5284
 30
0.0
 10
11.5751
 20
12.5284
 30
0.0
 10
4.9261
 20
12.5284
 30
0.0
 10
4.9261
 20
12.5284
 30
0.0
  0
SPLINE
  5
11E
330
1F
100
AcDbEntity
  8
VRSTVA_1
 62
   250
100
AcDbSpline
210
0.0
220
0.0
230
1.0
 70
    24
 71
     3
 72
     8
 73
     4
 74
     0
 42
0.0000000001
 43
0.0000000001
 40
0.0
 40
0.0
 40
0.0
 40
0.0
 40
1.0
 40
1.0
 40
1.0
 40
1.0
 10
24.1543
 20
7.3181
 30
0.0
 10
24.1543
 20
7.3181
 30
0.0
 10
11.4542
 20
-5.382
 30
0.0
 10
11.4542
 20
-5.382
 30
0.0
  0
SPLINE
  5
11F
330
1F
100
AcDbEntity
  8
VRSTVA_1
 62
   250
100
AcDbSpline
210
0.0
220
0.0
230
1.0
 70
    24
 71
     3
 72
     8
 73
     4
 74
     0
 42
0.0000000001
 43
0.0000000001
 40
0.0
 40
0.0
 40
0.0
 40
0.0
 40
1.0
 40
1.0
 40
1.0
 40
1.0
 10
11.5751
 20
12.5285
 30
0.0
 10
11.5751
 20
12.5285
 30
0.0
 10
11.5752
 20
-5.261
 30
0.0
 10
11.5752
 20
-5.261
 30
0.0
  0
SPLINE
  5
120
330
1F
100
AcDbEntity
  8
VRSTVA_1
 62
   250
100
AcDbSpline
210
0.0
220
0.0
230
1.0
 70
    24
 71
     3
 72
     8
 73
     4
 74
     0
 42
0.0000000001
 43
0.0000000001
 40
0.0
 40
0.0
 40
0.0
 40
0.0
 40
1.0
 40
1.0
 40
1.0
 40
1.0
 10
42.5562
 20
-7.939
 30
0.0
 10
42.5562
 20
-7.939
 30
0.0
 10
58.5002
 20
-23.8831
 30
0.0
 10
58.5002
 20
-23.8831
 30
0.0
  0
SPLINE
  5
121
330
1F
100
AcDbEntity
  8
VRSTVA_1
 62
   250
100
AcDbSpline
210
0.0
220
0.0
230
1.0
 70
    24
 71
     3
 72
     8
 73
     4
 74
     0
 42
0.0000000001
 43
0.0000000001
 40
0.0
 40
0.0
 40
0.0
 40
0.0
 40
1.0
 40
1.0
 40
1.0
 40
1.0
 10
40.4177
 20
-8.9454
 30
0.0
 10
40.4177
 20
-8.9454
 30
0.0
 10
24.1543
 20
7.3181
 30
0.0
 10
24.1543
 20
7.3181
 30
0.0
  0
SPLINE
  5
122
330
1F
100
AcDbEntity
  8
VRSTVA_1
 62
   250
100
AcDbSpline
210
0.0
220
0.0
230
1.0
 70
    24
 71
     3
 72
     8
 73
     4
 74
     0
 42
0.0000000001
 43
0.0000000001
 40
0.0
 40
0.0
 40
0.0
 40
0.0
 40
1.0
 40
1.0
 40
1.0
 40
1.0
 10
11.5752
 20
-5.2609
 30
0.0
 10
11.5752
 20
-5.2609
 30
0.0
 10
4.9199
 20
-5.261
 30
0.0
 10
4.9199
 20
-5.261
 30
0.0
  0
SPLINE
  5
123
330
1F
100
AcDbEntity
  8
VRSTVA_1
 62
   250
100
AcDbSpline
210
0.0
220
0.0
230
1.0
 70
    24
 71
     3
 72
     8
 73
     4
 74
     0
 42
0.0000000001
 43
0.0000000001
 40
0.0
 40
0.0
 40
0.0
 40
0.0
 40
1.0
 40
1.0
 40
1.0
 40
1.0
 10
27.8386
 20
-21.5245
 30
0.0
 10
27.8386
 20
-21.5245
 30
0.0
 10
11.5211
 20
-5.2069
 30
0.0
 10
11.5211
 20
-5.2069
 30
0.0
  0
SPLINE
  5
124
330
1F
100
AcDbEntity
  8
VRSTVA_1
 62
   250
100
AcDbSpline
210
0.0
220
0.0
230
1.0
 70
    24
 71
     3
 72
     8
 73
     4
 74
     0
 42
0.0000000001
 43
0.0000000001
 40
0.0
 40
0.0
 40
0.0
 40
0.0
 40
1.0
 40
1.0
 40
1.0
 40
1.0
 10
25.9203
 20
-23.4428
 30
0.0
 10
25.9203
 20
-23.4428
 30
0.0
 10
42.336
 20
-7.0271
 30
0.0
 10
42.336
 20
-7.0271
 30
0.0
  0
SPLINE
  5
125
330
1F
100
AcDbEntity
  8
VRSTVA_1
 62
   250
100
AcDbSpline
210
0.0
220
0.0
230
1.0
 70
    24
 71
     3
 72
     8
 73
     4
 74
     0
 42
0.0000000001
 43
0.0000000001
 40
0.0
 40
0.0
 40
0.0
 40
0.0
 40
1.0
 40
1.0
 40
1.0
 40
1.0
 10
26.8323
 20
-23.6629
 30
0.0
 10
26.8323
 20
-23.6629
 30
0.0
 10
42.7763
 20
-39.6069
 30
0.0
 10
42.7763
 20
-39.6069
 30
0.0
  0
SPLINE
  5
126
330
1F
100
AcDbEntity
  8
VRSTVA_1
 62
   250
100
AcDbSpline
210
0.0
220
0.0
230
1.0
 70
    24
 71
     3
 72
     8
 73
     4
 74
     0
 42
0.0000000001
 43
0.0000000001
 40
0.0
 40
0.0
 40
0.0
 40
0.0
 40
1.0
 40
1.0
 40
1.0
 40
1.0
 10
26.4864
 20
-24.0088
 30
0.0
 10
26.4864
 20
-24.0088
 30
0.0
 10
42.9021
 20
-7.5931
 30
0.0
 10
42.9021
 20
-7.5931
 30
0.0
  0
SPLINE
  5
127
330
1F
100
AcDbEntity
  8
VRSTVA_1
 62
   250
100
AcDbSpline
210
0.0
220
0.0
230
1.0
 70
    24
 71
     3
 72
     8
 73
     4
 74
     0
 42
0.0000000001
 43
0.0000000001
 40
0.0
 40
0.0
 40
0.0
 40
0.0
 40
1.0
 40
1.0
 40
1.0
 40
1.0
 10
42.7763
 20
-39.6069
 30
0.0
 10
42.7763
 20
-39.6069
 30
0.0
 10
43.7198
 20
-39.6069
 30
0.0
 10
43.7198
 20
-39.6069
 30
0.0
  0
SPLINE
  5
128
330
1F
100
AcDbEntity
  8
VRSTVA_1
 62
   250
100
AcDbSpline
210
0.0
220
0.0
230
1.0
 70
    24
 71
     3
 72
     8
 73
     4
 74
     0
 42
0.0000000001
 43
0.0000000001
 40
0.0
 40
0.0
 40
0.0
 40
0.0
 40
1.0
 40
1.0
 40
1.0
 40
1.0
 10
42.7763
 20
-39.6069
 30
0.0
 10
42.7763
 20
-39.6069
 30
0.0
 10
58.5002
 20
-23.8831
 30
0.0
 10
58.5002
 20
-23.8831
 30
0.0
  0
SPLINE
  5
129
330
1F
100
AcDbEntity
  8
VRSTVA_1
 62
   250
100
AcDbSpline
210
0.0
220
0.0
230
1.0
 70
    24
 71
     3
 72
     8
 73
     4
 74
     0
 42
0.0000000001
 43
0.0000000001
 40
0.0
 40
0.0
 40
0.0
 40
0.0
 40
1.0
 40
1.0
 40
1.0
 40
1.0
 10
43.7198
 20
-39.6069
 30
0.0
 10
43.7198
 20
-39.6069
 30
0.0
 10
58.5002
 20
-24.8265
 30
0.0
 10
58.5002
 20
-24.8265
 30
0.0
  0
SPLINE
  5
12A
330
1F
100
AcDbEntity
  8
VRSTVA_1
 62
   250
100
AcDbSpline
210
0.0
220
0.0
230
1.0
 70
    24
 71
     3
 72
     8
 73
     4
 74
     0
 42
0.0000000001
 43
0.0000000001
 40
0.0
 40
0.0
 40
0.0
 40
0.0
 40
1.0
 40
1.0
 40
1.0
 40
1.0
 10
58.5002
 20
-23.8831
 30
0.0
 10
58.5002
 20
-23.8831
 30
0.0
 10
58.5002
 20
-24.8265
 30
0.0
 10
58.5002
 20
-24.8265
 30
0.0
  0
SPLINE
  5
12B
330
1F
100
AcDbEntity
  8
VRSTVA_1
 62
   250
100
AcDbSpline
210
0.0
220
0.0
230
1.0
 70
     8
 71
     3
 72
    12
 73
     8
 74
     0
 42
0.0000000001
 43
0.0000000001
 40
0.0
 40
0.0
 40
0.0
 40
0.0
 40
0.3333333333333333
 40
0.3333333333333333
 40
0.3333333333333333
 40
0.3333333333333333
 40
1.0
 40
1.0
 40
1.0
 40
1.0
 10
26.4864
 20
-24.0088
 30
0.0
 10
26.33
 20
-24.1652
 30
0.0
 10
26.0766
 20
-24.1651
 30
0.0
 10
25.9203
 20
-24.0088
 30
0.0
 10
25.9203
 20
-24.0088
 30
0.0
 10
25.764
 20
-23.8525
 30
0.0
 10
25.764
 20
-23.5991
 30
0.0
 10
25.9203
 20
-23.4428
 30
0.0
  0
SPLINE
  5
12C
330
1F
100
AcDbEntity
  8
VRSTVA_1
 62
   250
100
AcDbSpline
210
0.0
220
0.0
230
1.0
 70
     8
 71
     3
 72
    12
 73
     8
 74
     0
 42
0.0000000001
 43
0.0000000001
 40
0.0
 40
0.0
 40
0.0
 40
0.0
 40
0.3333333333333333
 40
0.3333333333333333
 40
0.3333333333333333
 40
0.3333333333333333
 40
1.0
 40
1.0
 40
1.0
 40
1.0
 10
42.336
 20
-7.0271
 30
0.0
 10
42.4923
 20
-6.8708
 30
0.0
 10
42.7458
 20
-6.8707
 30
0.0
 10
42.9021
 20
-7.0271
 30
0.0
 10
42.9021
 20
-7.0271
 30
0.0
 10
43.0584
 20
-7.1834
 30
0.0
 10
43.0584
 20
-7.4368
 30
0.0
 10
42.9021
 20
-7.5931
 30
0.0
  0
SPLINE
  5
12D
330
1F
100
AcDbEntity
  8
VRSTVA_1
 62
   250
100
AcDbSpline
210
0.0
220
0.0
230
1.0
 70
     8
 71
     3
 72
     8
 73
     4
 74
     0
 42
0.0000000001
 43
0.0000000001
 40
0.0
 40
0.0
 40
0.0
 40
0.0
 40
1.0
 40
1.0
 40
1.0
 40
1.0
 10
11.5751
 20
12.5285
 30
0.0
 10
16.2932
 20
12.5285
 30
0.0
 10
20.8181
 20
10.6542
 30
0.0
 10
24.1543
 20
7.3181
 30
0.0
  0
SPLINE
  5
12E
330
1F
100
AcDbEntity
  8
VRSTVA_1
  6
NEW_LINE4
 62
   250
100
AcDbSpline
210
0.0
220
0.0
230
1.0
 70
    24
 71
     3
 72
     8
 73
     4
 74
     0
 42
0.0000000001
 43
0.0000000001
 40
0.0
 40
0.0
 40
0.0
 40
0.0
 40
1.0
 40
1.0
 40
1.0
 40
1.0
 10
11.2395
 20
3.875
 30
0.0
 10
11.2395
 20
3.875
 30
0.0
 10
33.8614
 20
3.875
 30
0.0
 10
33.8614
 20
3.875
 30
0.0
  0
ENDSEC
  0
SECTION
  2
OBJECTS
  0
DICTIONARY
  5
C
330
0
100
AcDbDictionary
  3
ACAD_GROUP
350
D
  3
ACAD_LAYOUT
350
1A
  3
ACAD_MATERIAL
350
3B
  3
ACAD_MLEADERSTYLE
350
152
  3
ACAD_MLINESTYLE
350
17
  3
ACAD_PLOTSETTINGS
350
19
  3
ACAD_VISUALSTYLE
350
2A
  3
ACDBHEADERROUNDTRIPXREC
350
130
  3
ACDBVARIABLEDICTIONARY
350
150
  0
DICTIONARY
  5
D
102
{ACAD_REACTORS
330
C
102
}
330
C
100
AcDbDictionary
  0
DICTIONARY
  5
1A
102
{ACAD_REACTORS
330
C
102
}
330
C
100
AcDbDictionary
  0
DICTIONARY
  5
3B
102
{ACAD_REACTORS
330
C
102
}
330
C
100
AcDbDictionary
  3
BYBLOCK
350
3D
  3
BYLAYER
350
3C
  3
GLOBAL
350
3E
  0
DICTIONARY
  5
152
102
{ACAD_REACTORS
330
C
102
}
330
C
100
AcDbDictionary
  0
DICTIONARY
  5
17
102
{ACAD_REACTORS
330
C
102
}
330
C
100
AcDbDictionary
  3
STANDARD
350
18
  0
DICTIONARY
  5
19
102
{ACAD_REACTORS
330
C
102
}
330
C
100
AcDbDictionary
  0
DICTIONARY
  5
2A
102
{ACAD_REACTORS
330
C
102
}
330
C
100
AcDbDictionary
  3
2DWIREFRAME
350
2F
  3
3D_HIDDEN
350
31
  3
3DWIREFRAME
350
30
  3
BASIC
350
32
  3
BRIGHTEN
350
36
  3
COLORCHANGE
350
3A
  3
CONCEPTUAL
350
34
  3
DIM
350
35
  3
FACEPATTERN
350
39
  3
FLAT
350
2B
  3
FLATWITHEDGES
350
2C
  3
GOURAUD
350
2D
  3
GOURAUDWITHEDGES
350
2E
  3
LINEPATTERN
350
38
  3
REALISTIC
350
33
  3
THICKEN
350
37
  0
DICTIONARY
  5
130
102
{ACAD_REACTORS
330
C
102
}
330
C
100
AcDbDictionary
  3
CEPSNTYPE
350
139
  3
DIMSTYLEDATA
350
14F
  3
FINGERPRINTGUID
350
13A
  3
HYPERLINKBASE
350
133
  3
INSUNITS
350
138
  3
LAYOUTDICT
350
135
  3
LWETCUNION
350
137
  3
PLOTSETDICT
350
136
  3
PSVPSCALE
350
13C
  3
PUCSBASE
350
13F
  3
PUCSORGBACK
350
145
  3
PUCSORGBOTTOM
350
141
  3
PUCSORGFRONT
350
144
  3
PUCSORGLEFT
350
142
  3
PUCSORGRIGHT
350
143
  3
PUCSORGTOP
350
140
  3
PUCSORTHOREF
350
13D
  3
PUCSORTHOVIEW
350
13E
  3
STYLESHEET
350
134
  3
TSTACKALIGN
350
131
  3
TSTACKSIZE
350
132
  3
UCSBASE
350
148
  3
UCSORGBACK
350
14E
  3
UCSORGBOTTOM
350
14A
  3
UCSORGFRONT
350
14D
  3
UCSORGLEFT
350
14B
  3
UCSORGRIGHT
350
14C
  3
UCSORGTOP
350
149
  3
UCSORTHOREF
350
146
  3
UCSORTHOVIEW
350
147
  3
VERSIONGUID
350
13B
  0
DICTIONARY
  5
150
102
{ACAD_REACTORS
330
C
102
}
330
C
100
AcDbDictionary
  3
DIMASSOC
350
153
  3
HIDETEXT
350
154
  0
MATERIAL
  5
3D
102
{ACAD_REACTORS
330
3B
102
}
102
{ACAD_XDICTIONARY
360
157
102
}
330
3B
100
AcDbMaterial
  1
ByBlock
  0
MATERIAL
  5
3C
102
{ACAD_REACTORS
330
3B
102
}
102
{ACAD_XDICTIONARY
360
155
102
}
330
3B
100
AcDbMaterial
  1
ByLayer
  0
MATERIAL
  5
3E
102
{ACAD_REACTORS
330
3B
102
}
102
{ACAD_XDICTIONARY
360
159
102
}
330
3B
100
AcDbMaterial
  1
Global
  0
MLINESTYLE
  5
18
102
{ACAD_REACTORS
330
17
102
}
330
17
100
AcDbMlineStyle
  2
Standard
 70
     0
  3

 62
   256
 51
90.0
 52
90.0
 71
     2
 49
0.5
 62
   256
  6
BYLAYER
 49
-0.5
 62
   256
  6
BYLAYER
  0
ACAD_PROXY_OBJECT
  5
2F
102
{ACAD_REACTORS
330
2A
102
}
330
2A
100
AcDbProxyObject
 90
      499
 91
      501
 93
      436
310
42CC9915DA5C99599C985B595049028333333333333E3BF0000000000000FB0107901411070040501600405405064090741402480A0340
1001
ACAD
1000
AcDbSavedByObjectVersion
1070
     0
  0
ACAD_PROXY_OBJECT
  5
31
102
{ACAD_REACTORS
330
2A
102
}
330
2A
100
AcDbProxyObject
 90
      499
 91
      501
 93
      500
310
424CD108121A5919195B90640502408333333333333E3BF0000000000000FB01079024090700405020000000000001110200405405064090740C02480A0340
1001
ACAD
1000
AcDbSavedByObjectVersion
1070
     0
  0
ACAD_PROXY_OBJECT
  5
30
102
{ACAD_REACTORS
330
2A
102
}
330
2A
100
AcDbProxyObject
 90
      499
 91
      501
 93
      436
310
42CCD915DA5C99599C985B595059028333333333333E3BF0000000000000FB0107901411070040501600405405064090741402480A0340
1001
ACAD
1000
AcDbSavedByObjectVersion
1070
     0
  0
ACAD_PROXY_OBJECT
  5
32
102
{ACAD_REACTORS
330
2A
102
}
330
2A
100
AcDbProxyObject
 90
      499
 91
      501
 93
      388
310
4150985CDA58D07406404333333333333E3BF0000000000000FB0107A41107004050150841D405064090741402480A0350
1001
ACAD
1000
AcDbSavedByObjectVersion
1070
     0
  0
ACAD_PROXY_OBJECT
  5
36
102
{ACAD_REACTORS
330
2A
102
}
330
2A
100
AcDbProxyObject
 90
      499
 91
      501
 93
      428
310
42109C9A59DA1D195B90C409028333333333333E3BF0000000000000FB010790141107004050150841D405064090741402480A029950
1001
ACAD
1000
AcDbSavedByObjectVersion
1070
     0
  0
ACAD_PROXY_OBJECT
  5
3A
102
{ACAD_REACTORS
330
2A
102
}
330
2A
100
AcDbProxyObject
 90
      499
 91
      501
 93
      452
310
42D0DBDB1BDC90DA185B99D95104090240C333333333333E3BF0000000000000FB0108901411070040501508421405064090741402480A0350
1001
ACAD
1000
AcDbSavedByObjectVersion
1070
     0
  0
ACAD_PROXY_OBJECT
  5
34
102
{ACAD_REACTORS
330
2A
102
}
330
2A
100
AcDbProxyObject
 90
      499
 91
      501
 93
      500
310
4290DBDB98D95C1D1D585B10940D028333333333333E3BF0000000000000FB0107902409070040501000000000000111010841D405064090740C02480A0340
1001
ACAD
1000
AcDbSavedByObjectVersion
1070
     0
  0
ACAD_PROXY_OBJECT
  5
35
102
{ACAD_REACTORS
330
2A
102
}
330
2A
100
AcDbProxyObject
 90
      499
 91
      501
 93
      412
310
40D11A5B50B409028333333333333E3BF0000000000000FB010790141107004050150841D405064090741402480A02677FFFFFD0
1001
ACAD
1000
AcDbSavedByObjectVersion
1070
     0
  0
ACAD_PROXY_OBJECT
  5
39
102
{ACAD_REACTORS
330
2A
102
}
330
2A
100
AcDbProxyObject
 90
      499
 91
      501
 93
      444
310
42D19858D95C185D1D195C9B90F409028333333333333E3BF0000000000000FB010790141107004050150841D405064090741402480A0350
1001
ACAD
1000
AcDbSavedByObjectVersion
1070
     0
  0
ACAD_PROXY_OBJECT
  5
2B
102
{ACAD_REACTORS
330
2A
102
}
330
2A
100
AcDbProxyObject
 90
      499
 91
      501
 93
      388
310
41119B185D240901404333333333333E3BF0000000000000F9010740A41107004050150841D405064090741402480A1B50
1001
ACAD
1000
AcDbSavedByObjectVersion
1070
     0
  0
ACAD_PROXY_OBJECT
  5
2C
102
{ACAD_REACTORS
330
2A
102
}
330
2A
100
AcDbProxyObject
 90
      499
 91
      501
 93
      476
310
43519B185D15DA5D1A115919D95CD0140901404333333333333E3BF0000000000000F9010740901411070040501600405405064090741402480A1B50
1001
ACAD
1000
AcDbSavedByObjectVersion
1070
     0
  0
ACAD_PROXY_OBJECT
  5
2D
102
{ACAD_REACTORS
330
2A
102
}
330
2A
100
AcDbProxyObject
 90
      499
 91
      501
 93
      412
310
41D1DBDD5C985D5910240902404333333333333E3BF0000000000000F9010740A411070040501641D405064090741402480A1B50
1001
ACAD
1000
AcDbSavedByObjectVersion
1070
     0
  0
ACAD_PROXY_OBJECT
  5
2E
102
{ACAD_REACTORS
330
2A
102
}
330
2A
100
AcDbProxyObject
 90
      499
 91
      501
 93
      500
310
4411DBDD5C985D5915DA5D1A115919D95CD0340902404333333333333E3BF0000000000000F9010740901411070040501600405405064090741402480A1B50
1001
ACAD
1000
AcDbSavedByObjectVersion
1070
     0
  0
ACAD_PROXY_OBJECT
  5
38
102
{ACAD_REACTORS
330
2A
102
}
330
2A
100
AcDbProxyObject
 90
      499
 91
      501
 93
      444
310
42D31A5B995C185D1D195C9B90E409028333333333333E3BF0000000000000FB010790141107004050750841D405064090741402483A0350
1001
ACAD
1000
AcDbSavedByObjectVersion
1070
     0
  0
ACAD_PROXY_OBJECT
  5
33
102
{ACAD_REACTORS
330
2A
102
}
330
2A
100
AcDbProxyObject
 90
      499
 91
      501
 93
      420
310
425499585B1A5CDD1A58D08409028333333333333E3BF0000000000000FB01079019070040501508421405064090741402480A1B40
1001
ACAD
1000
AcDbSavedByObjectVersion
1070
     0
  0
ACAD_PROXY_OBJECT
  5
37
102
{ACAD_REACTORS
330
2A
102
}
330
2A
100
AcDbProxyObject
 90
      499
 91
      501
 93
      412
310
41D51A1A58DAD95B90D409028333333333333E3BF0000000000000FB010790141107004050150C41D405064090741402480A0350
1001
ACAD
1000
AcDbSavedByObjectVersion
1070
     0
  0
XRECORD
  5
139
102
{ACAD_REACTORS
330
130
102
}
330
130
100
AcDbXrecord
 90
        0
  0
XRECORD
  5
14F
102
{ACAD_REACTORS
330
130
102
}
330
130
100
AcDbXrecord
1000
DSTYLE
1002
{
1070
   340
340
11
1002
}
  0
XRECORD
  5
13A
102
{ACAD_REACTORS
330
130
102
}
330
130
100
AcDbXrecord
  1
{D9E1A788-A6E1-4A2F-8E82-5EFFCC19EB18}
  0
XRECORD
  5
133
102
{ACAD_REACTORS
330
130
102
}
330
130
100
AcDbXrecord
  1

  0
XRECORD
  5
138
102
{ACAD_REACTORS
330
130
102
}
330
130
100
AcDbXrecord
 90
        4
  0
XRECORD
  5
135
102
{ACAD_REACTORS
330
130
102
}
330
130
100
AcDbXrecord
340
1A
  0
XRECORD
  5
137
102
{ACAD_REACTORS
330
130
102
}
330
130
100
AcDbXrecord
 90
    10781
  0
XRECORD
  5
136
102
{ACAD_REACTORS
330
130
102
}
330
130
100
AcDbXrecord
340
19
  0
XRECORD
  5
13C
102
{ACAD_REACTORS
330
130
102
}
330
130
100
AcDbXrecord
 40
0.0
  0
XRECORD
  5
13F
102
{ACAD_REACTORS
330
130
102
}
330
130
100
AcDbXrecord
340
0
  0
XRECORD
  5
145
102
{ACAD_REACTORS
330
130
102
}
330
130
100
AcDbXrecord
 10
0.0
 20
0.0
 30
0.0
  0
XRECORD
  5
141
102
{ACAD_REACTORS
330
130
102
}
330
130
100
AcDbXrecord
 10
0.0
 20
0.0
 30
0.0
  0
XRECORD
  5
144
102
{ACAD_REACTORS
330
130
102
}
330
130
100
AcDbXrecord
 10
0.0
 20
0.0
 30
0.0
  0
XRECORD
  5
142
102
{ACAD_REACTORS
330
130
102
}
330
130
100
AcDbXrecord
 10
0.0
 20
0.0
 30
0.0
  0
XRECORD
  5
143
102
{ACAD_REACTORS
330
130
102
}
330
130
100
AcDbXrecord
 10
0.0
 20
0.0
 30
0.0
  0
XRECORD
  5
140
102
{ACAD_REACTORS
330
130
102
}
330
130
100
AcDbXrecord
 10
0.0
 20
0.0
 30
0.0
  0
XRECORD
  5
13D
102
{ACAD_REACTORS
330
130
102
}
330
130
100
AcDbXrecord
340
0
  0
XRECORD
  5
13E
102
{ACAD_REACTORS
330
130
102
}
330
130
100
AcDbXrecord
 70
     0
  0
XRECORD
  5
134
102
{ACAD_REACTORS
330
130
102
}
330
130
100
AcDbXrecord
  1

  0
XRECORD
  5
131
102
{ACAD_REACTORS
330
130
102
}
330
130
100
AcDbXrecord
 90
        1
  0
XRECORD
  5
132
102
{ACAD_REACTORS
330
130
102
}
330
130
100
AcDbXrecord
 90
       70
  0
XRECORD
  5
148
102
{ACAD_REACTORS
330
130
102
}
330
130
100
AcDbXrecord
340
0
  0
XRECORD
  5
14E
102
{ACAD_REACTORS
330
130
102
}
330
130
100
AcDbXrecord
 10
0.0
 20
0.0
 30
0.0
  0
XRECORD
  5
14A
102
{ACAD_REACTORS
330
130
102
}
330
130
100
AcDbXrecord
 10
0.0
 20
0.0
 30
0.0
  0
XRECORD
  5
14D
102
{ACAD_REACTORS
330
130
102
}
330
130
100
AcDbXrecord
 10
0.0
 20
0.0
 30
0.0
  0
XRECORD
  5
14B
102
{ACAD_REACTORS
330
130
102
}
330
130
100
AcDbXrecord
 10
0.0
 20
0.0
 30
0.0
  0
XRECORD
  5
14C
102
{ACAD_REACTORS
330
130
102
}
330
130
100
AcDbXrecord
 10
0.0
 20
0.0
 30
0.0
  0
XRECORD
  5
149
102
{ACAD_REACTORS
330
130
102
}
330
130
100
AcDbXrecord
 10
0.0
 20
0.0
 30
0.0
  0
XRECORD
  5
146
102
{ACAD_REACTORS
330
130
102
}
330
130
100
AcDbXrecord
340
0
  0
XRECORD
  5
147
102
{ACAD_REACTORS
330
130
102
}
330
130
100
AcDbXrecord
 70
     0
  0
XRECORD
  5
13B
102
{ACAD_REACTORS
330
130
102
}
330
130
100
AcDbXrecord
  1
{FAEB1C32-E019-11D5-929B-00C0DF256EC4}
  0
DICTIONARYVAR
  5
153
102
{ACAD_REACTORS
330
150
102
}
330
150
100
DictionaryVariables
280
     0
  1
2
  0
DICTIONARYVAR
  5
154
102
{ACAD_REACTORS
330
150
102
}
330
150
100
DictionaryVariables
280
     0
  1
1
  0
DICTIONARY
  5
157
330
3D
100
AcDbDictionary
280
     1
  3
ACAD_XREC_ROUNDTRIP
360
158
  0
DICTIONARY
  5
155
330
3C
100
AcDbDictionary
280
     1
  3
ACAD_XREC_ROUNDTRIP
360
156
  0
DICTIONARY
  5
159
330
3E
100
AcDbDictionary
280
     1
  3
ACAD_XREC_ROUNDTRIP
360
15A
  0
XRECORD
  5
158
102
{ACAD_REACTORS
330
157
102
}
330
157
100
AcDbXrecord
102
MATERIAL
148
0.0
149
0.0
149
0.0
 93
        0
 94
      127
282
     0
 72
     1
 77
     1
171
     1
175
     1
179
     1
273
     0
  0
XRECORD
  5
156
102
{ACAD_REACTORS
330
155
102
}
330
155
100
AcDbXrecord
102
MATERIAL
148
0.0
149
0.0
149
0.0
 93
        0
 94
      127
282
     0
 72
     1
 77
     1
171
     1
175
     1
179
     1
273
     0
  0
XRECORD
  5
15A
102
{ACAD_REACTORS
330
159
102
}
330
159
100
AcDbXrecord
102
MATERIAL
148
0.0
149
0.0
149
0.0
 93
        0
 94
      127
282
     0
 72
     1
 77
     1
171
     1
175
     1
179
     1
273
     0
  0
ENDSEC
  0
EOF
