  0
SECTION
  2
HEADER
  9
$ACADVER
  1
AC1014
  9
$ACADMAINTVER
 70
     9
  9
$DWGCODEPAGE
  3
ANSI_1250
  9
$INSBASE
 10
0.0
 20
0.0
 30
0.0
  9
$EXTMIN
 10
-16.5401
 20
-29.4366
 30
0.0
  9
$EXTMAX
 10
16.6748
 20
30.5199
 30
0.0
  9
$LIMMIN
 10
0.0
 20
0.0
  9
$LIMMAX
 10
12.0
 20
9.0
  9
$ORTHOMODE
 70
     0
  9
$REGENMODE
 70
     1
  9
$FILLMODE
 70
     1
  9
$QTEXTMODE
 70
     0
  9
$MIRRTEXT
 70
     1
  9
$DRAGMODE
 70
     2
  9
$LTSCALE
 40
1.0
  9
$OSMODE
 70
    37
  9
$ATTMODE
 70
     1
  9
$TEXTSIZE
 40
0.2
  9
$TRACEWID
 40
0.05
  9
$TEXTSTYLE
  7
STANDARD
  9
$CLAYER
  8
0
  9
$CELTYPE
  6
BYLAYER
  9
$CECOLOR
 62
   256
  9
$CELTSCALE
 40
1.0
  9
$DELOBJ
 70
     1
  9
$DISPSILH
 70
     0
  9
$DIMSCALE
 40
1.0
  9
$DIMASZ
 40
0.18
  9
$DIMEXO
 40
0.0625
  9
$DIMDLI
 40
0.38
  9
$DIMRND
 40
0.0
  9
$DIMDLE
 40
0.0
  9
$DIMEXE
 40
0.18
  9
$DIMTP
 40
0.0
  9
$DIMTM
 40
0.0
  9
$DIMTXT
 40
0.18
  9
$DIMCEN
 40
0.09
  9
$DIMTSZ
 40
0.0
  9
$DIMTOL
 70
     0
  9
$DIMLIM
 70
     0
  9
$DIMTIH
 70
     1
  9
$DIMTOH
 70
     1
  9
$DIMSE1
 70
     0
  9
$DIMSE2
 70
     0
  9
$DIMTAD
 70
     0
  9
$DIMZIN
 70
     0
  9
$DIMBLK
  1

  9
$DIMASO
 70
     1
  9
$DIMSHO
 70
     1
  9
$DIMPOST
  1

  9
$DIMAPOST
  1

  9
$DIMALT
 70
     0
  9
$DIMALTD
 70
     2
  9
$DIMALTF
 40
25.4
  9
$DIMLFAC
 40
1.0
  9
$DIMTOFL
 70
     0
  9
$DIMTVP
 40
0.0
  9
$DIMTIX
 70
     0
  9
$DIMSOXD
 70
     0
  9
$DIMSAH
 70
     0
  9
$DIMBLK1
  1

  9
$DIMBLK2
  1

  9
$DIMSTYLE
  2
STANDARD
  9
$DIMCLRD
 70
     0
  9
$DIMCLRE
 70
     0
  9
$DIMCLRT
 70
     0
  9
$DIMTFAC
 40
1.0
  9
$DIMGAP
 40
0.09
  9
$DIMJUST
 70
     0
  9
$DIMSD1
 70
     0
  9
$DIMSD2
 70
     0
  9
$DIMTOLJ
 70
     1
  9
$DIMTZIN
 70
     0
  9
$DIMALTZ
 70
     0
  9
$DIMALTTZ
 70
     0
  9
$DIMFIT
 70
     3
  9
$DIMUPT
 70
     0
  9
$DIMUNIT
 70
     2
  9
$DIMDEC
 70
     4
  9
$DIMTDEC
 70
     4
  9
$DIMALTU
 70
     2
  9
$DIMALTTD
 70
     2
  9
$DIMTXSTY
  7
STANDARD
  9
$DIMAUNIT
 70
     0
  9
$LUNITS
 70
     2
  9
$LUPREC
 70
     4
  9
$SKETCHINC
 40
0.1
  9
$FILLETRAD
 40
0.5
  9
$AUNITS
 70
     0
  9
$AUPREC
 70
     0
  9
$MENU
  1
.
  9
$ELEVATION
 40
0.0
  9
$PELEVATION
 40
0.0
  9
$THICKNESS
 40
0.0
  9
$LIMCHECK
 70
     0
  9
$CHAMFERA
 40
0.5
  9
$CHAMFERB
 40
0.5
  9
$CHAMFERC
 40
1.0
  9
$CHAMFERD
 40
0.0
  9
$SKPOLY
 70
     0
  9
$TDCREATE
 40
2456266.362404676
  9
$TDUPDATE
 40
2456266.362404687
  9
$TDINDWG
 40
0.0000000116
  9
$TDUSRTIMER
 40
0.0000000116
  9
$USRTIMER
 70
     1
  9
$ANGBASE
 50
0.0
  9
$ANGDIR
 70
     0
  9
$PDMODE
 70
     0
  9
$PDSIZE
 40
0.0
  9
$PLINEWID
 40
0.0
  9
$COORDS
 70
     1
  9
$SPLFRAME
 70
     0
  9
$SPLINETYPE
 70
     6
  9
$SPLINESEGS
 70
     8
  9
$ATTDIA
 70
     0
  9
$ATTREQ
 70
     1
  9
$HANDLING
 70
     1
  9
$HANDSEED
  5
152
  9
$SURFTAB1
 70
     6
  9
$SURFTAB2
 70
     6
  9
$SURFTYPE
 70
     6
  9
$SURFU
 70
     6
  9
$SURFV
 70
     6
  9
$UCSNAME
  2

  9
$UCSORG
 10
0.0
 20
0.0
 30
0.0
  9
$UCSXDIR
 10
1.0
 20
0.0
 30
0.0
  9
$UCSYDIR
 10
0.0
 20
1.0
 30
0.0
  9
$PUCSNAME
  2

  9
$PUCSORG
 10
0.0
 20
0.0
 30
0.0
  9
$PUCSXDIR
 10
1.0
 20
0.0
 30
0.0
  9
$PUCSYDIR
 10
0.0
 20
1.0
 30
0.0
  9
$USERI1
 70
     0
  9
$USERI2
 70
     0
  9
$USERI3
 70
     0
  9
$USERI4
 70
     0
  9
$USERI5
 70
     0
  9
$USERR1
 40
0.0
  9
$USERR2
 40
0.0
  9
$USERR3
 40
0.0
  9
$USERR4
 40
0.0
  9
$USERR5
 40
0.0
  9
$WORLDVIEW
 70
     1
  9
$SHADEDGE
 70
     3
  9
$SHADEDIF
 70
    70
  9
$TILEMODE
 70
     1
  9
$MAXACTVP
 70
    64
  9
$PINSBASE
 10
0.0
 20
0.0
 30
0.0
  9
$PLIMCHECK
 70
     0
  9
$PEXTMIN
 10
1.000000000000000E+20
 20
1.000000000000000E+20
 30
1.000000000000000E+20
  9
$PEXTMAX
 10
-1.000000000000000E+20
 20
-1.000000000000000E+20
 30
-1.000000000000000E+20
  9
$PLIMMIN
 10
0.0
 20
0.0
  9
$PLIMMAX
 10
12.0
 20
9.0
  9
$UNITMODE
 70
     0
  9
$VISRETAIN
 70
     1
  9
$PLINEGEN
 70
     0
  9
$PSLTSCALE
 70
     1
  9
$TREEDEPTH
 70
  3020
  9
$PICKSTYLE
 70
     1
  9
$CMLSTYLE
  2
STANDARD
  9
$CMLJUST
 70
     0
  9
$CMLSCALE
 40
1.0
  9
$PROXYGRAPHICS
 70
     1
  9
$MEASUREMENT
 70
     0
  0
ENDSEC
  0
SECTION
  2
CLASSES
  0
CLASS
  1
ACDBDICTIONARYWDFLT
  2
AcDbDictionaryWithDefault
  3
ObjectDBX Classes
 90
        0
280
     0
281
     0
  0
CLASS
  1
VISUALSTYLE
  2
AcDbVisualStyle
  3
ObjectDBX Classes
 90
     4095
280
     0
281
     0
  0
CLASS
  1
MATERIAL
  2
AcDbMaterial
  3
ObjectDBX Classes
 90
     1153
280
     0
281
     0
  0
CLASS
  1
DICTIONARYVAR
  2
AcDbDictionaryVar
  3
ObjectDBX Classes
 90
        0
280
     0
281
     0
  0
CLASS
  1
XRECORD
  2
AcDbXrecord
  3
AutoCAD 2000
 90
        0
280
     0
281
     0
  0
CLASS
  1
LWPOLYLINE
  2
AcDbPolyline
  3
AutoCAD 2000
 90
        0
280
     0
281
     1
  0
CLASS
  1
HATCH
  2
AcDbHatch
  3
AutoCAD 2000
 90
        0
280
     0
281
     1
  0
CLASS
  1
ACDBPLACEHOLDER
  2
AcDbPlaceHolder
  3
ObjectDBX Classes
 90
        0
280
     0
281
     0
  0
CLASS
  1
LAYOUT
  2
AcDbLayout
  3
ObjectDBX Classes
 90
        0
280
     0
281
     0
  0
ENDSEC
  0
SECTION
  2
TABLES
  0
TABLE
  2
VPORT
  5
8
330
0
100
AcDbSymbolTable
 70
     1
  0
VPORT
  5
29
330
8
100
AcDbSymbolTableRecord
100
AcDbViewportTableRecord
  2
*ACTIVE
 70
     0
 10
0.0
 20
0.0
 11
1.0
 21
1.0
 12
10.42990654205607
 22
4.5
 13
0.0
 23
0.0
 14
0.5
 24
0.5
 15
0.5
 25
0.5
 16
0.0
 26
0.0
 36
1.0
 17
0.0
 27
0.0
 37
0.0
 40
9.0
 41
1.972972972850329
 42
50.0
 43
0.0
 44
0.0
 50
0.0
 51
0.0
 71
     0
 72
   100
 73
     1
 74
     3
 75
     0
 76
     0
 77
     0
 78
     0
  0
ENDTAB
  0
TABLE
  2
LTYPE
  5
5
330
0
100
AcDbSymbolTable
 70
     3
  0
LTYPE
  5
14
330
5
100
AcDbSymbolTableRecord
100
AcDbLinetypeTableRecord
  2
BYBLOCK
 70
     0
  3

 72
    65
 73
     0
 40
0.0
  0
LTYPE
  5
15
330
5
100
AcDbSymbolTableRecord
100
AcDbLinetypeTableRecord
  2
BYLAYER
 70
     0
  3

 72
    65
 73
     0
 40
0.0
  0
LTYPE
  5
16
330
5
100
AcDbSymbolTableRecord
100
AcDbLinetypeTableRecord
  2
CONTINUOUS
 70
     0
  3
Solid line
 72
    65
 73
     0
 40
0.0
  0
LTYPE
  5
4B
330
5
100
AcDbSymbolTableRecord
100
AcDbLinetypeTableRecord
  2
NEW_LINE1
 70
     0
  3

 72
    65
 73
     4
 40
1.2
 49
0.5
 74
     4
 75
     0
340
0
 46
1.0
 50
0.0
 44
0.0
 45
0.0
 49
-0.3
 74
     4
 75
     0
340
0
 46
1.0
 50
0.0
 44
0.0
 45
0.0
 49
0.1
 74
     4
 75
     0
340
0
 46
1.0
 50
0.0
 44
0.0
 45
0.0
 49
-0.3
 74
     4
 75
     0
340
0
 46
1.0
 50
0.0
 44
0.0
 45
0.0
  0
LTYPE
  5
4D
330
5
100
AcDbSymbolTableRecord
100
AcDbLinetypeTableRecord
  2
NEW_LINE2
 70
     0
  3

 72
    65
 73
     4
 40
1.2
 49
0.5
 74
     4
 75
     0
340
0
 46
1.0
 50
0.0
 44
0.0
 45
0.0
 49
-0.3
 74
     4
 75
     0
340
0
 46
1.0
 50
0.0
 44
0.0
 45
0.0
 49
0.1
 74
     4
 75
     0
340
0
 46
1.0
 50
0.0
 44
0.0
 45
0.0
 49
-0.3
 74
     4
 75
     0
340
0
 46
1.0
 50
0.0
 44
0.0
 45
0.0
  0
ENDTAB
  0
TABLE
  2
LAYER
  5
2
330
0
100
AcDbSymbolTable
 70
     2
  0
LAYER
  5
10
330
2
100
AcDbSymbolTableRecord
100
AcDbLayerTableRecord
  2
0
 70
     0
 62
     7
  6
CONTINUOUS
  0
LAYER
  5
40
330
2
100
AcDbSymbolTableRecord
100
AcDbLayerTableRecord
  2
DEFAULT_1
 70
     0
 62
     7
  6
CONTINUOUS
  0
ENDTAB
  0
TABLE
  2
STYLE
  5
3
330
0
100
AcDbSymbolTable
 70
     1
  0
STYLE
  5
11
330
3
100
AcDbSymbolTableRecord
100
AcDbTextStyleTableRecord
  2
STANDARD
 70
     0
 40
0.0
 41
1.0
 50
0.0
 71
     0
 42
0.2
  3
txt
  4

  0
ENDTAB
  0
TABLE
  2
VIEW
  5
6
330
0
100
AcDbSymbolTable
 70
     0
  0
ENDTAB
  0
TABLE
  2
UCS
  5
7
330
0
100
AcDbSymbolTable
 70
     0
  0
ENDTAB
  0
TABLE
  2
APPID
  5
9
330
0
100
AcDbSymbolTable
 70
     2
  0
APPID
  5
12
330
9
100
AcDbSymbolTableRecord
100
AcDbRegAppTableRecord
  2
ACAD
 70
     0
  0
APPID
  5
3F
330
9
100
AcDbSymbolTableRecord
100
AcDbRegAppTableRecord
  2
ODA
 70
     0
  0
ENDTAB
  0
TABLE
  2
DIMSTYLE
  5
A
330
0
100
AcDbSymbolTable
 70
     1
  0
DIMSTYLE
105
27
330
A
100
AcDbSymbolTableRecord
100
AcDbDimStyleTableRecord
  2
STANDARD
 70
     0
  3

  4

  5

  6

  7

 40
1.0
 41
0.18
 42
0.0625
 43
0.38
 44
0.18
 45
0.0
 46
0.0
 47
0.0
 48
0.0
140
0.18
141
0.09
142
0.0
143
25.4
144
1.0
145
0.0
146
1.0
147
0.09
 71
     0
 72
     0
 73
     1
 74
     1
 75
     0
 76
     0
 77
     0
 78
     0
170
     0
171
     2
172
     0
173
     0
174
     0
175
     0
176
     0
177
     0
178
     0
270
     2
271
     4
272
     4
273
     2
274
     2
340
11
275
     0
280
     0
281
     0
282
     0
283
     1
284
     0
285
     0
286
     0
287
     3
288
     0
  0
ENDTAB
  0
TABLE
  2
BLOCK_RECORD
  5
1
330
0
100
AcDbSymbolTable
 70
     1
  0
BLOCK_RECORD
  5
1F
330
1
100
AcDbSymbolTableRecord
100
AcDbBlockTableRecord
  2
*MODEL_SPACE
  0
BLOCK_RECORD
  5
1B
330
1
100
AcDbSymbolTableRecord
100
AcDbBlockTableRecord
  2
*PAPER_SPACE
  0
ENDTAB
  0
ENDSEC
  0
SECTION
  2
BLOCKS
  0
BLOCK
  5
20
330
1F
100
AcDbEntity
  8
0
100
AcDbBlockBegin
  2
*MODEL_SPACE
 70
     0
 10
0.0
 20
0.0
 30
0.0
  3
*MODEL_SPACE
  1

  0
ENDBLK
  5
21
330
1F
100
AcDbEntity
  8
0
100
AcDbBlockEnd
  0
BLOCK
  5
1C
330
1B
100
AcDbEntity
 67
     1
  8
0
100
AcDbBlockBegin
  2
*PAPER_SPACE
 70
     0
 10
0.0
 20
0.0
 30
0.0
  3
*PAPER_SPACE
  1

  0
ENDBLK
  5
1D
330
1B
100
AcDbEntity
 67
     1
  8
0
100
AcDbBlockEnd
  0
ENDSEC
  0
SECTION
  2
ENTITIES
  0
SPLINE
  5
41
330
1F
100
AcDbEntity
  8
DEFAULT_1
 62
   250
100
AcDbSpline
210
0.0
220
0.0
230
1.0
 70
    24
 71
     3
 72
     8
 73
     4
 74
     0
 42
0.0000000001
 43
0.0000000001
 40
0.0
 40
0.0
 40
0.0
 40
0.0
 40
1.0
 40
1.0
 40
1.0
 40
1.0
 10
-1.1916
 20
-12.1671
 30
0.0
 10
-1.1916
 20
-12.1671
 30
0.0
 10
-14.1887
 20
-12.1671
 30
0.0
 10
-14.1887
 20
-12.1671
 30
0.0
  0
SPLINE
  5
42
330
1F
100
AcDbEntity
  8
DEFAULT_1
 62
   250
100
AcDbSpline
210
0.0
220
0.0
230
1.0
 70
    24
 71
     3
 72
     8
 73
     4
 74
     0
 42
0.0000000001
 43
0.0000000001
 40
0.0
 40
0.0
 40
0.0
 40
0.0
 40
1.0
 40
1.0
 40
1.0
 40
1.0
 10
-13.5954
 20
-11.5601
 30
0.0
 10
-13.5954
 20
-11.5601
 30
0.0
 10
-13.5954
 20
14.8198
 30
0.0
 10
-13.5954
 20
14.8198
 30
0.0
  0
SPLINE
  5
43
330
1F
100
AcDbEntity
  8
DEFAULT_1
 62
   250
100
AcDbSpline
210
0.0
220
0.0
230
1.0
 70
    24
 71
     3
 72
     8
 73
     4
 74
     0
 42
0.0000000001
 43
0.0000000001
 40
0.0
 40
0.0
 40
0.0
 40
0.0
 40
1.0
 40
1.0
 40
1.0
 40
1.0
 10
4.8415
 20
-0.5964
 30
0.0
 10
4.8415
 20
-0.5964
 30
0.0
 10
-10.2745
 20
-0.5964
 30
0.0
 10
-10.2745
 20
-0.5964
 30
0.0
  0
SPLINE
  5
44
330
1F
100
AcDbEntity
  8
DEFAULT_1
 62
   250
100
AcDbSpline
210
0.0
220
0.0
230
1.0
 70
    24
 71
     3
 72
     8
 73
     4
 74
     0
 42
0.0000000001
 43
0.0000000001
 40
0.0
 40
0.0
 40
0.0
 40
0.0
 40
1.0
 40
1.0
 40
1.0
 40
1.0
 10
2.1548
 20
-0.6037
 30
0.0
 10
2.1548
 20
-0.6037
 30
0.0
 10
4.1153
 20
-0.3097
 30
0.0
 10
4.1153
 20
-0.3097
 30
0.0
  0
SPLINE
  5
45
330
1F
100
AcDbEntity
  8
DEFAULT_1
 62
   250
100
AcDbSpline
210
0.0
220
0.0
230
1.0
 70
     8
 71
     3
 72
    12
 73
     8
 74
     0
 42
0.0000000001
 43
0.0000000001
 40
0.0
 40
0.0
 40
0.0
 40
0.0
 40
0.3333333333333333
 40
0.3333333333333333
 40
0.3333333333333333
 40
0.3333333333333333
 40
1.0
 40
1.0
 40
1.0
 40
1.0
 10
4.1153
 20
-0.3097
 30
0.0
 10
4.1153
 20
-0.3097
 30
0.0
 10
4.1153
 20
-0.8977
 30
0.0
 10
4.1153
 20
-0.8977
 30
0.0
 10
4.1153
 20
-0.8977
 30
0.0
 10
4.1153
 20
-0.8977
 30
0.0
 10
2.1548
 20
-0.6037
 30
0.0
 10
2.1548
 20
-0.6037
 30
0.0
  0
SPLINE
  5
46
330
1F
100
AcDbEntity
  8
DEFAULT_1
 62
   250
100
AcDbSpline
210
0.0
220
0.0
230
1.0
 70
    24
 71
     3
 72
     8
 73
     4
 74
     0
 42
0.0000000001
 43
0.0000000001
 40
0.0
 40
0.0
 40
0.0
 40
0.0
 40
1.0
 40
1.0
 40
1.0
 40
1.0
 10
-3.857
 20
-0.5898
 30
0.0
 10
-3.857
 20
-0.5898
 30
0.0
 10
-5.8175
 20
-0.8838
 30
0.0
 10
-5.8175
 20
-0.8838
 30
0.0
  0
SPLINE
  5
47
330
1F
100
AcDbEntity
  8
DEFAULT_1
 62
   250
100
AcDbSpline
210
0.0
220
0.0
230
1.0
 70
     8
 71
     3
 72
    12
 73
     8
 74
     0
 42
0.0000000001
 43
0.0000000001
 40
0.0
 40
0.0
 40
0.0
 40
0.0
 40
0.3333333333333333
 40
0.3333333333333333
 40
0.3333333333333333
 40
0.3333333333333333
 40
1.0
 40
1.0
 40
1.0
 40
1.0
 10
-5.8175
 20
-0.8838
 30
0.0
 10
-5.8175
 20
-0.8838
 30
0.0
 10
-5.8175
 20
-0.2958
 30
0.0
 10
-5.8175
 20
-0.2958
 30
0.0
 10
-5.8175
 20
-0.2958
 30
0.0
 10
-5.8175
 20
-0.2958
 30
0.0
 10
-3.857
 20
-0.5898
 30
0.0
 10
-3.857
 20
-0.5898
 30
0.0
  0
SPLINE
  5
48
330
1F
100
AcDbEntity
  8
DEFAULT_1
 62
   250
100
AcDbSpline
210
0.0
220
0.0
230
1.0
 70
    24
 71
     3
 72
     8
 73
     4
 74
     0
 42
0.0000000001
 43
0.0000000001
 40
0.0
 40
0.0
 40
0.0
 40
0.0
 40
1.0
 40
1.0
 40
1.0
 40
1.0
 10
-3.826
 20
8.3112
 30
0.0
 10
-3.826
 20
8.3112
 30
0.0
 10
-3.826
 20
-3.9466
 30
0.0
 10
-3.826
 20
-3.9466
 30
0.0
  0
SPLINE
  5
49
330
1F
100
AcDbEntity
  8
DEFAULT_1
 62
   250
100
AcDbSpline
210
0.0
220
0.0
230
1.0
 70
    24
 71
     3
 72
     8
 73
     4
 74
     0
 42
0.0000000001
 43
0.0000000001
 40
0.0
 40
0.0
 40
0.0
 40
0.0
 40
1.0
 40
1.0
 40
1.0
 40
1.0
 10
2.153
 20
2.418
 30
0.0
 10
2.153
 20
2.418
 30
0.0
 10
2.153
 20
-3.9467
 30
0.0
 10
2.153
 20
-3.9467
 30
0.0
  0
SPLINE
  5
4A
330
1F
100
AcDbEntity
  8
DEFAULT_1
  6
NEW_LINE1
 62
   250
100
AcDbSpline
210
0.0
220
0.0
230
1.0
 70
    24
 71
     3
 72
     8
 73
     4
 74
     0
 42
0.0000000001
 43
0.0000000001
 40
0.0
 40
0.0
 40
0.0
 40
0.0
 40
1.0
 40
1.0
 40
1.0
 40
1.0
 10
-0.8364
 20
-29.4366
 30
0.0
 10
-0.8364
 20
-29.4366
 30
0.0
 10
-0.8364
 20
19.4832
 30
0.0
 10
-0.8364
 20
19.4832
 30
0.0
  0
SPLINE
  5
4C
330
1F
100
AcDbEntity
  8
DEFAULT_1
  6
NEW_LINE2
 62
   250
100
AcDbSpline
210
0.0
220
0.0
230
1.0
 70
    24
 71
     3
 72
     8
 73
     4
 74
     0
 42
0.0000000001
 43
0.0000000001
 40
0.0
 40
0.0
 40
0.0
 40
0.0
 40
1.0
 40
1.0
 40
1.0
 40
1.0
 10
9.0346
 20
-12.1671
 30
0.0
 10
9.0346
 20
-12.1671
 30
0.0
 10
-1.2482
 20
-12.1671
 30
0.0
 10
-1.2482
 20
-12.1671
 30
0.0
  0
SPLINE
  5
4E
330
1F
100
AcDbEntity
  8
DEFAULT_1
 62
   250
100
AcDbSpline
210
0.0
220
0.0
230
1.0
 70
    24
 71
     3
 72
     8
 73
     4
 74
     0
 42
0.0000000001
 43
0.0000000001
 40
0.0
 40
0.0
 40
0.0
 40
0.0
 40
1.0
 40
1.0
 40
1.0
 40
1.0
 10
-13.5959
 20
25.362
 30
0.0
 10
-13.5959
 20
25.362
 30
0.0
 10
-13.5959
 20
15.0832
 30
0.0
 10
-13.5959
 20
15.0832
 30
0.0
  0
SPLINE
  5
4F
330
1F
100
AcDbEntity
  8
DEFAULT_1
 62
   250
100
AcDbSpline
210
0.0
220
0.0
230
1.0
 70
    24
 71
     3
 72
     8
 73
     4
 74
     0
 42
0.0000000001
 43
0.0000000001
 40
0.0
 40
0.0
 40
0.0
 40
0.0
 40
1.0
 40
1.0
 40
1.0
 40
1.0
 10
-6.2763
 20
15.0838
 30
0.0
 10
-6.2763
 20
15.0838
 30
0.0
 10
-14.151
 20
15.0838
 30
0.0
 10
-14.151
 20
15.0838
 30
0.0
  0
SPLINE
  5
50
330
1F
100
AcDbEntity
  8
DEFAULT_1
 62
   250
100
AcDbSpline
210
0.0
220
0.0
230
1.0
 70
    24
 71
     3
 72
     8
 73
     4
 74
     0
 42
0.0000000001
 43
0.0000000001
 40
0.0
 40
0.0
 40
0.0
 40
0.0
 40
1.0
 40
1.0
 40
1.0
 40
1.0
 10
-6.2722
 20
18.2344
 30
0.0
 10
-6.2722
 20
18.2344
 30
0.0
 10
-14.0185
 20
18.2344
 30
0.0
 10
-14.0185
 20
18.2344
 30
0.0
  0
SPLINE
  5
51
330
1F
100
AcDbEntity
  8
DEFAULT_1
 62
   250
100
AcDbSpline
210
0.0
220
0.0
230
1.0
 70
    24
 71
     3
 72
     8
 73
     4
 74
     0
 42
0.0000000001
 43
0.0000000001
 40
0.0
 40
0.0
 40
0.0
 40
0.0
 40
1.0
 40
1.0
 40
1.0
 40
1.0
 10
-5.9029
 20
18.9596
 30
0.0
 10
-5.9029
 20
18.9596
 30
0.0
 10
-5.9029
 20
22.0081
 30
0.0
 10
-5.9029
 20
22.0081
 30
0.0
  0
SPLINE
  5
52
330
1F
100
AcDbEntity
  8
DEFAULT_1
 62
   250
100
AcDbSpline
210
0.0
220
0.0
230
1.0
 70
    24
 71
     3
 72
     8
 73
     4
 74
     0
 42
0.0000000001
 43
0.0000000001
 40
0.0
 40
0.0
 40
0.0
 40
0.0
 40
1.0
 40
1.0
 40
1.0
 40
1.0
 10
4.0887
 20
18.7391
 30
0.0
 10
4.0887
 20
18.7391
 30
0.0
 10
4.0887
 20
22.0643
 30
0.0
 10
4.0887
 20
22.0643
 30
0.0
  0
SPLINE
  5
53
330
1F
100
AcDbEntity
  8
DEFAULT_1
 62
   250
100
AcDbSpline
210
0.0
220
0.0
230
1.0
 70
    24
 71
     3
 72
     8
 73
     4
 74
     0
 42
0.0000000001
 43
0.0000000001
 40
0.0
 40
0.0
 40
0.0
 40
0.0
 40
1.0
 40
1.0
 40
1.0
 40
1.0
 10
3.4927
 20
21.5387
 30
0.0
 10
3.4927
 20
21.5387
 30
0.0
 10
-4.9777
 20
21.5387
 30
0.0
 10
-4.9777
 20
21.5387
 30
0.0
  0
SPLINE
  5
54
330
1F
100
AcDbEntity
  8
DEFAULT_1
 62
   250
100
AcDbSpline
210
0.0
220
0.0
230
1.0
 70
    24
 71
     3
 72
     8
 73
     4
 74
     0
 42
0.0000000001
 43
0.0000000001
 40
0.0
 40
0.0
 40
0.0
 40
0.0
 40
1.0
 40
1.0
 40
1.0
 40
1.0
 10
-3.4236
 20
-28.8351
 30
0.0
 10
-3.4236
 20
-28.8351
 30
0.0
 10
-13.773
 20
-28.8351
 30
0.0
 10
-13.773
 20
-28.8351
 30
0.0
  0
SPLINE
  5
55
330
1F
100
AcDbEntity
  8
DEFAULT_1
 62
   250
100
AcDbSpline
210
0.0
220
0.0
230
1.0
 70
    24
 71
     3
 72
     8
 73
     4
 74
     0
 42
0.0000000001
 43
0.0000000001
 40
0.0
 40
0.0
 40
0.0
 40
0.0
 40
1.0
 40
1.0
 40
1.0
 40
1.0
 10
-13.583
 20
-27.7093
 30
0.0
 10
-13.583
 20
-27.7093
 30
0.0
 10
-13.583
 20
-12.2134
 30
0.0
 10
-13.583
 20
-12.2134
 30
0.0
  0
SPLINE
  5
56
330
1F
100
AcDbEntity
  8
DEFAULT_1
 62
   250
100
AcDbSpline
210
0.0
220
0.0
230
1.0
 70
    24
 71
     3
 72
     8
 73
     4
 74
     0
 42
0.0000000001
 43
0.0000000001
 40
0.0
 40
0.0
 40
0.0
 40
0.0
 40
1.0
 40
1.0
 40
1.0
 40
1.0
 10
12.8693
 20
-16.0252
 30
0.0
 10
12.8693
 20
-16.0252
 30
0.0
 10
16.6748
 20
-16.0252
 30
0.0
 10
16.6748
 20
-16.0252
 30
0.0
  0
SPLINE
  5
57
330
1F
100
AcDbEntity
  8
DEFAULT_1
 62
   250
100
AcDbSpline
210
0.0
220
0.0
230
1.0
 70
    24
 71
     3
 72
     8
 73
     4
 74
     0
 42
0.0000000001
 43
0.0000000001
 40
0.0
 40
0.0
 40
0.0
 40
0.0
 40
1.0
 40
1.0
 40
1.0
 40
1.0
 10
12.9827
 20
-8.63
 30
0.0
 10
12.9827
 20
-8.63
 30
0.0
 10
16.4959
 20
-8.63
 30
0.0
 10
16.4959
 20
-8.63
 30
0.0
  0
SPLINE
  5
58
330
1F
100
AcDbEntity
  8
DEFAULT_1
 62
   250
100
AcDbSpline
210
0.0
220
0.0
230
1.0
 70
    24
 71
     3
 72
     8
 73
     4
 74
     0
 42
0.0000000001
 43
0.0000000001
 40
0.0
 40
0.0
 40
0.0
 40
0.0
 40
1.0
 40
1.0
 40
1.0
 40
1.0
 10
16.1475
 20
-4.368
 30
0.0
 10
16.1475
 20
-4.368
 30
0.0
 10
16.1475
 20
-23.7216
 30
0.0
 10
16.1475
 20
-23.7216
 30
0.0
  0
SPLINE
  5
59
330
1F
100
AcDbEntity
  8
DEFAULT_1
 62
   250
100
AcDbSpline
210
0.0
220
0.0
230
1.0
 70
    24
 71
     3
 72
     8
 73
     4
 74
     0
 42
0.0000000001
 43
0.0000000001
 40
0.0
 40
0.0
 40
0.0
 40
0.0
 40
1.0
 40
1.0
 40
1.0
 40
1.0
 10
8.4174
 20
-15.2692
 30
0.0
 10
8.4174
 20
-15.2692
 30
0.0
 10
12.4144
 20
-15.2692
 30
0.0
 10
12.4144
 20
-15.2692
 30
0.0
  0
SPLINE
  5
5A
330
1F
100
AcDbEntity
  8
DEFAULT_1
 62
   250
100
AcDbSpline
210
0.0
220
0.0
230
1.0
 70
    24
 71
     3
 72
     8
 73
     4
 74
     0
 42
0.0000000001
 43
0.0000000001
 40
0.0
 40
0.0
 40
0.0
 40
0.0
 40
1.0
 40
1.0
 40
1.0
 40
1.0
 10
8.4886
 20
-9.4126
 30
0.0
 10
8.4886
 20
-9.4126
 30
0.0
 10
12.5744
 20
-9.4126
 30
0.0
 10
12.5744
 20
-9.4126
 30
0.0
  0
SPLINE
  5
5B
330
1F
100
AcDbEntity
  8
DEFAULT_1
 62
   250
100
AcDbSpline
210
0.0
220
0.0
230
1.0
 70
    24
 71
     3
 72
     8
 73
     4
 74
     0
 42
0.0000000001
 43
0.0000000001
 40
0.0
 40
0.0
 40
0.0
 40
0.0
 40
1.0
 40
1.0
 40
1.0
 40
1.0
 10
12.1448
 20
-4.9056
 30
0.0
 10
12.1448
 20
-4.9056
 30
0.0
 10
12.1448
 20
-23.6544
 30
0.0
 10
12.1448
 20
-23.6544
 30
0.0
  0
SPLINE
  5
5C
330
1F
100
AcDbEntity
  8
DEFAULT_1
 62
   250
100
AcDbSpline
210
0.0
220
0.0
230
1.0
 70
    24
 71
     3
 72
     8
 73
     4
 74
     0
 42
0.0000000001
 43
0.0000000001
 40
0.0
 40
0.0
 40
0.0
 40
0.0
 40
1.0
 40
1.0
 40
1.0
 40
1.0
 10
8.497
 20
-8.63
 30
0.0
 10
8.497
 20
-8.63
 30
0.0
 10
11.5163
 20
-8.63
 30
0.0
 10
11.5163
 20
-8.63
 30
0.0
  0
SPLINE
  5
5D
330
1F
100
AcDbEntity
  8
DEFAULT_1
 62
   250
100
AcDbSpline
210
0.0
220
0.0
230
1.0
 70
    24
 71
     3
 72
     8
 73
     4
 74
     0
 42
0.0000000001
 43
0.0000000001
 40
0.0
 40
0.0
 40
0.0
 40
0.0
 40
1.0
 40
1.0
 40
1.0
 40
1.0
 10
8.5013
 20
-16.0252
 30
0.0
 10
8.5013
 20
-16.0252
 30
0.0
 10
11.6952
 20
-16.0252
 30
0.0
 10
11.6952
 20
-16.0252
 30
0.0
  0
SPLINE
  5
5E
330
1F
100
AcDbEntity
  8
DEFAULT_1
 62
   250
100
AcDbSpline
210
0.0
220
0.0
230
1.0
 70
    24
 71
     3
 72
     8
 73
     4
 74
     0
 42
0.0000000001
 43
0.0000000001
 40
0.0
 40
0.0
 40
0.0
 40
0.0
 40
1.0
 40
1.0
 40
1.0
 40
1.0
 10
-13.5351
 20
-28.7603
 30
0.0
 10
-13.5351
 20
-28.7603
 30
0.0
 10
-13.9961
 20
-25.6368
 30
0.0
 10
-13.9961
 20
-25.6368
 30
0.0
  0
SPLINE
  5
5F
330
1F
100
AcDbEntity
  8
DEFAULT_1
 62
   250
100
AcDbSpline
210
0.0
220
0.0
230
1.0
 70
     8
 71
     3
 72
    12
 73
     8
 74
     0
 42
0.0000000001
 43
0.0000000001
 40
0.0
 40
0.0
 40
0.0
 40
0.0
 40
0.3333333333333333
 40
0.3333333333333333
 40
0.3333333333333333
 40
0.3333333333333333
 40
1.0
 40
1.0
 40
1.0
 40
1.0
 10
-13.9961
 20
-25.6368
 30
0.0
 10
-13.9961
 20
-25.6368
 30
0.0
 10
-13.0741
 20
-25.6368
 30
0.0
 10
-13.0741
 20
-25.6368
 30
0.0
 10
-13.0741
 20
-25.6368
 30
0.0
 10
-13.0741
 20
-25.6368
 30
0.0
 10
-13.5351
 20
-28.7603
 30
0.0
 10
-13.5351
 20
-28.7603
 30
0.0
  0
SPLINE
  5
60
330
1F
100
AcDbEntity
  8
DEFAULT_1
 62
   250
100
AcDbSpline
210
0.0
220
0.0
230
1.0
 70
    11
 71
     3
 72
    84
 73
    80
 74
     0
 42
0.0000000001
 43
0.0000000001
 40
0.0
 40
0.0
 40
0.0
 40
0.0
 40
0.0476190476190476
 40
0.0476190476190476
 40
0.0476190476190476
 40
0.0476190476190476
 40
0.0952380952380952
 40
0.0952380952380952
 40
0.0952380952380952
 40
0.0952380952380952
 40
0.1428571428571428
 40
0.1428571428571428
 40
0.1428571428571428
 40
0.1428571428571428
 40
0.1904761904761905
 40
0.1904761904761905
 40
0.1904761904761905
 40
0.1904761904761905
 40
0.2380952380952381
 40
0.2380952380952381
 40
0.2380952380952381
 40
0.2380952380952381
 40
0.2857142857142857
 40
0.2857142857142857
 40
0.2857142857142857
 40
0.2857142857142857
 40
0.3333333333333333
 40
0.3333333333333333
 40
0.3333333333333333
 40
0.3333333333333333
 40
0.3809523809523809
 40
0.3809523809523809
 40
0.3809523809523809
 40
0.3809523809523809
 40
0.4285714285714285
 40
0.4285714285714285
 40
0.4285714285714285
 40
0.4285714285714285
 40
0.4761904761904762
 40
0.4761904761904762
 40
0.4761904761904762
 40
0.4761904761904762
 40
0.5238095238095238
 40
0.5238095238095238
 40
0.5238095238095238
 40
0.5238095238095238
 40
0.5714285714285714
 40
0.5714285714285714
 40
0.5714285714285714
 40
0.5714285714285714
 40
0.6190476190476191
 40
0.6190476190476191
 40
0.6190476190476191
 40
0.6190476190476191
 40
0.6666666666666666
 40
0.6666666666666666
 40
0.6666666666666666
 40
0.6666666666666666
 40
0.7142857142857143
 40
0.7142857142857143
 40
0.7142857142857143
 40
0.7142857142857143
 40
0.7619047619047619
 40
0.7619047619047619
 40
0.7619047619047619
 40
0.7619047619047619
 40
0.8095238095238095
 40
0.8095238095238095
 40
0.8095238095238095
 40
0.8095238095238095
 40
0.8571428571428571
 40
0.8571428571428571
 40
0.8571428571428571
 40
0.8571428571428571
 40
0.9047619047619048
 40
0.9047619047619048
 40
0.9047619047619048
 40
0.9047619047619048
 40
1.0
 40
1.0
 40
1.0
 40
1.0
 10
-1.763
 20
24.0809
 30
0.0
 10
-1.763
 20
24.0809
 30
0.0
 10
-1.5316
 20
24.34
 30
0.0
 10
-1.5316
 20
24.34
 30
0.0
 10
-1.5316
 20
24.34
 30
0.0
 10
-1.5316
 20
24.34
 30
0.0
 10
-1.3952
 20
24.2243
 30
0.0
 10
-1.3952
 20
24.2243
 30
0.0
 10
-1.3952
 20
24.2243
 30
0.0
 10
-1.3952
 20
24.2243
 30
0.0
 10
-1.6374
 20
23.9515
 30
0.0
 10
-1.6374
 20
23.9515
 30
0.0
 10
-1.6374
 20
23.9515
 30
0.0
 10
-1.5584
 20
23.8339
 30
0.0
 10
-1.5053
 20
23.7309
 30
0.0
 10
-1.4775
 20
23.643
 30
0.0
 10
-1.4775
 20
23.643
 30
0.0
 10
-1.4408
 20
23.5272
 30
0.0
 10
-1.4225
 20
23.3974
 30
0.0
 10
-1.4225
 20
23.2544
 30
0.0
 10
-1.4225
 20
23.2544
 30
0.0
 10
-1.4225
 20
23.0475
 30
0.0
 10
-1.4643
 20
22.8631
 30
0.0
 10
-1.5481
 20
22.7018
 30
0.0
 10
-1.5481
 20
22.7018
 30
0.0
 10
-1.6318
 20
22.5399
 30
0.0
 10
-1.7489
 20
22.4177
 30
0.0
 10
-1.8999
 20
22.3349
 30
0.0
 10
-1.8999
 20
22.3349
 30
0.0
 10
-2.0514
 20
22.2526
 30
0.0
 10
-2.2117
 20
22.2112
 30
0.0
 10
-2.3815
 20
22.2112
 30
0.0
 10
-2.3815
 20
22.2112
 30
0.0
 10
-2.5085
 20
22.2112
 30
0.0
 10
-2.6233
 20
22.229
 30
0.0
 10
-2.7263
 20
22.2648
 30
0.0
 10
-2.7263
 20
22.2648
 30
0.0
 10
-2.8053
 20
22.2925
 30
0.0
 10
-2.8975
 20
22.3452
 30
0.0
 10
-3.0034
 20
22.4233
 30
0.0
 10
-3.0034
 20
22.4233
 30
0.0
 10
-3.0034
 20
22.4233
 30
0.0
 10
-3.2348
 20
22.1641
 30
0.0
 10
-3.2348
 20
22.1641
 30
0.0
 10
-3.2348
 20
22.1641
 30
0.0
 10
-3.2348
 20
22.1641
 30
0.0
 10
-3.3712
 20
22.2798
 30
0.0
 10
-3.3712
 20
22.2798
 30
0.0
 10
-3.3712
 20
22.2798
 30
0.0
 10
-3.3712
 20
22.2798
 30
0.0
 10
-3.1285
 20
22.5512
 30
0.0
 10
-3.1285
 20
22.5512
 30
0.0
 10
-3.1285
 20
22.5512
 30
0.0
 10
-3.2188
 20
22.6881
 30
0.0
 10
-3.279
 20
22.8052
 30
0.0
 10
-3.3091
 20
22.9021
 30
0.0
 10
-3.3091
 20
22.9021
 30
0.0
 10
-3.3392
 20
22.999
 30
0.0
 10
-3.3547
 20
23.1157
 30
0.0
 10
-3.3547
 20
23.2516
 30
0.0
 10
-3.3547
 20
23.2516
 30
0.0
 10
-3.3547
 20
23.459
 30
0.0
 10
-3.3133
 20
23.6439
 30
0.0
 10
-3.2306
 20
23.8062
 30
0.0
 10
-3.2306
 20
23.8062
 30
0.0
 10
-3.1478
 20
23.9685
 30
0.0
 10
-3.0321
 20
24.0912
 30
0.0
 10
-2.8825
 20
24.1749
 30
0.0
 10
-2.8825
 20
24.1749
 30
0.0
 10
-2.7334
 20
24.2582
 30
0.0
 10
-2.5673
 20
24.3001
 30
0.0
 10
-2.3844
 20
24.3001
 30
0.0
 10
-2.3844
 20
24.3001
 30
0.0
 10
-2.2611
 20
24.3001
 30
0.0
 10
-2.1534
 20
24.2841
 30
0.0
 10
-2.0612
 20
24.2511
 30
0.0
 10
-2.0612
 20
24.2511
 30
0.0
 10
-1.969
 20
24.2187
 30
0.0
 10
-1.8693
 20
24.1618
 30
0.0
 10
-1.763
 20
24.0809
 30
0.0
  0
SPLINE
  5
61
330
1F
100
AcDbEntity
  8
DEFAULT_1
 62
   250
100
AcDbSpline
210
0.0
220
0.0
230
1.0
 70
    11
 71
     3
 72
    32
 73
    28
 74
     0
 42
0.0000000001
 43
0.0000000001
 40
0.0
 40
0.0
 40
0.0
 40
0.0
 40
0.125
 40
0.125
 40
0.125
 40
0.125
 40
0.25
 40
0.25
 40
0.25
 40
0.25
 40
0.375
 40
0.375
 40
0.375
 40
0.375
 40
0.5
 40
0.5
 40
0.5
 40
0.5
 40
0.625
 40
0.625
 40
0.625
 40
0.625
 40
0.75
 40
0.75
 40
0.75
 40
0.75
 40
1.0
 40
1.0
 40
1.0
 40
1.0
 10
-1.9281
 20
23.8951
 30
0.0
 10
-2.0147
 20
23.9628
 30
0.0
 10
-2.0904
 20
24.0094
 30
0.0
 10
-2.1548
 20
24.0343
 30
0.0
 10
-2.1548
 20
24.0343
 30
0.0
 10
-2.2197
 20
24.0588
 30
0.0
 10
-2.2959
 20
24.0715
 30
0.0
 10
-2.383
 20
24.0715
 30
0.0
 10
-2.383
 20
24.0715
 30
0.0
 10
-2.5843
 20
24.0715
 30
0.0
 10
-2.7503
 20
24.0033
 30
0.0
 10
-2.882
 20
23.8669
 30
0.0
 10
-2.882
 20
23.8669
 30
0.0
 10
-3.0133
 20
23.7304
 30
0.0
 10
-3.0791
 20
23.5268
 30
0.0
 10
-3.0791
 20
23.2554
 30
0.0
 10
-3.0791
 20
23.2554
 30
0.0
 10
-3.0791
 20
23.1491
 30
0.0
 10
-3.0688
 20
23.0545
 30
0.0
 10
-3.0485
 20
22.9717
 30
0.0
 10
-3.0485
 20
22.9717
 30
0.0
 10
-3.0339
 20
22.9101
 30
0.0
 10
-3.0034
 20
22.8344
 30
0.0
 10
-2.9563
 20
22.7446
 30
0.0
 10
-2.9563
 20
22.7446
 30
0.0
 10
-2.9563
 20
22.7446
 30
0.0
 10
-1.9281
 20
23.8951
 30
0.0
 10
-1.9281
 20
23.8951
 30
0.0
  0
SPLINE
  5
62
330
1F
100
AcDbEntity
  8
DEFAULT_1
 62
   250
100
AcDbSpline
210
0.0
220
0.0
230
1.0
 70
    11
 71
     3
 72
    28
 73
    24
 74
     0
 42
0.0000000001
 43
0.0000000001
 40
0.0
 40
0.0
 40
0.0
 40
0.0
 40
0.1428571428571428
 40
0.1428571428571428
 40
0.1428571428571428
 40
0.1428571428571428
 40
0.2857142857142857
 40
0.2857142857142857
 40
0.2857142857142857
 40
0.2857142857142857
 40
0.4285714285714285
 40
0.4285714285714285
 40
0.4285714285714285
 40
0.4285714285714285
 40
0.5714285714285714
 40
0.5714285714285714
 40
0.5714285714285714
 40
0.5714285714285714
 40
0.7142857142857143
 40
0.7142857142857143
 40
0.7142857142857143
 40
0.7142857142857143
 40
1.0
 40
1.0
 40
1.0
 40
1.0
 10
-1.8152
 20
23.753
 30
0.0
 10
-1.8152
 20
23.753
 30
0.0
 10
-2.8392
 20
22.6067
 30
0.0
 10
-2.8392
 20
22.6067
 30
0.0
 10
-2.8392
 20
22.6067
 30
0.0
 10
-2.7687
 20
22.5489
 30
0.0
 10
-2.7033
 20
22.5084
 30
0.0
 10
-2.6435
 20
22.4854
 30
0.0
 10
-2.6435
 20
22.4854
 30
0.0
 10
-2.5655
 20
22.4548
 30
0.0
 10
-2.4808
 20
22.4398
 30
0.0
 10
-2.39
 20
22.4398
 30
0.0
 10
-2.39
 20
22.4398
 30
0.0
 10
-2.1896
 20
22.4398
 30
0.0
 10
-2.0245
 20
22.5103
 30
0.0
 10
-1.8938
 20
22.6519
 30
0.0
 10
-1.8938
 20
22.6519
 30
0.0
 10
-1.7635
 20
22.7935
 30
0.0
 10
-1.6981
 20
22.992
 30
0.0
 10
-1.6981
 20
23.2474
 30
0.0
 10
-1.6981
 20
23.2474
 30
0.0
 10
-1.6981
 20
23.4383
 30
0.0
 10
-1.7371
 20
23.6072
 30
0.0
 10
-1.8152
 20
23.753
 30
0.0
  0
SPLINE
  5
63
330
1F
100
AcDbEntity
  8
DEFAULT_1
 62
   250
100
AcDbSpline
210
0.0
220
0.0
230
1.0
 70
    11
 71
     3
 72
    48
 73
    44
 74
     0
 42
0.0000000001
 43
0.0000000001
 40
0.0
 40
0.0
 40
0.0
 40
0.0
 40
0.0833333333333333
 40
0.0833333333333333
 40
0.0833333333333333
 40
0.0833333333333333
 40
0.1666666666666667
 40
0.1666666666666667
 40
0.1666666666666667
 40
0.1666666666666667
 40
0.25
 40
0.25
 40
0.25
 40
0.25
 40
0.3333333333333333
 40
0.3333333333333333
 40
0.3333333333333333
 40
0.3333333333333333
 40
0.4166666666666667
 40
0.4166666666666667
 40
0.4166666666666667
 40
0.4166666666666667
 40
0.5
 40
0.5
 40
0.5
 40
0.5
 40
0.5833333333333334
 40
0.5833333333333334
 40
0.5833333333333334
 40
0.5833333333333334
 40
0.6666666666666666
 40
0.6666666666666666
 40
0.6666666666666666
 40
0.6666666666666666
 40
0.75
 40
0.75
 40
0.75
 40
0.75
 40
0.8333333333333334
 40
0.8333333333333334
 40
0.8333333333333334
 40
0.8333333333333334
 40
1.0
 40
1.0
 40
1.0
 40
1.0
 10
-1.1567
 20
24.0009
 30
0.0
 10
-1.1567
 20
24.0009
 30
0.0
 10
-1.1567
 20
24.2394
 30
0.0
 10
-1.1567
 20
24.2394
 30
0.0
 10
-1.1567
 20
24.2394
 30
0.0
 10
-1.1567
 20
24.2394
 30
0.0
 10
0.1509
 20
24.2394
 30
0.0
 10
0.1509
 20
24.2394
 30
0.0
 10
0.1509
 20
24.2394
 30
0.0
 10
0.1509
 20
24.2394
 30
0.0
 10
0.1509
 20
24.0465
 30
0.0
 10
0.1509
 20
24.0465
 30
0.0
 10
0.1509
 20
24.0465
 30
0.0
 10
0.0225
 20
23.9097
 30
0.0
 10
-0.105
 20
23.7276
 30
0.0
 10
-0.2315
 20
23.5009
 30
0.0
 10
-0.2315
 20
23.5009
 30
0.0
 10
-0.3576
 20
23.2742
 30
0.0
 10
-0.4554
 20
23.0404
 30
0.0
 10
-0.5241
 20
22.801
 30
0.0
 10
-0.5241
 20
22.801
 30
0.0
 10
-0.5739
 20
22.6317
 30
0.0
 10
-0.6054
 20
22.4468
 30
0.0
 10
-0.6191
 20
22.2455
 30
0.0
 10
-0.6191
 20
22.2455
 30
0.0
 10
-0.6191
 20
22.2455
 30
0.0
 10
-0.874
 20
22.2455
 30
0.0
 10
-0.874
 20
22.2455
 30
0.0
 10
-0.874
 20
22.2455
 30
0.0
 10
-0.8712
 20
22.4045
 30
0.0
 10
-0.8402
 20
22.5964
 30
0.0
 10
-0.7804
 20
22.8217
 30
0.0
 10
-0.7804
 20
22.8217
 30
0.0
 10
-0.7207
 20
23.0465
 30
0.0
 10
-0.6351
 20
23.2638
 30
0.0
 10
-0.5236
 20
23.4727
 30
0.0
 10
-0.5236
 20
23.4727
 30
0.0
 10
-0.4117
 20
23.6815
 30
0.0
 10
-0.2931
 20
23.8579
 30
0.0
 10
-0.1671
 20
24.0009
 30
0.0
 10
-0.1671
 20
24.0009
 30
0.0
 10
-0.1671
 20
24.0009
 30
0.0
 10
-1.1567
 20
24.0009
 30
0.0
 10
-1.1567
 20
24.0009
 30
0.0
  0
SPLINE
  5
64
330
1F
100
AcDbEntity
  8
DEFAULT_1
 62
   250
100
AcDbSpline
210
0.0
220
0.0
230
1.0
 70
    11
 71
     3
 72
    52
 73
    48
 74
     0
 42
0.0000000001
 43
0.0000000001
 40
0.0
 40
0.0
 40
0.0
 40
0.0
 40
0.0769230769230769
 40
0.0769230769230769
 40
0.0769230769230769
 40
0.0769230769230769
 40
0.1538461538461539
 40
0.1538461538461539
 40
0.1538461538461539
 40
0.1538461538461539
 40
0.2307692307692308
 40
0.2307692307692308
 40
0.2307692307692308
 40
0.2307692307692308
 40
0.3076923076923077
 40
0.3076923076923077
 40
0.3076923076923077
 40
0.3076923076923077
 40
0.3846153846153846
 40
0.3846153846153846
 40
0.3846153846153846
 40
0.3846153846153846
 40
0.4615384615384616
 40
0.4615384615384616
 40
0.4615384615384616
 40
0.4615384615384616
 40
0.5384615384615384
 40
0.5384615384615384
 40
0.5384615384615384
 40
0.5384615384615384
 40
0.6153846153846154
 40
0.6153846153846154
 40
0.6153846153846154
 40
0.6153846153846154
 40
0.6923076923076923
 40
0.6923076923076923
 40
0.6923076923076923
 40
0.6923076923076923
 40
0.7692307692307693
 40
0.7692307692307693
 40
0.7692307692307693
 40
0.7692307692307693
 40
0.8461538461538461
 40
0.8461538461538461
 40
0.8461538461538461
 40
0.8461538461538461
 40
1.0
 40
1.0
 40
1.0
 40
1.0
 10
0.3964
 20
23.2417
 30
0.0
 10
0.3964
 20
23.4807
 30
0.0
 10
0.4209
 20
23.6731
 30
0.0
 10
0.4703
 20
23.8184
 30
0.0
 10
0.4703
 20
23.8184
 30
0.0
 10
0.5192
 20
23.9642
 30
0.0
 10
0.5926
 20
24.0766
 30
0.0
 10
0.6895
 20
24.1557
 30
0.0
 10
0.6895
 20
24.1557
 30
0.0
 10
0.7864
 20
24.2347
 30
0.0
 10
0.9082
 20
24.2742
 30
0.0
 10
1.0549
 20
24.2742
 30
0.0
 10
1.0549
 20
24.2742
 30
0.0
 10
1.1636
 20
24.2742
 30
0.0
 10
1.2586
 20
24.2521
 30
0.0
 10
1.3404
 20
24.2083
 30
0.0
 10
1.3404
 20
24.2083
 30
0.0
 10
1.4223
 20
24.1651
 30
0.0
 10
1.4896
 20
24.102
 30
0.0
 10
1.5432
 20
24.0197
 30
0.0
 10
1.5432
 20
24.0197
 30
0.0
 10
1.5963
 20
23.9374
 30
0.0
 10
1.6382
 20
23.8372
 30
0.0
 10
1.6683
 20
23.7192
 30
0.0
 10
1.6683
 20
23.7192
 30
0.0
 10
1.6989
 20
23.6011
 30
0.0
 10
1.7139
 20
23.4421
 30
0.0
 10
1.7139
 20
23.2417
 30
0.0
 10
1.7139
 20
23.2417
 30
0.0
 10
1.7139
 20
23.0047
 30
0.0
 10
1.6895
 20
22.8137
 30
0.0
 10
1.641
 20
22.6679
 30
0.0
 10
1.641
 20
22.6679
 30
0.0
 10
1.5921
 20
22.5221
 30
0.0
 10
1.5192
 20
22.4097
 30
0.0
 10
1.4223
 20
22.3302
 30
0.0
 10
1.4223
 20
22.3302
 30
0.0
 10
1.3254
 20
22.2507
 30
0.0
 10
1.2031
 20
22.2112
 30
0.0
 10
1.0549
 20
22.2112
 30
0.0
 10
1.0549
 20
22.2112
 30
0.0
 10
0.8602
 20
22.2112
 30
0.0
 10
0.7073
 20
22.2808
 30
0.0
 10
0.5963
 20
22.4205
 30
0.0
 10
0.5963
 20
22.4205
 30
0.0
 10
0.4632
 20
22.5884
 30
0.0
 10
0.3964
 20
22.8626
 30
0.0
 10
0.3964
 20
23.2417
 30
0.0
  0
SPLINE
  5
65
330
1F
100
AcDbEntity
  8
DEFAULT_1
 62
   250
100
AcDbSpline
210
0.0
220
0.0
230
1.0
 70
    11
 71
     3
 72
    36
 73
    32
 74
     0
 42
0.0000000001
 43
0.0000000001
 40
0.0
 40
0.0
 40
0.0
 40
0.0
 40
0.1111111111111111
 40
0.1111111111111111
 40
0.1111111111111111
 40
0.1111111111111111
 40
0.2222222222222222
 40
0.2222222222222222
 40
0.2222222222222222
 40
0.2222222222222222
 40
0.3333333333333333
 40
0.3333333333333333
 40
0.3333333333333333
 40
0.3333333333333333
 40
0.4444444444444444
 40
0.4444444444444444
 40
0.4444444444444444
 40
0.4444444444444444
 40
0.5555555555555556
 40
0.5555555555555556
 40
0.5555555555555556
 40
0.5555555555555556
 40
0.6666666666666666
 40
0.6666666666666666
 40
0.6666666666666666
 40
0.6666666666666666
 40
0.7777777777777778
 40
0.7777777777777778
 40
0.7777777777777778
 40
0.7777777777777778
 40
1.0
 40
1.0
 40
1.0
 40
1.0
 10
0.6514
 20
23.2417
 30
0.0
 10
0.6514
 20
22.9101
 30
0.0
 10
0.6904
 20
22.6895
 30
0.0
 10
0.768
 20
22.5795
 30
0.0
 10
0.768
 20
22.5795
 30
0.0
 10
0.8456
 20
22.4699
 30
0.0
 10
0.9411
 20
22.4148
 30
0.0
 10
1.0549
 20
22.4148
 30
0.0
 10
1.0549
 20
22.4148
 30
0.0
 10
1.1692
 20
22.4148
 30
0.0
 10
1.2647
 20
22.4703
 30
0.0
 10
1.3423
 20
22.5804
 30
0.0
 10
1.3423
 20
22.5804
 30
0.0
 10
1.4199
 20
22.6905
 30
0.0
 10
1.459
 20
22.9111
 30
0.0
 10
1.459
 20
23.2417
 30
0.0
 10
1.459
 20
23.2417
 30
0.0
 10
1.459
 20
23.5743
 30
0.0
 10
1.4199
 20
23.7954
 30
0.0
 10
1.3423
 20
23.9045
 30
0.0
 10
1.3423
 20
23.9045
 30
0.0
 10
1.2647
 20
24.0141
 30
0.0
 10
1.1683
 20
24.0686
 30
0.0
 10
1.0526
 20
24.0686
 30
0.0
 10
1.0526
 20
24.0686
 30
0.0
 10
0.9383
 20
24.0686
 30
0.0
 10
0.8475
 20
24.0202
 30
0.0
 10
0.7793
 20
23.9238
 30
0.0
 10
0.7793
 20
23.9238
 30
0.0
 10
0.6942
 20
23.801
 30
0.0
 10
0.6514
 20
23.5733
 30
0.0
 10
0.6514
 20
23.2417
 30
0.0
  0
SPLINE
  5
66
330
1F
100
AcDbEntity
  8
DEFAULT_1
 62
   250
100
AcDbSpline
210
0.0
220
0.0
230
1.0
 70
    11
 71
     3
 72
    20
 73
    16
 74
     0
 42
0.0000000001
 43
0.0000000001
 40
0.0
 40
0.0
 40
0.0
 40
0.0
 40
0.2
 40
0.2
 40
0.2
 40
0.2
 40
0.4
 40
0.4
 40
0.4
 40
0.4
 40
0.6
 40
0.6
 40
0.6
 40
0.6
 40
1.0
 40
1.0
 40
1.0
 40
1.0
 10
1.5322
 20
21.9178
 30
0.0
 10
1.5322
 20
21.9178
 30
0.0
 10
4.0322
 20
21.5649
 30
0.0
 10
4.0322
 20
21.5649
 30
0.0
 10
4.0322
 20
21.5649
 30
0.0
 10
4.0322
 20
21.5649
 30
0.0
 10
4.0322
 20
21.4866
 30
0.0
 10
4.0322
 20
21.4866
 30
0.0
 10
4.0322
 20
21.4866
 30
0.0
 10
4.0322
 20
21.4866
 30
0.0
 10
1.5322
 20
21.1103
 30
0.0
 10
1.5322
 20
21.1103
 30
0.0
 10
1.5322
 20
21.1103
 30
0.0
 10
1.5322
 20
21.1103
 30
0.0
 10
1.5322
 20
21.9178
 30
0.0
 10
1.5322
 20
21.9178
 30
0.0
  0
SPLINE
  5
67
330
1F
100
AcDbEntity
  8
DEFAULT_1
 62
   250
100
AcDbSpline
210
0.0
220
0.0
230
1.0
 70
    11
 71
     3
 72
    20
 73
    16
 74
     0
 42
0.0000000001
 43
0.0000000001
 40
0.0
 40
0.0
 40
0.0
 40
0.0
 40
0.2
 40
0.2
 40
0.2
 40
0.2
 40
0.4
 40
0.4
 40
0.4
 40
0.4
 40
0.6
 40
0.6
 40
0.6
 40
0.6
 40
1.0
 40
1.0
 40
1.0
 40
1.0
 10
-3.2733
 20
21.1057
 30
0.0
 10
-3.2733
 20
21.1057
 30
0.0
 10
-5.7733
 20
21.4586
 30
0.0
 10
-5.7733
 20
21.4586
 30
0.0
 10
-5.7733
 20
21.4586
 30
0.0
 10
-5.7733
 20
21.4586
 30
0.0
 10
-5.7733
 20
21.5369
 30
0.0
 10
-5.7733
 20
21.5369
 30
0.0
 10
-5.7733
 20
21.5369
 30
0.0
 10
-5.7733
 20
21.5369
 30
0.0
 10
-3.2733
 20
21.9132
 30
0.0
 10
-3.2733
 20
21.9132
 30
0.0
 10
-3.2733
 20
21.9132
 30
0.0
 10
-3.2733
 20
21.9132
 30
0.0
 10
-3.2733
 20
21.1057
 30
0.0
 10
-3.2733
 20
21.1057
 30
0.0
  0
SPLINE
  5
68
330
1F
100
AcDbEntity
  8
DEFAULT_1
 62
   250
100
AcDbSpline
210
0.0
220
0.0
230
1.0
 70
    11
 71
     3
 72
    20
 73
    16
 74
     0
 42
0.0000000001
 43
0.0000000001
 40
0.0
 40
0.0
 40
0.0
 40
0.0
 40
0.2
 40
0.2
 40
0.2
 40
0.2
 40
0.4
 40
0.4
 40
0.4
 40
0.4
 40
0.6
 40
0.6
 40
0.6
 40
0.6
 40
1.0
 40
1.0
 40
1.0
 40
1.0
 10
-13.9838
 20
-14.7081
 30
0.0
 10
-13.9838
 20
-14.7081
 30
0.0
 10
-13.6309
 20
-12.2081
 30
0.0
 10
-13.6309
 20
-12.2081
 30
0.0
 10
-13.6309
 20
-12.2081
 30
0.0
 10
-13.6309
 20
-12.2081
 30
0.0
 10
-13.5526
 20
-12.2081
 30
0.0
 10
-13.5526
 20
-12.2081
 30
0.0
 10
-13.5526
 20
-12.2081
 30
0.0
 10
-13.5526
 20
-12.2081
 30
0.0
 10
-13.1763
 20
-14.7081
 30
0.0
 10
-13.1763
 20
-14.7081
 30
0.0
 10
-13.1763
 20
-14.7081
 30
0.0
 10
-13.1763
 20
-14.7081
 30
0.0
 10
-13.9838
 20
-14.7081
 30
0.0
 10
-13.9838
 20
-14.7081
 30
0.0
  0
SPLINE
  5
69
330
1F
100
AcDbEntity
  8
DEFAULT_1
 62
   250
100
AcDbSpline
210
0.0
220
0.0
230
1.0
 70
    11
 71
     3
 72
    20
 73
    16
 74
     0
 42
0.0000000001
 43
0.0000000001
 40
0.0
 40
0.0
 40
0.0
 40
0.0
 40
0.2
 40
0.2
 40
0.2
 40
0.2
 40
0.4
 40
0.4
 40
0.4
 40
0.4
 40
0.6
 40
0.6
 40
0.6
 40
0.6
 40
1.0
 40
1.0
 40
1.0
 40
1.0
 10
-13.1927
 20
20.7881
 30
0.0
 10
-13.1927
 20
20.7881
 30
0.0
 10
-13.5456
 20
18.2881
 30
0.0
 10
-13.5456
 20
18.2881
 30
0.0
 10
-13.5456
 20
18.2881
 30
0.0
 10
-13.5456
 20
18.2881
 30
0.0
 10
-13.6239
 20
18.2881
 30
0.0
 10
-13.6239
 20
18.2881
 30
0.0
 10
-13.6239
 20
18.2881
 30
0.0
 10
-13.6239
 20
18.2881
 30
0.0
 10
-14.0002
 20
20.7881
 30
0.0
 10
-14.0002
 20
20.7881
 30
0.0
 10
-14.0002
 20
20.7881
 30
0.0
 10
-14.0002
 20
20.7881
 30
0.0
 10
-13.1927
 20
20.7881
 30
0.0
 10
-13.1927
 20
20.7881
 30
0.0
  0
SPLINE
  5
6A
330
1F
100
AcDbEntity
  8
DEFAULT_1
 62
   250
100
AcDbSpline
210
0.0
220
0.0
230
1.0
 70
    11
 71
     3
 72
    40
 73
    36
 74
     0
 42
0.0000000001
 43
0.0000000001
 40
0.0
 40
0.0
 40
0.0
 40
0.0
 40
0.1
 40
0.1
 40
0.1
 40
0.1
 40
0.2
 40
0.2
 40
0.2
 40
0.2
 40
0.3
 40
0.3
 40
0.3
 40
0.3
 40
0.4
 40
0.4
 40
0.4
 40
0.4
 40
0.5
 40
0.5
 40
0.5
 40
0.5
 40
0.6
 40
0.6
 40
0.6
 40
0.6
 40
0.7
 40
0.7
 40
0.7
 40
0.7
 40
0.8
 40
0.8
 40
0.8
 40
0.8
 40
1.0
 40
1.0
 40
1.0
 40
1.0
 10
-14.2032
 20
-21.1966
 30
0.0
 10
-14.2032
 20
-21.1966
 30
0.0
 10
-14.2032
 20
-21.4445
 30
0.0
 10
-14.2032
 20
-21.4445
 30
0.0
 10
-14.2032
 20
-21.4445
 30
0.0
 10
-14.2032
 20
-21.4445
 30
0.0
 10
-15.7836
 20
-21.4445
 30
0.0
 10
-15.7836
 20
-21.4445
 30
0.0
 10
-15.7836
 20
-21.4445
 30
0.0
 10
-15.7267
 20
-21.5043
 30
0.0
 10
-15.6698
 20
-21.5823
 30
0.0
 10
-15.6129
 20
-21.6792
 30
0.0
 10
-15.6129
 20
-21.6792
 30
0.0
 10
-15.556
 20
-21.7766
 30
0.0
 10
-15.5132
 20
-21.8636
 30
0.0
 10
-15.4849
 20
-21.9408
 30
0.0
 10
-15.4849
 20
-21.9408
 30
0.0
 10
-15.4849
 20
-21.9408
 30
0.0
 10
-15.7244
 20
-21.9408
 30
0.0
 10
-15.7244
 20
-21.9408
 30
0.0
 10
-15.7244
 20
-21.9408
 30
0.0
 10
-15.7897
 20
-21.802
 30
0.0
 10
-15.8688
 20
-21.6806
 30
0.0
 10
-15.9614
 20
-21.5767
 30
0.0
 10
-15.9614
 20
-21.5767
 30
0.0
 10
-16.0546
 20
-21.4732
 30
0.0
 10
-16.1444
 20
-21.3994
 30
0.0
 10
-16.2319
 20
-21.3561
 30
0.0
 10
-16.2319
 20
-21.3561
 30
0.0
 10
-16.2319
 20
-21.3561
 30
0.0
 10
-16.2319
 20
-21.1966
 30
0.0
 10
-16.2319
 20
-21.1966
 30
0.0
 10
-16.2319
 20
-21.1966
 30
0.0
 10
-16.2319
 20
-21.1966
 30
0.0
 10
-14.2032
 20
-21.1966
 30
0.0
 10
-14.2032
 20
-21.1966
 30
0.0
  0
SPLINE
  5
6B
330
1F
100
AcDbEntity
  8
DEFAULT_1
 62
   250
100
AcDbSpline
210
0.0
220
0.0
230
1.0
 70
    11
 71
     3
 72
    40
 73
    36
 74
     0
 42
0.0000000001
 43
0.0000000001
 40
0.0
 40
0.0
 40
0.0
 40
0.0
 40
0.1
 40
0.1
 40
0.1
 40
0.1
 40
0.2
 40
0.2
 40
0.2
 40
0.2
 40
0.3
 40
0.3
 40
0.3
 40
0.3
 40
0.4
 40
0.4
 40
0.4
 40
0.4
 40
0.5
 40
0.5
 40
0.5
 40
0.5
 40
0.6
 40
0.6
 40
0.6
 40
0.6
 40
0.7
 40
0.7
 40
0.7
 40
0.7
 40
0.8
 40
0.8
 40
0.8
 40
0.8
 40
1.0
 40
1.0
 40
1.0
 40
1.0
 10
-14.2032
 20
-19.8363
 30
0.0
 10
-14.2032
 20
-19.8363
 30
0.0
 10
-14.2032
 20
-20.0842
 30
0.0
 10
-14.2032
 20
-20.0842
 30
0.0
 10
-14.2032
 20
-20.0842
 30
0.0
 10
-14.2032
 20
-20.0842
 30
0.0
 10
-15.7836
 20
-20.0842
 30
0.0
 10
-15.7836
 20
-20.0842
 30
0.0
 10
-15.7836
 20
-20.0842
 30
0.0
 10
-15.7267
 20
-20.144
 30
0.0
 10
-15.6698
 20
-20.222
 30
0.0
 10
-15.6129
 20
-20.3189
 30
0.0
 10
-15.6129
 20
-20.3189
 30
0.0
 10
-15.556
 20
-20.4163
 30
0.0
 10
-15.5132
 20
-20.5033
 30
0.0
 10
-15.4849
 20
-20.5805
 30
0.0
 10
-15.4849
 20
-20.5805
 30
0.0
 10
-15.4849
 20
-20.5805
 30
0.0
 10
-15.7244
 20
-20.5805
 30
0.0
 10
-15.7244
 20
-20.5805
 30
0.0
 10
-15.7244
 20
-20.5805
 30
0.0
 10
-15.7897
 20
-20.4417
 30
0.0
 10
-15.8688
 20
-20.3203
 30
0.0
 10
-15.9614
 20
-20.2164
 30
0.0
 10
-15.9614
 20
-20.2164
 30
0.0
 10
-16.0546
 20
-20.1129
 30
0.0
 10
-16.1444
 20
-20.0391
 30
0.0
 10
-16.2319
 20
-19.9958
 30
0.0
 10
-16.2319
 20
-19.9958
 30
0.0
 10
-16.2319
 20
-19.9958
 30
0.0
 10
-16.2319
 20
-19.8363
 30
0.0
 10
-16.2319
 20
-19.8363
 30
0.0
 10
-16.2319
 20
-19.8363
 30
0.0
 10
-16.2319
 20
-19.8363
 30
0.0
 10
-14.2032
 20
-19.8363
 30
0.0
 10
-14.2032
 20
-19.8363
 30
0.0
  0
SPLINE
  5
6C
330
1F
100
AcDbEntity
  8
DEFAULT_1
 62
   250
100
AcDbSpline
210
0.0
220
0.0
230
1.0
 70
    11
 71
     3
 72
    52
 73
    48
 74
     0
 42
0.0000000001
 43
0.0000000001
 40
0.0
 40
0.0
 40
0.0
 40
0.0
 40
0.0769230769230769
 40
0.0769230769230769
 40
0.0769230769230769
 40
0.0769230769230769
 40
0.1538461538461539
 40
0.1538461538461539
 40
0.1538461538461539
 40
0.1538461538461539
 40
0.2307692307692308
 40
0.2307692307692308
 40
0.2307692307692308
 40
0.2307692307692308
 40
0.3076923076923077
 40
0.3076923076923077
 40
0.3076923076923077
 40
0.3076923076923077
 40
0.3846153846153846
 40
0.3846153846153846
 40
0.3846153846153846
 40
0.3846153846153846
 40
0.4615384615384616
 40
0.4615384615384616
 40
0.4615384615384616
 40
0.4615384615384616
 40
0.5384615384615384
 40
0.5384615384615384
 40
0.5384615384615384
 40
0.5384615384615384
 40
0.6153846153846154
 40
0.6153846153846154
 40
0.6153846153846154
 40
0.6153846153846154
 40
0.6923076923076923
 40
0.6923076923076923
 40
0.6923076923076923
 40
0.6923076923076923
 40
0.7692307692307693
 40
0.7692307692307693
 40
0.7692307692307693
 40
0.7692307692307693
 40
0.8461538461538461
 40
0.8461538461538461
 40
0.8461538461538461
 40
0.8461538461538461
 40
1.0
 40
1.0
 40
1.0
 40
1.0
 10
-15.1994
 20
-19.2009
 30
0.0
 10
-15.4384
 20
-19.2009
 30
0.0
 10
-15.6308
 20
-19.1764
 30
0.0
 10
-15.7761
 20
-19.127
 30
0.0
 10
-15.7761
 20
-19.127
 30
0.0
 10
-15.9219
 20
-19.0781
 30
0.0
 10
-16.0343
 20
-19.0047
 30
0.0
 10
-16.1134
 20
-18.9078
 30
0.0
 10
-16.1134
 20
-18.9078
 30
0.0
 10
-16.1924
 20
-18.8109
 30
0.0
 10
-16.2319
 20
-18.6891
 30
0.0
 10
-16.2319
 20
-18.5424
 30
0.0
 10
-16.2319
 20
-18.5424
 30
0.0
 10
-16.2319
 20
-18.4337
 30
0.0
 10
-16.2098
 20
-18.3387
 30
0.0
 10
-16.166
 20
-18.2569
 30
0.0
 10
-16.166
 20
-18.2569
 30
0.0
 10
-16.1228
 20
-18.175
 30
0.0
 10
-16.0597
 20
-18.1077
 30
0.0
 10
-15.9774
 20
-18.0541
 30
0.0
 10
-15.9774
 20
-18.0541
 30
0.0
 10
-15.8951
 20
-18.001
 30
0.0
 10
-15.7949
 20
-17.9591
 30
0.0
 10
-15.6769
 20
-17.929
 30
0.0
 10
-15.6769
 20
-17.929
 30
0.0
 10
-15.5588
 20
-17.8984
 30
0.0
 10
-15.3998
 20
-17.8834
 30
0.0
 10
-15.1994
 20
-17.8834
 30
0.0
 10
-15.1994
 20
-17.8834
 30
0.0
 10
-14.9624
 20
-17.8834
 30
0.0
 10
-14.7714
 20
-17.9078
 30
0.0
 10
-14.6256
 20
-17.9563
 30
0.0
 10
-14.6256
 20
-17.9563
 30
0.0
 10
-14.4798
 20
-18.0052
 30
0.0
 10
-14.3674
 20
-18.0781
 30
0.0
 10
-14.2879
 20
-18.175
 30
0.0
 10
-14.2879
 20
-18.175
 30
0.0
 10
-14.2084
 20
-18.2719
 30
0.0
 10
-14.1689
 20
-18.3942
 30
0.0
 10
-14.1689
 20
-18.5424
 30
0.0
 10
-14.1689
 20
-18.5424
 30
0.0
 10
-14.1689
 20
-18.7371
 30
0.0
 10
-14.2385
 20
-18.89
 30
0.0
 10
-14.3782
 20
-19.001
 30
0.0
 10
-14.3782
 20
-19.001
 30
0.0
 10
-14.5461
 20
-19.1341
 30
0.0
 10
-14.8203
 20
-19.2009
 30
0.0
 10
-15.1994
 20
-19.2009
 30
0.0
  0
SPLINE
  5
6D
330
1F
100
AcDbEntity
  8
DEFAULT_1
 62
   250
100
AcDbSpline
210
0.0
220
0.0
230
1.0
 70
    11
 71
     3
 72
    36
 73
    32
 74
     0
 42
0.0000000001
 43
0.0000000001
 40
0.0
 40
0.0
 40
0.0
 40
0.0
 40
0.1111111111111111
 40
0.1111111111111111
 40
0.1111111111111111
 40
0.1111111111111111
 40
0.2222222222222222
 40
0.2222222222222222
 40
0.2222222222222222
 40
0.2222222222222222
 40
0.3333333333333333
 40
0.3333333333333333
 40
0.3333333333333333
 40
0.3333333333333333
 40
0.4444444444444444
 40
0.4444444444444444
 40
0.4444444444444444
 40
0.4444444444444444
 40
0.5555555555555556
 40
0.5555555555555556
 40
0.5555555555555556
 40
0.5555555555555556
 40
0.6666666666666666
 40
0.6666666666666666
 40
0.6666666666666666
 40
0.6666666666666666
 40
0.7777777777777778
 40
0.7777777777777778
 40
0.7777777777777778
 40
0.7777777777777778
 40
1.0
 40
1.0
 40
1.0
 40
1.0
 10
-15.1994
 20
-18.9459
 30
0.0
 10
-14.8678
 20
-18.9459
 30
0.0
 10
-14.6472
 20
-18.9069
 30
0.0
 10
-14.5372
 20
-18.8293
 30
0.0
 10
-14.5372
 20
-18.8293
 30
0.0
 10
-14.4276
 20
-18.7517
 30
0.0
 10
-14.3725
 20
-18.6562
 30
0.0
 10
-14.3725
 20
-18.5424
 30
0.0
 10
-14.3725
 20
-18.5424
 30
0.0
 10
-14.3725
 20
-18.4281
 30
0.0
 10
-14.428
 20
-18.3326
 30
0.0
 10
-14.5381
 20
-18.255
 30
0.0
 10
-14.5381
 20
-18.255
 30
0.0
 10
-14.6482
 20
-18.1774
 30
0.0
 10
-14.8688
 20
-18.1383
 30
0.0
 10
-15.1994
 20
-18.1383
 30
0.0
 10
-15.1994
 20
-18.1383
 30
0.0
 10
-15.532
 20
-18.1383
 30
0.0
 10
-15.7531
 20
-18.1774
 30
0.0
 10
-15.8622
 20
-18.255
 30
0.0
 10
-15.8622
 20
-18.255
 30
0.0
 10
-15.9718
 20
-18.3326
 30
0.0
 10
-16.0263
 20
-18.429
 30
0.0
 10
-16.0263
 20
-18.5447
 30
0.0
 10
-16.0263
 20
-18.5447
 30
0.0
 10
-16.0263
 20
-18.659
 30
0.0
 10
-15.9779
 20
-18.7498
 30
0.0
 10
-15.8815
 20
-18.818
 30
0.0
 10
-15.8815
 20
-18.818
 30
0.0
 10
-15.7587
 20
-18.9031
 30
0.0
 10
-15.531
 20
-18.9459
 30
0.0
 10
-15.1994
 20
-18.9459
 30
0.0
  0
SPLINE
  5
6E
330
1F
100
AcDbEntity
  8
DEFAULT_1
 62
   250
100
AcDbSpline
210
0.0
220
0.0
230
1.0
 70
    11
 71
     3
 72
   116
 73
   112
 74
     0
 42
0.0000000001
 43
0.0000000001
 40
0.0
 40
0.0
 40
0.0
 40
0.0
 40
0.0344827586206897
 40
0.0344827586206897
 40
0.0344827586206897
 40
0.0344827586206897
 40
0.0689655172413793
 40
0.0689655172413793
 40
0.0689655172413793
 40
0.0689655172413793
 40
0.103448275862069
 40
0.103448275862069
 40
0.103448275862069
 40
0.103448275862069
 40
0.1379310344827586
 40
0.1379310344827586
 40
0.1379310344827586
 40
0.1379310344827586
 40
0.1724137931034483
 40
0.1724137931034483
 40
0.1724137931034483
 40
0.1724137931034483
 40
0.2068965517241379
 40
0.2068965517241379
 40
0.2068965517241379
 40
0.2068965517241379
 40
0.2413793103448276
 40
0.2413793103448276
 40
0.2413793103448276
 40
0.2413793103448276
 40
0.2758620689655172
 40
0.2758620689655172
 40
0.2758620689655172
 40
0.2758620689655172
 40
0.3103448275862069
 40
0.3103448275862069
 40
0.3103448275862069
 40
0.3103448275862069
 40
0.3448275862068966
 40
0.3448275862068966
 40
0.3448275862068966
 40
0.3448275862068966
 40
0.3793103448275862
 40
0.3793103448275862
 40
0.3793103448275862
 40
0.3793103448275862
 40
0.4137931034482759
 40
0.4137931034482759
 40
0.4137931034482759
 40
0.4137931034482759
 40
0.4482758620689655
 40
0.4482758620689655
 40
0.4482758620689655
 40
0.4482758620689655
 40
0.4827586206896552
 40
0.4827586206896552
 40
0.4827586206896552
 40
0.4827586206896552
 40
0.5172413793103449
 40
0.5172413793103449
 40
0.5172413793103449
 40
0.5172413793103449
 40
0.5517241379310345
 40
0.5517241379310345
 40
0.5517241379310345
 40
0.5517241379310345
 40
0.5862068965517241
 40
0.5862068965517241
 40
0.5862068965517241
 40
0.5862068965517241
 40
0.6206896551724138
 40
0.6206896551724138
 40
0.6206896551724138
 40
0.6206896551724138
 40
0.6551724137931034
 40
0.6551724137931034
 40
0.6551724137931034
 40
0.6551724137931034
 40
0.6896551724137931
 40
0.6896551724137931
 40
0.6896551724137931
 40
0.6896551724137931
 40
0.7241379310344828
 40
0.7241379310344828
 40
0.7241379310344828
 40
0.7241379310344828
 40
0.7586206896551724
 40
0.7586206896551724
 40
0.7586206896551724
 40
0.7586206896551724
 40
0.7931034482758621
 40
0.7931034482758621
 40
0.7931034482758621
 40
0.7931034482758621
 40
0.8275862068965517
 40
0.8275862068965517
 40
0.8275862068965517
 40
0.8275862068965517
 40
0.8620689655172413
 40
0.8620689655172413
 40
0.8620689655172413
 40
0.8620689655172413
 40
0.896551724137931
 40
0.896551724137931
 40
0.896551724137931
 40
0.896551724137931
 40
0.9310344827586207
 40
0.9310344827586207
 40
0.9310344827586207
 40
0.9310344827586207
 40
1.0
 40
1.0
 40
1.0
 40
1.0
 10
-14.5114
 20
16.0646
 30
0.0
 10
-14.5114
 20
16.0646
 30
0.0
 10
-15.9747
 20
16.0646
 30
0.0
 10
-15.9747
 20
16.0646
 30
0.0
 10
-15.9747
 20
16.0646
 30
0.0
 10
-15.9747
 20
16.0646
 30
0.0
 10
-15.9747
 20
16.2861
 30
0.0
 10
-15.9747
 20
16.2861
 30
0.0
 10
-15.9747
 20
16.2861
 30
0.0
 10
-15.9747
 20
16.2861
 30
0.0
 10
-15.7696
 20
16.2861
 30
0.0
 10
-15.7696
 20
16.2861
 30
0.0
 10
-15.7696
 20
16.2861
 30
0.0
 10
-15.8411
 20
16.3322
 30
0.0
 10
-15.899
 20
16.3934
 30
0.0
 10
-15.9423
 20
16.4696
 30
0.0
 10
-15.9423
 20
16.4696
 30
0.0
 10
-15.986
 20
16.5458
 30
0.0
 10
-16.0081
 20
16.6328
 30
0.0
 10
-16.0081
 20
16.7301
 30
0.0
 10
-16.0081
 20
16.7301
 30
0.0
 10
-16.0081
 20
16.8383
 30
0.0
 10
-15.9855
 20
16.9272
 30
0.0
 10
-15.9404
 20
16.9964
 30
0.0
 10
-15.9404
 20
16.9964
 30
0.0
 10
-15.8952
 20
17.066
 30
0.0
 10
-15.8327
 20
17.1149
 30
0.0
 10
-15.7518
 20
17.1431
 30
0.0
 10
-15.7518
 20
17.1431
 30
0.0
 10
-15.9225
 20
17.2593
 30
0.0
 10
-16.0081
 20
17.4098
 30
0.0
 10
-16.0081
 20
17.5951
 30
0.0
 10
-16.0081
 20
17.5951
 30
0.0
 10
-16.0081
 20
17.7405
 30
0.0
 10
-15.9677
 20
17.852
 30
0.0
 10
-15.8872
 20
17.93
 30
0.0
 10
-15.8872
 20
17.93
 30
0.0
 10
-15.8068
 20
18.0081
 30
0.0
 10
-15.6831
 20
18.0472
 30
0.0
 10
-15.5161
 20
18.0472
 30
0.0
 10
-15.5161
 20
18.0472
 30
0.0
 10
-15.5161
 20
18.0472
 30
0.0
 10
-14.5114
 20
18.0472
 30
0.0
 10
-14.5114
 20
18.0472
 30
0.0
 10
-14.5114
 20
18.0472
 30
0.0
 10
-14.5114
 20
18.0472
 30
0.0
 10
-14.5114
 20
17.8007
 30
0.0
 10
-14.5114
 20
17.8007
 30
0.0
 10
-14.5114
 20
17.8007
 30
0.0
 10
-14.5114
 20
17.8007
 30
0.0
 10
-15.4333
 20
17.8007
 30
0.0
 10
-15.4333
 20
17.8007
 30
0.0
 10
-15.4333
 20
17.8007
 30
0.0
 10
-15.5326
 20
17.8007
 30
0.0
 10
-15.6041
 20
17.7927
 30
0.0
 10
-15.6478
 20
17.7767
 30
0.0
 10
-15.6478
 20
17.7767
 30
0.0
 10
-15.6911
 20
17.7602
 30
0.0
 10
-15.7264
 20
17.7311
 30
0.0
 10
-15.7532
 20
17.6892
 30
0.0
 10
-15.7532
 20
17.6892
 30
0.0
 10
-15.7795
 20
17.6469
 30
0.0
 10
-15.7931
 20
17.597
 30
0.0
 10
-15.7931
 20
17.5401
 30
0.0
 10
-15.7931
 20
17.5401
 30
0.0
 10
-15.7931
 20
17.4371
 30
0.0
 10
-15.7588
 20
17.352
 30
0.0
 10
-15.6901
 20
17.2838
 30
0.0
 10
-15.6901
 20
17.2838
 30
0.0
 10
-15.6219
 20
17.216
 30
0.0
 10
-15.5123
 20
17.1817
 30
0.0
 10
-15.3618
 20
17.1817
 30
0.0
 10
-15.3618
 20
17.1817
 30
0.0
 10
-15.3618
 20
17.1817
 30
0.0
 10
-14.5114
 20
17.1817
 30
0.0
 10
-14.5114
 20
17.1817
 30
0.0
 10
-14.5114
 20
17.1817
 30
0.0
 10
-14.5114
 20
17.1817
 30
0.0
 10
-14.5114
 20
16.9338
 30
0.0
 10
-14.5114
 20
16.9338
 30
0.0
 10
-14.5114
 20
16.9338
 30
0.0
 10
-14.5114
 20
16.9338
 30
0.0
 10
-15.462
 20
16.9338
 30
0.0
 10
-15.462
 20
16.9338
 30
0.0
 10
-15.462
 20
16.9338
 30
0.0
 10
-15.5725
 20
16.9338
 30
0.0
 10
-15.6553
 20
16.9136
 30
0.0
 10
-15.7104
 20
16.8731
 30
0.0
 10
-15.7104
 20
16.8731
 30
0.0
 10
-15.7654
 20
16.8327
 30
0.0
 10
-15.7931
 20
16.7668
 30
0.0
 10
-15.7931
 20
16.6746
 30
0.0
 10
-15.7931
 20
16.6746
 30
0.0
 10
-15.7931
 20
16.605
 30
0.0
 10
-15.7748
 20
16.5406
 30
0.0
 10
-15.7376
 20
16.4813
 30
0.0
 10
-15.7376
 20
16.4813
 30
0.0
 10
-15.701
 20
16.422
 30
0.0
 10
-15.6473
 20
16.3788
 30
0.0
 10
-15.5768
 20
16.3524
 30
0.0
 10
-15.5768
 20
16.3524
 30
0.0
 10
-15.5058
 20
16.3256
 30
0.0
 10
-15.4037
 20
16.3124
 30
0.0
 10
-15.2706
 20
16.3124
 30
0.0
 10
-15.2706
 20
16.3124
 30
0.0
 10
-15.2706
 20
16.3124
 30
0.0
 10
-14.5114
 20
16.3124
 30
0.0
 10
-14.5114
 20
16.3124
 30
0.0
 10
-14.5114
 20
16.3124
 30
0.0
 10
-14.5114
 20
16.3124
 30
0.0
 10
-14.5114
 20
16.0646
 30
0.0
 10
-14.5114
 20
16.0646
 30
0.0
  0
SPLINE
  5
6F
330
1F
100
AcDbEntity
  8
DEFAULT_1
 62
   250
100
AcDbSpline
210
0.0
220
0.0
230
1.0
 70
    11
 71
     3
 72
   112
 73
   108
 74
     0
 42
0.0000000001
 43
0.0000000001
 40
0.0
 40
0.0
 40
0.0
 40
0.0
 40
0.0357142857142857
 40
0.0357142857142857
 40
0.0357142857142857
 40
0.0357142857142857
 40
0.0714285714285714
 40
0.0714285714285714
 40
0.0714285714285714
 40
0.0714285714285714
 40
0.1071428571428571
 40
0.1071428571428571
 40
0.1071428571428571
 40
0.1071428571428571
 40
0.1428571428571428
 40
0.1428571428571428
 40
0.1428571428571428
 40
0.1428571428571428
 40
0.1785714285714286
 40
0.1785714285714286
 40
0.1785714285714286
 40
0.1785714285714286
 40
0.2142857142857143
 40
0.2142857142857143
 40
0.2142857142857143
 40
0.2142857142857143
 40
0.25
 40
0.25
 40
0.25
 40
0.25
 40
0.2857142857142857
 40
0.2857142857142857
 40
0.2857142857142857
 40
0.2857142857142857
 40
0.3214285714285715
 40
0.3214285714285715
 40
0.3214285714285715
 40
0.3214285714285715
 40
0.3571428571428572
 40
0.3571428571428572
 40
0.3571428571428572
 40
0.3571428571428572
 40
0.3928571428571428
 40
0.3928571428571428
 40
0.3928571428571428
 40
0.3928571428571428
 40
0.4285714285714285
 40
0.4285714285714285
 40
0.4285714285714285
 40
0.4285714285714285
 40
0.4642857142857143
 40
0.4642857142857143
 40
0.4642857142857143
 40
0.4642857142857143
 40
0.5
 40
0.5
 40
0.5
 40
0.5
 40
0.5357142857142857
 40
0.5357142857142857
 40
0.5357142857142857
 40
0.5357142857142857
 40
0.5714285714285714
 40
0.5714285714285714
 40
0.5714285714285714
 40
0.5714285714285714
 40
0.6071428571428571
 40
0.6071428571428571
 40
0.6071428571428571
 40
0.6071428571428571
 40
0.6428571428571429
 40
0.6428571428571429
 40
0.6428571428571429
 40
0.6428571428571429
 40
0.6785714285714286
 40
0.6785714285714286
 40
0.6785714285714286
 40
0.6785714285714286
 40
0.7142857142857143
 40
0.7142857142857143
 40
0.7142857142857143
 40
0.7142857142857143
 40
0.75
 40
0.75
 40
0.75
 40
0.75
 40
0.7857142857142857
 40
0.7857142857142857
 40
0.7857142857142857
 40
0.7857142857142857
 40
0.8214285714285714
 40
0.8214285714285714
 40
0.8214285714285714
 40
0.8214285714285714
 40
0.8571428571428571
 40
0.8571428571428571
 40
0.8571428571428571
 40
0.8571428571428571
 40
0.8928571428571429
 40
0.8928571428571429
 40
0.8928571428571429
 40
0.8928571428571429
 40
0.9285714285714286
 40
0.9285714285714286
 40
0.9285714285714286
 40
0.9285714285714286
 40
1.0
 40
1.0
 40
1.0
 40
1.0
 10
-14.692
 20
19.3703
 30
0.0
 10
-14.6139
 20
19.2781
 30
0.0
 10
-14.5589
 20
19.1897
 30
0.0
 10
-14.5265
 20
19.105
 30
0.0
 10
-14.5265
 20
19.105
 30
0.0
 10
-14.4945
 20
19.0199
 30
0.0
 10
-14.4785
 20
18.9286
 30
0.0
 10
-14.4785
 20
18.8313
 30
0.0
 10
-14.4785
 20
18.8313
 30
0.0
 10
-14.4785
 20
18.6704
 30
0.0
 10
-14.5175
 20
18.5472
 30
0.0
 10
-14.5961
 20
18.4606
 30
0.0
 10
-14.5961
 20
18.4606
 30
0.0
 10
-14.6746
 20
18.3745
 30
0.0
 10
-14.7753
 20
18.3313
 30
0.0
 10
-14.8971
 20
18.3313
 30
0.0
 10
-14.8971
 20
18.3313
 30
0.0
 10
-14.9691
 20
18.3313
 30
0.0
 10
-15.0344
 20
18.3473
 30
0.0
 10
-15.0937
 20
18.3802
 30
0.0
 10
-15.0937
 20
18.3802
 30
0.0
 10
-15.153
 20
18.4126
 30
0.0
 10
-15.2005
 20
18.4554
 30
0.0
 10
-15.2362
 20
18.5081
 30
0.0
 10
-15.2362
 20
18.5081
 30
0.0
 10
-15.272
 20
18.5613
 30
0.0
 10
-15.2993
 20
18.6205
 30
0.0
 10
-15.3176
 20
18.6869
 30
0.0
 10
-15.3176
 20
18.6869
 30
0.0
 10
-15.3303
 20
18.7353
 30
0.0
 10
-15.343
 20
18.8087
 30
0.0
 10
-15.3548
 20
18.907
 30
0.0
 10
-15.3548
 20
18.907
 30
0.0
 10
-15.3788
 20
19.1074
 30
0.0
 10
-15.407
 20
19.2551
 30
0.0
 10
-15.4404
 20
19.3496
 30
0.0
 10
-15.4404
 20
19.3496
 30
0.0
 10
-15.4742
 20
19.3506
 30
0.0
 10
-15.4959
 20
19.351
 30
0.0
 10
-15.5048
 20
19.351
 30
0.0
 10
-15.5048
 20
19.351
 30
0.0
 10
-15.6059
 20
19.351
 30
0.0
 10
-15.6774
 20
19.3275
 30
0.0
 10
-15.7184
 20
19.2805
 30
0.0
 10
-15.7184
 20
19.2805
 30
0.0
 10
-15.7748
 20
19.2174
 30
0.0
 10
-15.8026
 20
19.1229
 30
0.0
 10
-15.8026
 20
18.9982
 30
0.0
 10
-15.8026
 20
18.9982
 30
0.0
 10
-15.8026
 20
18.8816
 30
0.0
 10
-15.7823
 20
18.7955
 30
0.0
 10
-15.7414
 20
18.7395
 30
0.0
 10
-15.7414
 20
18.7395
 30
0.0
 10
-15.7005
 20
18.684
 30
0.0
 10
-15.6281
 20
18.6431
 30
0.0
 10
-15.5241
 20
18.6163
 30
0.0
 10
-15.5241
 20
18.6163
 30
0.0
 10
-15.5241
 20
18.6163
 30
0.0
 10
-15.5575
 20
18.3741
 30
0.0
 10
-15.5575
 20
18.3741
 30
0.0
 10
-15.5575
 20
18.3741
 30
0.0
 10
-15.661
 20
18.3962
 30
0.0
 10
-15.7452
 20
18.4324
 30
0.0
 10
-15.8087
 20
18.4827
 30
0.0
 10
-15.8087
 20
18.4827
 30
0.0
 10
-15.8726
 20
18.5331
 30
0.0
 10
-15.922
 20
18.6064
 30
0.0
 10
-15.9564
 20
18.7019
 30
0.0
 10
-15.9564
 20
18.7019
 30
0.0
 10
-15.9907
 20
18.7974
 30
0.0
 10
-16.0081
 20
18.9079
 30
0.0
 10
-16.0081
 20
19.034
 30
0.0
 10
-16.0081
 20
19.034
 30
0.0
 10
-16.0081
 20
19.1591
 30
0.0
 10
-15.9931
 20
19.2602
 30
0.0
 10
-15.9639
 20
19.3383
 30
0.0
 10
-15.9639
 20
19.3383
 30
0.0
 10
-15.9343
 20
19.4164
 30
0.0
 10
-15.8976
 20
19.4738
 30
0.0
 10
-15.8529
 20
19.5109
 30
0.0
 10
-15.8529
 20
19.5109
 30
0.0
 10
-15.8082
 20
19.5476
 30
0.0
 10
-15.7522
 20
19.573
 30
0.0
 10
-15.684
 20
19.5881
 30
0.0
 10
-15.684
 20
19.5881
 30
0.0
 10
-15.6417
 20
19.5961
 30
0.0
 10
-15.5655
 20
19.6003
 30
0.0
 10
-15.4554
 20
19.6003
 30
0.0
 10
-15.4554
 20
19.6003
 30
0.0
 10
-15.4554
 20
19.6003
 30
0.0
 10
-15.1248
 20
19.6003
 30
0.0
 10
-15.1248
 20
19.6003
 30
0.0
 10
-15.1248
 20
19.6003
 30
0.0
 10
-14.8938
 20
19.6003
 30
0.0
 10
-14.748
 20
19.6055
 30
0.0
 10
-14.6873
 20
19.6163
 30
0.0
 10
-14.6873
 20
19.6163
 30
0.0
 10
-14.6262
 20
19.6267
 30
0.0
 10
-14.5674
 20
19.6478
 30
0.0
 10
-14.5114
 20
19.6789
 30
0.0
 10
-14.5114
 20
19.6789
 30
0.0
 10
-14.5114
 20
19.6789
 30
0.0
 10
-14.5114
 20
19.4197
 30
0.0
 10
-14.5114
 20
19.4197
 30
0.0
 10
-14.5114
 20
19.4197
 30
0.0
 10
-14.5627
 20
19.3943
 30
0.0
 10
-14.6229
 20
19.3774
 30
0.0
 10
-14.692
 20
19.3703
 30
0.0
  0
SPLINE
  5
70
330
1F
100
AcDbEntity
  8
DEFAULT_1
 62
   250
100
AcDbSpline
210
0.0
220
0.0
230
1.0
 70
    11
 71
     3
 72
    44
 73
    40
 74
     0
 42
0.0000000001
 43
0.0000000001
 40
0.0
 40
0.0
 40
0.0
 40
0.0
 40
0.0909090909090909
 40
0.0909090909090909
 40
0.0909090909090909
 40
0.0909090909090909
 40
0.1818181818181818
 40
0.1818181818181818
 40
0.1818181818181818
 40
0.1818181818181818
 40
0.2727272727272727
 40
0.2727272727272727
 40
0.2727272727272727
 40
0.2727272727272727
 40
0.3636363636363636
 40
0.3636363636363636
 40
0.3636363636363636
 40
0.3636363636363636
 40
0.4545454545454545
 40
0.4545454545454545
 40
0.4545454545454545
 40
0.4545454545454545
 40
0.5454545454545454
 40
0.5454545454545454
 40
0.5454545454545454
 40
0.5454545454545454
 40
0.6363636363636364
 40
0.6363636363636364
 40
0.6363636363636364
 40
0.6363636363636364
 40
0.7272727272727273
 40
0.7272727272727273
 40
0.7272727272727273
 40
0.7272727272727273
 40
0.8181818181818182
 40
0.8181818181818182
 40
0.8181818181818182
 40
0.8181818181818182
 40
1.0
 40
1.0
 40
1.0
 40
1.0
 10
-15.2461
 20
19.3496
 30
0.0
 10
-15.209
 20
19.2593
 30
0.0
 10
-15.1779
 20
19.1243
 30
0.0
 10
-15.152
 20
18.9446
 30
0.0
 10
-15.152
 20
18.9446
 30
0.0
 10
-15.1375
 20
18.8426
 30
0.0
 10
-15.121
 20
18.7701
 30
0.0
 10
-15.1027
 20
18.7283
 30
0.0
 10
-15.1027
 20
18.7283
 30
0.0
 10
-15.0843
 20
18.6859
 30
0.0
 10
-15.0575
 20
18.653
 30
0.0
 10
-15.0217
 20
18.6304
 30
0.0
 10
-15.0217
 20
18.6304
 30
0.0
 10
-14.9865
 20
18.6074
 30
0.0
 10
-14.9474
 20
18.5956
 30
0.0
 10
-14.9042
 20
18.5956
 30
0.0
 10
-14.9042
 20
18.5956
 30
0.0
 10
-14.8378
 20
18.5956
 30
0.0
 10
-14.7828
 20
18.621
 30
0.0
 10
-14.7386
 20
18.6709
 30
0.0
 10
-14.7386
 20
18.6709
 30
0.0
 10
-14.6948
 20
18.7207
 30
0.0
 10
-14.6727
 20
18.7941
 30
0.0
 10
-14.6727
 20
18.8905
 30
0.0
 10
-14.6727
 20
18.8905
 30
0.0
 10
-14.6727
 20
18.986
 30
0.0
 10
-14.6934
 20
19.0712
 30
0.0
 10
-14.7353
 20
19.1455
 30
0.0
 10
-14.7353
 20
19.1455
 30
0.0
 10
-14.7772
 20
19.2198
 30
0.0
 10
-14.8345
 20
19.2748
 30
0.0
 10
-14.907
 20
19.3096
 30
0.0
 10
-14.907
 20
19.3096
 30
0.0
 10
-14.963
 20
19.3364
 30
0.0
 10
-15.0457
 20
19.3496
 30
0.0
 10
-15.1549
 20
19.3496
 30
0.0
 10
-15.1549
 20
19.3496
 30
0.0
 10
-15.1549
 20
19.3496
 30
0.0
 10
-15.2461
 20
19.3496
 30
0.0
 10
-15.2461
 20
19.3496
 30
0.0
  0
SPLINE
  5
71
330
1F
100
AcDbEntity
  8
DEFAULT_1
 62
   250
100
AcDbSpline
210
0.0
220
0.0
230
1.0
 70
    11
 71
     3
 72
    64
 73
    60
 74
     0
 42
0.0000000001
 43
0.0000000001
 40
0.0
 40
0.0
 40
0.0
 40
0.0
 40
0.0625
 40
0.0625
 40
0.0625
 40
0.0625
 40
0.125
 40
0.125
 40
0.125
 40
0.125
 40
0.1875
 40
0.1875
 40
0.1875
 40
0.1875
 40
0.25
 40
0.25
 40
0.25
 40
0.25
 40
0.3125
 40
0.3125
 40
0.3125
 40
0.3125
 40
0.375
 40
0.375
 40
0.375
 40
0.375
 40
0.4375
 40
0.4375
 40
0.4375
 40
0.4375
 40
0.5
 40
0.5
 40
0.5
 40
0.5
 40
0.5625
 40
0.5625
 40
0.5625
 40
0.5625
 40
0.625
 40
0.625
 40
0.625
 40
0.625
 40
0.6875
 40
0.6875
 40
0.6875
 40
0.6875
 40
0.75
 40
0.75
 40
0.75
 40
0.75
 40
0.8125
 40
0.8125
 40
0.8125
 40
0.8125
 40
0.875
 40
0.875
 40
0.875
 40
0.875
 40
1.0
 40
1.0
 40
1.0
 40
1.0
 10
-14.5114
 20
19.8195
 30
0.0
 10
-14.5114
 20
19.8195
 30
0.0
 10
-15.272
 20
20.3543
 30
0.0
 10
-15.272
 20
20.3543
 30
0.0
 10
-15.272
 20
20.3543
 30
0.0
 10
-15.272
 20
20.3543
 30
0.0
 10
-15.9747
 20
19.8595
 30
0.0
 10
-15.9747
 20
19.8595
 30
0.0
 10
-15.9747
 20
19.8595
 30
0.0
 10
-15.9747
 20
19.8595
 30
0.0
 10
-15.9747
 20
20.1694
 30
0.0
 10
-15.9747
 20
20.1694
 30
0.0
 10
-15.9747
 20
20.1694
 30
0.0
 10
-15.9747
 20
20.1694
 30
0.0
 10
-15.6318
 20
20.3943
 30
0.0
 10
-15.6318
 20
20.3943
 30
0.0
 10
-15.6318
 20
20.3943
 30
0.0
 10
-15.5664
 20
20.4361
 30
0.0
 10
-15.5119
 20
20.4705
 30
0.0
 10
-15.4677
 20
20.4959
 30
0.0
 10
-15.4677
 20
20.4959
 30
0.0
 10
-15.5283
 20
20.5363
 30
0.0
 10
-15.582
 20
20.5735
 30
0.0
 10
-15.629
 20
20.6078
 30
0.0
 10
-15.629
 20
20.6078
 30
0.0
 10
-15.629
 20
20.6078
 30
0.0
 10
-15.9747
 20
20.8543
 30
0.0
 10
-15.9747
 20
20.8543
 30
0.0
 10
-15.9747
 20
20.8543
 30
0.0
 10
-15.9747
 20
20.8543
 30
0.0
 10
-15.9747
 20
21.1506
 30
0.0
 10
-15.9747
 20
21.1506
 30
0.0
 10
-15.9747
 20
21.1506
 30
0.0
 10
-15.9747
 20
21.1506
 30
0.0
 10
-15.2856
 20
20.645
 30
0.0
 10
-15.2856
 20
20.645
 30
0.0
 10
-15.2856
 20
20.645
 30
0.0
 10
-15.2856
 20
20.645
 30
0.0
 10
-14.5114
 20
21.1892
 30
0.0
 10
-14.5114
 20
21.1892
 30
0.0
 10
-14.5114
 20
21.1892
 30
0.0
 10
-14.5114
 20
21.1892
 30
0.0
 10
-14.5114
 20
20.8849
 30
0.0
 10
-14.5114
 20
20.8849
 30
0.0
 10
-14.5114
 20
20.8849
 30
0.0
 10
-14.5114
 20
20.8849
 30
0.0
 10
-14.9662
 20
20.5843
 30
0.0
 10
-14.9662
 20
20.5843
 30
0.0
 10
-14.9662
 20
20.5843
 30
0.0
 10
-14.9662
 20
20.5843
 30
0.0
 10
-15.089
 20
20.5044
 30
0.0
 10
-15.089
 20
20.5044
 30
0.0
 10
-15.089
 20
20.5044
 30
0.0
 10
-15.089
 20
20.5044
 30
0.0
 10
-14.5114
 20
20.1201
 30
0.0
 10
-14.5114
 20
20.1201
 30
0.0
 10
-14.5114
 20
20.1201
 30
0.0
 10
-14.5114
 20
20.1201
 30
0.0
 10
-14.5114
 20
19.8195
 30
0.0
 10
-14.5114
 20
19.8195
 30
0.0
  0
SPLINE
  5
72
330
1F
100
AcDbEntity
  8
DEFAULT_1
 62
   250
100
AcDbSpline
210
0.0
220
0.0
230
1.0
 70
    11
 71
     3
 72
    40
 73
    36
 74
     0
 42
0.0000000001
 43
0.0000000001
 40
0.0
 40
0.0
 40
0.0
 40
0.0
 40
0.1
 40
0.1
 40
0.1
 40
0.1
 40
0.2
 40
0.2
 40
0.2
 40
0.2
 40
0.3
 40
0.3
 40
0.3
 40
0.3
 40
0.4
 40
0.4
 40
0.4
 40
0.4
 40
0.5
 40
0.5
 40
0.5
 40
0.5
 40
0.6
 40
0.6
 40
0.6
 40
0.6
 40
0.7
 40
0.7
 40
0.7
 40
0.7
 40
0.8
 40
0.8
 40
0.8
 40
0.8
 40
1.0
 40
1.0
 40
1.0
 40
1.0
 10
-14.5114
 20
23.0453
 30
0.0
 10
-14.5114
 20
23.0453
 30
0.0
 10
-14.5114
 20
22.7974
 30
0.0
 10
-14.5114
 20
22.7974
 30
0.0
 10
-14.5114
 20
22.7974
 30
0.0
 10
-14.5114
 20
22.7974
 30
0.0
 10
-16.0918
 20
22.7974
 30
0.0
 10
-16.0918
 20
22.7974
 30
0.0
 10
-16.0918
 20
22.7974
 30
0.0
 10
-16.0349
 20
22.7376
 30
0.0
 10
-15.978
 20
22.6596
 30
0.0
 10
-15.9211
 20
22.5627
 30
0.0
 10
-15.9211
 20
22.5627
 30
0.0
 10
-15.8642
 20
22.4653
 30
0.0
 10
-15.8214
 20
22.3783
 30
0.0
 10
-15.7931
 20
22.3011
 30
0.0
 10
-15.7931
 20
22.3011
 30
0.0
 10
-15.7931
 20
22.3011
 30
0.0
 10
-16.0326
 20
22.3011
 30
0.0
 10
-16.0326
 20
22.3011
 30
0.0
 10
-16.0326
 20
22.3011
 30
0.0
 10
-16.0979
 20
22.4399
 30
0.0
 10
-16.177
 20
22.5613
 30
0.0
 10
-16.2696
 20
22.6652
 30
0.0
 10
-16.2696
 20
22.6652
 30
0.0
 10
-16.3628
 20
22.7687
 30
0.0
 10
-16.4526
 20
22.8425
 30
0.0
 10
-16.5401
 20
22.8858
 30
0.0
 10
-16.5401
 20
22.8858
 30
0.0
 10
-16.5401
 20
22.8858
 30
0.0
 10
-16.5401
 20
23.0453
 30
0.0
 10
-16.5401
 20
23.0453
 30
0.0
 10
-16.5401
 20
23.0453
 30
0.0
 10
-16.5401
 20
23.0453
 30
0.0
 10
-14.5114
 20
23.0453
 30
0.0
 10
-14.5114
 20
23.0453
 30
0.0
  0
SPLINE
  5
73
330
1F
100
AcDbEntity
  8
DEFAULT_1
 62
   250
100
AcDbSpline
210
0.0
220
0.0
230
1.0
 70
    11
 71
     3
 72
    80
 73
    76
 74
     0
 42
0.0000000001
 43
0.0000000001
 40
0.0
 40
0.0
 40
0.0
 40
0.0
 40
0.05
 40
0.05
 40
0.05
 40
0.05
 40
0.1
 40
0.1
 40
0.1
 40
0.1
 40
0.15
 40
0.15
 40
0.15
 40
0.15
 40
0.2
 40
0.2
 40
0.2
 40
0.2
 40
0.25
 40
0.25
 40
0.25
 40
0.25
 40
0.3
 40
0.3
 40
0.3
 40
0.3
 40
0.35
 40
0.35
 40
0.35
 40
0.35
 40
0.4
 40
0.4
 40
0.4
 40
0.4
 40
0.45
 40
0.45
 40
0.45
 40
0.45
 40
0.5
 40
0.5
 40
0.5
 40
0.5
 40
0.55
 40
0.55
 40
0.55
 40
0.55
 40
0.6
 40
0.6
 40
0.6
 40
0.6
 40
0.65
 40
0.65
 40
0.65
 40
0.65
 40
0.7
 40
0.7
 40
0.7
 40
0.7
 40
0.75
 40
0.75
 40
0.75
 40
0.75
 40
0.8
 40
0.8
 40
0.8
 40
0.8
 40
0.85
 40
0.85
 40
0.85
 40
0.85
 40
0.9
 40
0.9
 40
0.9
 40
0.9
 40
1.0
 40
1.0
 40
1.0
 40
1.0
 10
-16.0368
 20
24.9676
 30
0.0
 10
-16.0368
 20
24.9676
 30
0.0
 10
-16.0175
 20
24.7212
 30
0.0
 10
-16.0175
 20
24.7212
 30
0.0
 10
-16.0175
 20
24.7212
 30
0.0
 10
-16.1149
 20
24.6991
 30
0.0
 10
-16.1859
 20
24.668
 30
0.0
 10
-16.2296
 20
24.6276
 30
0.0
 10
-16.2296
 20
24.6276
 30
0.0
 10
-16.3007
 20
24.5603
 30
0.0
 10
-16.336
 20
24.4775
 30
0.0
 10
-16.336
 20
24.3792
 30
0.0
 10
-16.336
 20
24.3792
 30
0.0
 10
-16.336
 20
24.3002
 30
0.0
 10
-16.3138
 20
24.2311
 30
0.0
 10
-16.2696
 20
24.1713
 30
0.0
 10
-16.2696
 20
24.1713
 30
0.0
 10
-16.2127
 20
24.0932
 30
0.0
 10
-16.1295
 20
24.0316
 30
0.0
 10
-16.0203
 20
23.9865
 30
0.0
 10
-16.0203
 20
23.9865
 30
0.0
 10
-15.9112
 20
23.9418
 30
0.0
 10
-15.7555
 20
23.9183
 30
0.0
 10
-15.5533
 20
23.9164
 30
0.0
 10
-15.5533
 20
23.9164
 30
0.0
 10
-15.644
 20
23.9761
 30
0.0
 10
-15.7118
 20
24.049
 30
0.0
 10
-15.756
 20
24.1356
 30
0.0
 10
-15.756
 20
24.1356
 30
0.0
 10
-15.7997
 20
24.2216
 30
0.0
 10
-15.8218
 20
24.3124
 30
0.0
 10
-15.8218
 20
24.407
 30
0.0
 10
-15.8218
 20
24.407
 30
0.0
 10
-15.8218
 20
24.5725
 30
0.0
 10
-15.7612
 20
24.7132
 30
0.0
 10
-15.6393
 20
24.8294
 30
0.0
 10
-15.6393
 20
24.8294
 30
0.0
 10
-15.5175
 20
24.9455
 30
0.0
 10
-15.3604
 20
25.0039
 30
0.0
 10
-15.1676
 20
25.0039
 30
0.0
 10
-15.1676
 20
25.0039
 30
0.0
 10
-15.0406
 20
25.0039
 30
0.0
 10
-14.923
 20
24.9761
 30
0.0
 10
-14.8138
 20
24.9215
 30
0.0
 10
-14.8138
 20
24.9215
 30
0.0
 10
-14.7052
 20
24.867
 30
0.0
 10
-14.6215
 20
24.7917
 30
0.0
 10
-14.5636
 20
24.6962
 30
0.0
 10
-14.5636
 20
24.6962
 30
0.0
 10
-14.5058
 20
24.6008
 30
0.0
 10
-14.4771
 20
24.4926
 30
0.0
 10
-14.4771
 20
24.3712
 30
0.0
 10
-14.4771
 20
24.3712
 30
0.0
 10
-14.4771
 20
24.1643
 30
0.0
 10
-14.5528
 20
23.9959
 30
0.0
 10
-14.7052
 20
23.8656
 30
0.0
 10
-14.7052
 20
23.8656
 30
0.0
 10
-14.8571
 20
23.7348
 30
0.0
 10
-15.1078
 20
23.6699
 30
0.0
 10
-15.4568
 20
23.6699
 30
0.0
 10
-15.4568
 20
23.6699
 30
0.0
 10
-15.8472
 20
23.6699
 30
0.0
 10
-16.1309
 20
23.7419
 30
0.0
 10
-16.3082
 20
23.8863
 30
0.0
 10
-16.3082
 20
23.8863
 30
0.0
 10
-16.4625
 20
24.0119
 30
0.0
 10
-16.5401
 20
24.1812
 30
0.0
 10
-16.5401
 20
24.3947
 30
0.0
 10
-16.5401
 20
24.3947
 30
0.0
 10
-16.5401
 20
24.5533
 30
0.0
 10
-16.4954
 20
24.6835
 30
0.0
 10
-16.406
 20
24.7851
 30
0.0
 10
-16.406
 20
24.7851
 30
0.0
 10
-16.3171
 20
24.8867
 30
0.0
 10
-16.1939
 20
24.9474
 30
0.0
 10
-16.0368
 20
24.9676
 30
0.0
  0
SPLINE
  5
74
330
1F
100
AcDbEntity
  8
DEFAULT_1
 62
   250
100
AcDbSpline
210
0.0
220
0.0
230
1.0
 70
    11
 71
     3
 72
    40
 73
    36
 74
     0
 42
0.0000000001
 43
0.0000000001
 40
0.0
 40
0.0
 40
0.0
 40
0.0
 40
0.1
 40
0.1
 40
0.1
 40
0.1
 40
0.2
 40
0.2
 40
0.2
 40
0.2
 40
0.3
 40
0.3
 40
0.3
 40
0.3
 40
0.4
 40
0.4
 40
0.4
 40
0.4
 40
0.5
 40
0.5
 40
0.5
 40
0.5
 40
0.6
 40
0.6
 40
0.6
 40
0.6
 40
0.7
 40
0.7
 40
0.7
 40
0.7
 40
0.8
 40
0.8
 40
0.8
 40
0.8
 40
1.0
 40
1.0
 40
1.0
 40
1.0
 10
-15.1662
 20
23.9549
 30
0.0
 10
-15.0805
 20
23.9549
 30
0.0
 10
-14.9987
 20
23.9733
 30
0.0
 10
-14.9206
 20
24.0095
 30
0.0
 10
-14.9206
 20
24.0095
 30
0.0
 10
-14.8425
 20
24.0457
 30
0.0
 10
-14.7833
 20
24.0965
 30
0.0
 10
-14.7424
 20
24.1614
 30
0.0
 10
-14.7424
 20
24.1614
 30
0.0
 10
-14.7014
 20
24.2268
 30
0.0
 10
-14.6807
 20
24.2955
 30
0.0
 10
-14.6807
 20
24.367
 30
0.0
 10
-14.6807
 20
24.367
 30
0.0
 10
-14.6807
 20
24.4719
 30
0.0
 10
-14.7231
 20
24.5617
 30
0.0
 10
-14.8077
 20
24.637
 30
0.0
 10
-14.8077
 20
24.637
 30
0.0
 10
-14.8924
 20
24.7122
 30
0.0
 10
-15.0072
 20
24.7499
 30
0.0
 10
-15.152
 20
24.7499
 30
0.0
 10
-15.152
 20
24.7499
 30
0.0
 10
-15.2917
 20
24.7499
 30
0.0
 10
-15.4018
 20
24.7127
 30
0.0
 10
-15.4822
 20
24.6384
 30
0.0
 10
-15.4822
 20
24.6384
 30
0.0
 10
-15.5627
 20
24.5641
 30
0.0
 10
-15.6027
 20
24.4705
 30
0.0
 10
-15.6027
 20
24.3576
 30
0.0
 10
-15.6027
 20
24.3576
 30
0.0
 10
-15.6027
 20
24.2452
 30
0.0
 10
-15.5627
 20
24.1501
 30
0.0
 10
-15.4822
 20
24.0721
 30
0.0
 10
-15.4822
 20
24.0721
 30
0.0
 10
-15.4018
 20
23.994
 30
0.0
 10
-15.2964
 20
23.9549
 30
0.0
 10
-15.1662
 20
23.9549
 30
0.0
  0
SPLINE
  5
75
330
1F
100
AcDbEntity
  8
DEFAULT_1
 62
   250
100
AcDbSpline
210
0.0
220
0.0
230
1.0
 70
    11
 71
     3
 72
    40
 73
    36
 74
     0
 42
0.0000000001
 43
0.0000000001
 40
0.0
 40
0.0
 40
0.0
 40
0.0
 40
0.1
 40
0.1
 40
0.1
 40
0.1
 40
0.2
 40
0.2
 40
0.2
 40
0.2
 40
0.3
 40
0.3
 40
0.3
 40
0.3
 40
0.4
 40
0.4
 40
0.4
 40
0.4
 40
0.5
 40
0.5
 40
0.5
 40
0.5
 40
0.6
 40
0.6
 40
0.6
 40
0.6
 40
0.7
 40
0.7
 40
0.7
 40
0.7
 40
0.8
 40
0.8
 40
0.8
 40
0.8
 40
1.0
 40
1.0
 40
1.0
 40
1.0
 10
-14.3182
 20
-3.051
 30
0.0
 10
-14.3182
 20
-3.051
 30
0.0
 10
-14.3182
 20
-3.2989
 30
0.0
 10
-14.3182
 20
-3.2989
 30
0.0
 10
-14.3182
 20
-3.2989
 30
0.0
 10
-14.3182
 20
-3.2989
 30
0.0
 10
-15.8986
 20
-3.2989
 30
0.0
 10
-15.8986
 20
-3.2989
 30
0.0
 10
-15.8986
 20
-3.2989
 30
0.0
 10
-15.8417
 20
-3.3587
 30
0.0
 10
-15.7848
 20
-3.4367
 30
0.0
 10
-15.7279
 20
-3.5336
 30
0.0
 10
-15.7279
 20
-3.5336
 30
0.0
 10
-15.671
 20
-3.631
 30
0.0
 10
-15.6282
 20
-3.718
 30
0.0
 10
-15.5999
 20
-3.7952
 30
0.0
 10
-15.5999
 20
-3.7952
 30
0.0
 10
-15.5999
 20
-3.7952
 30
0.0
 10
-15.8394
 20
-3.7952
 30
0.0
 10
-15.8394
 20
-3.7952
 30
0.0
 10
-15.8394
 20
-3.7952
 30
0.0
 10
-15.9047
 20
-3.6564
 30
0.0
 10
-15.9838
 20
-3.535
 30
0.0
 10
-16.0764
 20
-3.4311
 30
0.0
 10
-16.0764
 20
-3.4311
 30
0.0
 10
-16.1696
 20
-3.3276
 30
0.0
 10
-16.2594
 20
-3.2538
 30
0.0
 10
-16.3469
 20
-3.2105
 30
0.0
 10
-16.3469
 20
-3.2105
 30
0.0
 10
-16.3469
 20
-3.2105
 30
0.0
 10
-16.3469
 20
-3.051
 30
0.0
 10
-16.3469
 20
-3.051
 30
0.0
 10
-16.3469
 20
-3.051
 30
0.0
 10
-16.3469
 20
-3.051
 30
0.0
 10
-14.3182
 20
-3.051
 30
0.0
 10
-14.3182
 20
-3.051
 30
0.0
  0
SPLINE
  5
76
330
1F
100
AcDbEntity
  8
DEFAULT_1
 62
   250
100
AcDbSpline
210
0.0
220
0.0
230
1.0
 70
    11
 71
     3
 72
    48
 73
    44
 74
     0
 42
0.0000000001
 43
0.0000000001
 40
0.0
 40
0.0
 40
0.0
 40
0.0
 40
0.0833333333333333
 40
0.0833333333333333
 40
0.0833333333333333
 40
0.0833333333333333
 40
0.1666666666666667
 40
0.1666666666666667
 40
0.1666666666666667
 40
0.1666666666666667
 40
0.25
 40
0.25
 40
0.25
 40
0.25
 40
0.3333333333333333
 40
0.3333333333333333
 40
0.3333333333333333
 40
0.3333333333333333
 40
0.4166666666666667
 40
0.4166666666666667
 40
0.4166666666666667
 40
0.4166666666666667
 40
0.5
 40
0.5
 40
0.5
 40
0.5
 40
0.5833333333333334
 40
0.5833333333333334
 40
0.5833333333333334
 40
0.5833333333333334
 40
0.6666666666666666
 40
0.6666666666666666
 40
0.6666666666666666
 40
0.6666666666666666
 40
0.75
 40
0.75
 40
0.75
 40
0.75
 40
0.8333333333333334
 40
0.8333333333333334
 40
0.8333333333333334
 40
0.8333333333333334
 40
1.0
 40
1.0
 40
1.0
 40
1.0
 10
-14.3182
 20
-1.6207
 30
0.0
 10
-14.3182
 20
-1.6207
 30
0.0
 10
-14.8017
 20
-1.6207
 30
0.0
 10
-14.8017
 20
-1.6207
 30
0.0
 10
-14.8017
 20
-1.6207
 30
0.0
 10
-14.8017
 20
-1.6207
 30
0.0
 10
-14.8017
 20
-2.497
 30
0.0
 10
-14.8017
 20
-2.497
 30
0.0
 10
-14.8017
 20
-2.497
 30
0.0
 10
-14.8017
 20
-2.497
 30
0.0
 10
-15.0294
 20
-2.497
 30
0.0
 10
-15.0294
 20
-2.497
 30
0.0
 10
-15.0294
 20
-2.497
 30
0.0
 10
-15.0294
 20
-2.497
 30
0.0
 10
-16.3384
 20
-1.575
 30
0.0
 10
-16.3384
 20
-1.575
 30
0.0
 10
-16.3384
 20
-1.575
 30
0.0
 10
-16.3384
 20
-1.575
 30
0.0
 10
-16.3384
 20
-1.3723
 30
0.0
 10
-16.3384
 20
-1.3723
 30
0.0
 10
-16.3384
 20
-1.3723
 30
0.0
 10
-16.3384
 20
-1.3723
 30
0.0
 10
-15.0294
 20
-1.3723
 30
0.0
 10
-15.0294
 20
-1.3723
 30
0.0
 10
-15.0294
 20
-1.3723
 30
0.0
 10
-15.0294
 20
-1.3723
 30
0.0
 10
-15.0294
 20
-1.0995
 30
0.0
 10
-15.0294
 20
-1.0995
 30
0.0
 10
-15.0294
 20
-1.0995
 30
0.0
 10
-15.0294
 20
-1.0995
 30
0.0
 10
-14.8017
 20
-1.0995
 30
0.0
 10
-14.8017
 20
-1.0995
 30
0.0
 10
-14.8017
 20
-1.0995
 30
0.0
 10
-14.8017
 20
-1.0995
 30
0.0
 10
-14.8017
 20
-1.3723
 30
0.0
 10
-14.8017
 20
-1.3723
 30
0.0
 10
-14.8017
 20
-1.3723
 30
0.0
 10
-14.8017
 20
-1.3723
 30
0.0
 10
-14.3182
 20
-1.3723
 30
0.0
 10
-14.3182
 20
-1.3723
 30
0.0
 10
-14.3182
 20
-1.3723
 30
0.0
 10
-14.3182
 20
-1.3723
 30
0.0
 10
-14.3182
 20
-1.6207
 30
0.0
 10
-14.3182
 20
-1.6207
 30
0.0
  0
SPLINE
  5
77
330
1F
100
AcDbEntity
  8
DEFAULT_1
 62
   250
100
AcDbSpline
210
0.0
220
0.0
230
1.0
 70
    11
 71
     3
 72
    16
 73
    12
 74
     0
 42
0.0000000001
 43
0.0000000001
 40
0.0
 40
0.0
 40
0.0
 40
0.0
 40
0.25
 40
0.25
 40
0.25
 40
0.25
 40
0.5
 40
0.5
 40
0.5
 40
0.5
 40
1.0
 40
1.0
 40
1.0
 40
1.0
 10
-15.0294
 20
-1.6207
 30
0.0
 10
-15.0294
 20
-1.6207
 30
0.0
 10
-15.94
 20
-1.6207
 30
0.0
 10
-15.94
 20
-1.6207
 30
0.0
 10
-15.94
 20
-1.6207
 30
0.0
 10
-15.94
 20
-1.6207
 30
0.0
 10
-15.0294
 20
-2.2528
 30
0.0
 10
-15.0294
 20
-2.2528
 30
0.0
 10
-15.0294
 20
-2.2528
 30
0.0
 10
-15.0294
 20
-2.2528
 30
0.0
 10
-15.0294
 20
-1.6207
 30
0.0
 10
-15.0294
 20
-1.6207
 30
0.0
  0
SPLINE
  5
78
330
1F
100
AcDbEntity
  8
DEFAULT_1
 62
   250
100
AcDbSpline
210
0.0
220
0.0
230
1.0
 70
    11
 71
     3
 72
    92
 73
    88
 74
     0
 42
0.0000000001
 43
0.0000000001
 40
0.0
 40
0.0
 40
0.0
 40
0.0
 40
0.0434782608695652
 40
0.0434782608695652
 40
0.0434782608695652
 40
0.0434782608695652
 40
0.0869565217391304
 40
0.0869565217391304
 40
0.0869565217391304
 40
0.0869565217391304
 40
0.1304347826086956
 40
0.1304347826086956
 40
0.1304347826086956
 40
0.1304347826086956
 40
0.1739130434782609
 40
0.1739130434782609
 40
0.1739130434782609
 40
0.1739130434782609
 40
0.2173913043478261
 40
0.2173913043478261
 40
0.2173913043478261
 40
0.2173913043478261
 40
0.2608695652173913
 40
0.2608695652173913
 40
0.2608695652173913
 40
0.2608695652173913
 40
0.3043478260869565
 40
0.3043478260869565
 40
0.3043478260869565
 40
0.3043478260869565
 40
0.3478260869565217
 40
0.3478260869565217
 40
0.3478260869565217
 40
0.3478260869565217
 40
0.391304347826087
 40
0.391304347826087
 40
0.391304347826087
 40
0.391304347826087
 40
0.4347826086956522
 40
0.4347826086956522
 40
0.4347826086956522
 40
0.4347826086956522
 40
0.4782608695652174
 40
0.4782608695652174
 40
0.4782608695652174
 40
0.4782608695652174
 40
0.5217391304347826
 40
0.5217391304347826
 40
0.5217391304347826
 40
0.5217391304347826
 40
0.5652173913043478
 40
0.5652173913043478
 40
0.5652173913043478
 40
0.5652173913043478
 40
0.6086956521739131
 40
0.6086956521739131
 40
0.6086956521739131
 40
0.6086956521739131
 40
0.6521739130434783
 40
0.6521739130434783
 40
0.6521739130434783
 40
0.6521739130434783
 40
0.6956521739130435
 40
0.6956521739130435
 40
0.6956521739130435
 40
0.6956521739130435
 40
0.7391304347826086
 40
0.7391304347826086
 40
0.7391304347826086
 40
0.7391304347826086
 40
0.782608695652174
 40
0.782608695652174
 40
0.782608695652174
 40
0.782608695652174
 40
0.8260869565217391
 40
0.8260869565217391
 40
0.8260869565217391
 40
0.8260869565217391
 40
0.8695652173913043
 40
0.8695652173913043
 40
0.8695652173913043
 40
0.8695652173913043
 40
0.9130434782608695
 40
0.9130434782608695
 40
0.9130434782608695
 40
0.9130434782608695
 40
1.0
 40
1.0
 40
1.0
 40
1.0
 10
-14.8474
 20
-0.846
 30
0.0
 10
-14.8474
 20
-0.846
 30
0.0
 10
-14.8695
 20
-0.5854
 30
0.0
 10
-14.8695
 20
-0.5854
 30
0.0
 10
-14.8695
 20
-0.5854
 30
0.0
 10
-14.7425
 20
-0.5661
 30
0.0
 10
-14.6475
 20
-0.5214
 30
0.0
 10
-14.5835
 20
-0.4513
 30
0.0
 10
-14.5835
 20
-0.4513
 30
0.0
 10
-14.5195
 20
-0.3808
 30
0.0
 10
-14.4875
 20
-0.2961
 30
0.0
 10
-14.4875
 20
-0.1969
 30
0.0
 10
-14.4875
 20
-0.1969
 30
0.0
 10
-14.4875
 20
-0.0774
 30
0.0
 10
-14.5327
 20
0.0237
 30
0.0
 10
-14.6225
 20
0.106
 30
0.0
 10
-14.6225
 20
0.106
 30
0.0
 10
-14.7128
 20
0.1888
 30
0.0
 10
-14.8323
 20
0.2302
 30
0.0
 10
-14.9809
 20
0.2302
 30
0.0
 10
-14.9809
 20
0.2302
 30
0.0
 10
-15.1225
 20
0.2302
 30
0.0
 10
-15.234
 20
0.1907
 30
0.0
 10
-15.3158
 20
0.1112
 30
0.0
 10
-15.3158
 20
0.1112
 30
0.0
 10
-15.3977
 20
0.0317
 30
0.0
 10
-15.4386
 20
-0.0722
 30
0.0
 10
-15.4386
 20
-0.2011
 30
0.0
 10
-15.4386
 20
-0.2011
 30
0.0
 10
-15.4386
 20
-0.2811
 30
0.0
 10
-15.4203
 20
-0.353
 30
0.0
 10
-15.3841
 20
-0.4175
 30
0.0
 10
-15.3841
 20
-0.4175
 30
0.0
 10
-15.3478
 20
-0.4819
 30
0.0
 10
-15.3008
 20
-0.5322
 30
0.0
 10
-15.2429
 20
-0.5689
 30
0.0
 10
-15.2429
 20
-0.5689
 30
0.0
 10
-15.2429
 20
-0.5689
 30
0.0
 10
-15.273
 20
-0.8018
 30
0.0
 10
-15.273
 20
-0.8018
 30
0.0
 10
-15.273
 20
-0.8018
 30
0.0
 10
-15.273
 20
-0.8018
 30
0.0
 10
-16.3107
 20
-0.6061
 30
0.0
 10
-16.3107
 20
-0.6061
 30
0.0
 10
-16.3107
 20
-0.6061
 30
0.0
 10
-16.3107
 20
-0.6061
 30
0.0
 10
-16.3107
 20
0.3986
 30
0.0
 10
-16.3107
 20
0.3986
 30
0.0
 10
-16.3107
 20
0.3986
 30
0.0
 10
-16.3107
 20
0.3986
 30
0.0
 10
-16.0736
 20
0.3986
 30
0.0
 10
-16.0736
 20
0.3986
 30
0.0
 10
-16.0736
 20
0.3986
 30
0.0
 10
-16.0736
 20
0.3986
 30
0.0
 10
-16.0736
 20
-0.4076
 30
0.0
 10
-16.0736
 20
-0.4076
 30
0.0
 10
-16.0736
 20
-0.4076
 30
0.0
 10
-16.0736
 20
-0.4076
 30
0.0
 10
-15.5308
 20
-0.5167
 30
0.0
 10
-15.5308
 20
-0.5167
 30
0.0
 10
-15.5308
 20
-0.5167
 30
0.0
 10
-15.6155
 20
-0.3954
 30
0.0
 10
-15.6578
 20
-0.2679
 30
0.0
 10
-15.6578
 20
-0.1348
 30
0.0
 10
-15.6578
 20
-0.1348
 30
0.0
 10
-15.6578
 20
0.0416
 30
0.0
 10
-15.5967
 20
0.1902
 30
0.0
 10
-15.4744
 20
0.3116
 30
0.0
 10
-15.4744
 20
0.3116
 30
0.0
 10
-15.3521
 20
0.4329
 30
0.0
 10
-15.195
 20
0.4936
 30
0.0
 10
-15.0031
 20
0.4936
 30
0.0
 10
-15.0031
 20
0.4936
 30
0.0
 10
-14.8201
 20
0.4936
 30
0.0
 10
-14.662
 20
0.44
 30
0.0
 10
-14.5289
 20
0.3337
 30
0.0
 10
-14.5289
 20
0.3337
 30
0.0
 10
-14.3657
 20
0.2039
 30
0.0
 10
-14.2839
 20
0.027
 30
0.0
 10
-14.2839
 20
-0.1969
 30
0.0
 10
-14.2839
 20
-0.1969
 30
0.0
 10
-14.2839
 20
-0.3808
 30
0.0
 10
-14.3351
 20
-0.5308
 30
0.0
 10
-14.4381
 20
-0.647
 30
0.0
 10
-14.4381
 20
-0.647
 30
0.0
 10
-14.5412
 20
-0.7632
 30
0.0
 10
-14.6776
 20
-0.8295
 30
0.0
 10
-14.8474
 20
-0.846
 30
0.0
  0
SPLINE
  5
79
330
1F
100
AcDbEntity
  8
DEFAULT_1
 62
   250
100
AcDbSpline
210
0.0
220
0.0
230
1.0
 70
    11
 71
     3
 72
    20
 73
    16
 74
     0
 42
0.0000000001
 43
0.0000000001
 40
0.0
 40
0.0
 40
0.0
 40
0.0
 40
0.2
 40
0.2
 40
0.2
 40
0.2
 40
0.4
 40
0.4
 40
0.4
 40
0.4
 40
0.6
 40
0.6
 40
0.6
 40
0.6
 40
1.0
 40
1.0
 40
1.0
 40
1.0
 10
-14.9245
 20
1.48
 30
0.0
 10
-14.9245
 20
1.48
 30
0.0
 10
-15.1738
 20
1.48
 30
0.0
 10
-15.1738
 20
1.48
 30
0.0
 10
-15.1738
 20
1.48
 30
0.0
 10
-15.1738
 20
1.48
 30
0.0
 10
-15.1738
 20
2.2424
 30
0.0
 10
-15.1738
 20
2.2424
 30
0.0
 10
-15.1738
 20
2.2424
 30
0.0
 10
-15.1738
 20
2.2424
 30
0.0
 10
-14.9245
 20
2.2424
 30
0.0
 10
-14.9245
 20
2.2424
 30
0.0
 10
-14.9245
 20
2.2424
 30
0.0
 10
-14.9245
 20
2.2424
 30
0.0
 10
-14.9245
 20
1.48
 30
0.0
 10
-14.9245
 20
1.48
 30
0.0
  0
SPLINE
  5
7A
330
1F
100
AcDbEntity
  8
DEFAULT_1
 62
   250
100
AcDbSpline
210
0.0
220
0.0
230
1.0
 70
    11
 71
     3
 72
    92
 73
    88
 74
     0
 42
0.0000000001
 43
0.0000000001
 40
0.0
 40
0.0
 40
0.0
 40
0.0
 40
0.0434782608695652
 40
0.0434782608695652
 40
0.0434782608695652
 40
0.0434782608695652
 40
0.0869565217391304
 40
0.0869565217391304
 40
0.0869565217391304
 40
0.0869565217391304
 40
0.1304347826086956
 40
0.1304347826086956
 40
0.1304347826086956
 40
0.1304347826086956
 40
0.1739130434782609
 40
0.1739130434782609
 40
0.1739130434782609
 40
0.1739130434782609
 40
0.2173913043478261
 40
0.2173913043478261
 40
0.2173913043478261
 40
0.2173913043478261
 40
0.2608695652173913
 40
0.2608695652173913
 40
0.2608695652173913
 40
0.2608695652173913
 40
0.3043478260869565
 40
0.3043478260869565
 40
0.3043478260869565
 40
0.3043478260869565
 40
0.3478260869565217
 40
0.3478260869565217
 40
0.3478260869565217
 40
0.3478260869565217
 40
0.391304347826087
 40
0.391304347826087
 40
0.391304347826087
 40
0.391304347826087
 40
0.4347826086956522
 40
0.4347826086956522
 40
0.4347826086956522
 40
0.4347826086956522
 40
0.4782608695652174
 40
0.4782608695652174
 40
0.4782608695652174
 40
0.4782608695652174
 40
0.5217391304347826
 40
0.5217391304347826
 40
0.5217391304347826
 40
0.5217391304347826
 40
0.5652173913043478
 40
0.5652173913043478
 40
0.5652173913043478
 40
0.5652173913043478
 40
0.6086956521739131
 40
0.6086956521739131
 40
0.6086956521739131
 40
0.6086956521739131
 40
0.6521739130434783
 40
0.6521739130434783
 40
0.6521739130434783
 40
0.6521739130434783
 40
0.6956521739130435
 40
0.6956521739130435
 40
0.6956521739130435
 40
0.6956521739130435
 40
0.7391304347826086
 40
0.7391304347826086
 40
0.7391304347826086
 40
0.7391304347826086
 40
0.782608695652174
 40
0.782608695652174
 40
0.782608695652174
 40
0.782608695652174
 40
0.8260869565217391
 40
0.8260869565217391
 40
0.8260869565217391
 40
0.8260869565217391
 40
0.8695652173913043
 40
0.8695652173913043
 40
0.8695652173913043
 40
0.8695652173913043
 40
0.9130434782608695
 40
0.9130434782608695
 40
0.9130434782608695
 40
0.9130434782608695
 40
1.0
 40
1.0
 40
1.0
 40
1.0
 10
-14.5567
 20
4.5355
 30
0.0
 10
-14.5567
 20
4.5355
 30
0.0
 10
-14.3182
 20
4.5355
 30
0.0
 10
-14.3182
 20
4.5355
 30
0.0
 10
-14.3182
 20
4.5355
 30
0.0
 10
-14.3182
 20
4.5355
 30
0.0
 10
-14.3182
 20
3.2001
 30
0.0
 10
-14.3182
 20
3.2001
 30
0.0
 10
-14.3182
 20
3.2001
 30
0.0
 10
-14.3779
 20
3.1982
 30
0.0
 10
-14.4353
 20
3.2076
 30
0.0
 10
-14.4904
 20
3.2288
 30
0.0
 10
-14.4904
 20
3.2288
 30
0.0
 10
-14.5816
 20
3.2627
 30
0.0
 10
-14.671
 20
3.3172
 30
0.0
 10
-14.7594
 20
3.392
 30
0.0
 10
-14.7594
 20
3.392
 30
0.0
 10
-14.8474
 20
3.4673
 30
0.0
 10
-14.9494
 20
3.5755
 30
0.0
 10
-15.0651
 20
3.7166
 30
0.0
 10
-15.0651
 20
3.7166
 30
0.0
 10
-15.2453
 20
3.9362
 30
0.0
 10
-15.3878
 20
4.0849
 30
0.0
 10
-15.4932
 20
4.162
 30
0.0
 10
-15.4932
 20
4.162
 30
0.0
 10
-15.5981
 20
4.2391
 30
0.0
 10
-15.6978
 20
4.2777
 30
0.0
 10
-15.7914
 20
4.2777
 30
0.0
 10
-15.7914
 20
4.2777
 30
0.0
 10
-15.8897
 20
4.2777
 30
0.0
 10
-15.9725
 20
4.2424
 30
0.0
 10
-16.0402
 20
4.1724
 30
0.0
 10
-16.0402
 20
4.1724
 30
0.0
 10
-16.1075
 20
4.1018
 30
0.0
 10
-16.1413
 20
4.0101
 30
0.0
 10
-16.1413
 20
3.8972
 30
0.0
 10
-16.1413
 20
3.8972
 30
0.0
 10
-16.1413
 20
3.7777
 30
0.0
 10
-16.1056
 20
3.6822
 30
0.0
 10
-16.0336
 20
3.6107
 30
0.0
 10
-16.0336
 20
3.6107
 30
0.0
 10
-15.9621
 20
3.5388
 30
0.0
 10
-15.8629
 20
3.5026
 30
0.0
 10
-15.7364
 20
3.5016
 30
0.0
 10
-15.7364
 20
3.5016
 30
0.0
 10
-15.7364
 20
3.5016
 30
0.0
 10
-15.7622
 20
3.2467
 30
0.0
 10
-15.7622
 20
3.2467
 30
0.0
 10
-15.7622
 20
3.2467
 30
0.0
 10
-15.9527
 20
3.2641
 30
0.0
 10
-16.0976
 20
3.3299
 30
0.0
 10
-16.1973
 20
3.4438
 30
0.0
 10
-16.1973
 20
3.4438
 30
0.0
 10
-16.297
 20
3.5576
 30
0.0
 10
-16.3469
 20
3.7109
 30
0.0
 10
-16.3469
 20
3.9028
 30
0.0
 10
-16.3469
 20
3.9028
 30
0.0
 10
-16.3469
 20
4.0966
 30
0.0
 10
-16.2928
 20
4.25
 30
0.0
 10
-16.1856
 20
4.3629
 30
0.0
 10
-16.1856
 20
4.3629
 30
0.0
 10
-16.0778
 20
4.4762
 30
0.0
 10
-15.9447
 20
4.5327
 30
0.0
 10
-15.7857
 20
4.5327
 30
0.0
 10
-15.7857
 20
4.5327
 30
0.0
 10
-15.7048
 20
4.5327
 30
0.0
 10
-15.6253
 20
4.5162
 30
0.0
 10
-15.5473
 20
4.4828
 30
0.0
 10
-15.5473
 20
4.4828
 30
0.0
 10
-15.4692
 20
4.4499
 30
0.0
 10
-15.3869
 20
4.3948
 30
0.0
 10
-15.3008
 20
4.3182
 30
0.0
 10
-15.3008
 20
4.3182
 30
0.0
 10
-15.2142
 20
4.2415
 30
0.0
 10
-15.0957
 20
4.114
 30
0.0
 10
-14.9452
 20
3.9358
 30
0.0
 10
-14.9452
 20
3.9358
 30
0.0
 10
-14.8201
 20
3.7871
 30
0.0
 10
-14.7354
 20
3.6916
 30
0.0
 10
-14.6907
 20
3.6493
 30
0.0
 10
-14.6907
 20
3.6493
 30
0.0
 10
-14.6465
 20
3.607
 30
0.0
 10
-14.6018
 20
3.5722
 30
0.0
 10
-14.5567
 20
3.5444
 30
0.0
 10
-14.5567
 20
3.5444
 30
0.0
 10
-14.5567
 20
3.5444
 30
0.0
 10
-14.5567
 20
4.5355
 30
0.0
 10
-14.5567
 20
4.5355
 30
0.0
  0
SPLINE
  5
7B
330
1F
100
AcDbEntity
  8
DEFAULT_1
 62
   250
100
AcDbSpline
210
0.0
220
0.0
230
1.0
 70
    11
 71
     3
 72
    52
 73
    48
 74
     0
 42
0.0000000001
 43
0.0000000001
 40
0.0
 40
0.0
 40
0.0
 40
0.0
 40
0.0769230769230769
 40
0.0769230769230769
 40
0.0769230769230769
 40
0.0769230769230769
 40
0.1538461538461539
 40
0.1538461538461539
 40
0.1538461538461539
 40
0.1538461538461539
 40
0.2307692307692308
 40
0.2307692307692308
 40
0.2307692307692308
 40
0.2307692307692308
 40
0.3076923076923077
 40
0.3076923076923077
 40
0.3076923076923077
 40
0.3076923076923077
 40
0.3846153846153846
 40
0.3846153846153846
 40
0.3846153846153846
 40
0.3846153846153846
 40
0.4615384615384616
 40
0.4615384615384616
 40
0.4615384615384616
 40
0.4615384615384616
 40
0.5384615384615384
 40
0.5384615384615384
 40
0.5384615384615384
 40
0.5384615384615384
 40
0.6153846153846154
 40
0.6153846153846154
 40
0.6153846153846154
 40
0.6153846153846154
 40
0.6923076923076923
 40
0.6923076923076923
 40
0.6923076923076923
 40
0.6923076923076923
 40
0.7692307692307693
 40
0.7692307692307693
 40
0.7692307692307693
 40
0.7692307692307693
 40
0.8461538461538461
 40
0.8461538461538461
 40
0.8461538461538461
 40
0.8461538461538461
 40
1.0
 40
1.0
 40
1.0
 40
1.0
 10
-15.3144
 20
4.8012
 30
0.0
 10
-15.5534
 20
4.8012
 30
0.0
 10
-15.7458
 20
4.8257
 30
0.0
 10
-15.8911
 20
4.8751
 30
0.0
 10
-15.8911
 20
4.8751
 30
0.0
 10
-16.0369
 20
4.924
 30
0.0
 10
-16.1493
 20
4.9974
 30
0.0
 10
-16.2284
 20
5.0943
 30
0.0
 10
-16.2284
 20
5.0943
 30
0.0
 10
-16.3074
 20
5.1912
 30
0.0
 10
-16.3469
 20
5.313
 30
0.0
 10
-16.3469
 20
5.4597
 30
0.0
 10
-16.3469
 20
5.4597
 30
0.0
 10
-16.3469
 20
5.5684
 30
0.0
 10
-16.3248
 20
5.6634
 30
0.0
 10
-16.281
 20
5.7452
 30
0.0
 10
-16.281
 20
5.7452
 30
0.0
 10
-16.2378
 20
5.8271
 30
0.0
 10
-16.1747
 20
5.8944
 30
0.0
 10
-16.0924
 20
5.948
 30
0.0
 10
-16.0924
 20
5.948
 30
0.0
 10
-16.0101
 20
6.0011
 30
0.0
 10
-15.9099
 20
6.043
 30
0.0
 10
-15.7919
 20
6.0731
 30
0.0
 10
-15.7919
 20
6.0731
 30
0.0
 10
-15.6738
 20
6.1037
 30
0.0
 10
-15.5148
 20
6.1187
 30
0.0
 10
-15.3144
 20
6.1187
 30
0.0
 10
-15.3144
 20
6.1187
 30
0.0
 10
-15.0774
 20
6.1187
 30
0.0
 10
-14.8864
 20
6.0943
 30
0.0
 10
-14.7406
 20
6.0458
 30
0.0
 10
-14.7406
 20
6.0458
 30
0.0
 10
-14.5948
 20
5.9969
 30
0.0
 10
-14.4824
 20
5.924
 30
0.0
 10
-14.4029
 20
5.8271
 30
0.0
 10
-14.4029
 20
5.8271
 30
0.0
 10
-14.3234
 20
5.7302
 30
0.0
 10
-14.2839
 20
5.6079
 30
0.0
 10
-14.2839
 20
5.4597
 30
0.0
 10
-14.2839
 20
5.4597
 30
0.0
 10
-14.2839
 20
5.265
 30
0.0
 10
-14.3535
 20
5.1121
 30
0.0
 10
-14.4932
 20
5.0011
 30
0.0
 10
-14.4932
 20
5.0011
 30
0.0
 10
-14.6611
 20
4.868
 30
0.0
 10
-14.9353
 20
4.8012
 30
0.0
 10
-15.3144
 20
4.8012
 30
0.0
  0
SPLINE
  5
7C
330
1F
100
AcDbEntity
  8
DEFAULT_1
 62
   250
100
AcDbSpline
210
0.0
220
0.0
230
1.0
 70
    11
 71
     3
 72
    36
 73
    32
 74
     0
 42
0.0000000001
 43
0.0000000001
 40
0.0
 40
0.0
 40
0.0
 40
0.0
 40
0.1111111111111111
 40
0.1111111111111111
 40
0.1111111111111111
 40
0.1111111111111111
 40
0.2222222222222222
 40
0.2222222222222222
 40
0.2222222222222222
 40
0.2222222222222222
 40
0.3333333333333333
 40
0.3333333333333333
 40
0.3333333333333333
 40
0.3333333333333333
 40
0.4444444444444444
 40
0.4444444444444444
 40
0.4444444444444444
 40
0.4444444444444444
 40
0.5555555555555556
 40
0.5555555555555556
 40
0.5555555555555556
 40
0.5555555555555556
 40
0.6666666666666666
 40
0.6666666666666666
 40
0.6666666666666666
 40
0.6666666666666666
 40
0.7777777777777778
 40
0.7777777777777778
 40
0.7777777777777778
 40
0.7777777777777778
 40
1.0
 40
1.0
 40
1.0
 40
1.0
 10
-15.3144
 20
5.0562
 30
0.0
 10
-14.9828
 20
5.0562
 30
0.0
 10
-14.7622
 20
5.0952
 30
0.0
 10
-14.6522
 20
5.1728
 30
0.0
 10
-14.6522
 20
5.1728
 30
0.0
 10
-14.5426
 20
5.2504
 30
0.0
 10
-14.4875
 20
5.3459
 30
0.0
 10
-14.4875
 20
5.4597
 30
0.0
 10
-14.4875
 20
5.4597
 30
0.0
 10
-14.4875
 20
5.574
 30
0.0
 10
-14.543
 20
5.6695
 30
0.0
 10
-14.6531
 20
5.7471
 30
0.0
 10
-14.6531
 20
5.7471
 30
0.0
 10
-14.7632
 20
5.8247
 30
0.0
 10
-14.9838
 20
5.8638
 30
0.0
 10
-15.3144
 20
5.8638
 30
0.0
 10
-15.3144
 20
5.8638
 30
0.0
 10
-15.647
 20
5.8638
 30
0.0
 10
-15.8681
 20
5.8247
 30
0.0
 10
-15.9772
 20
5.7471
 30
0.0
 10
-15.9772
 20
5.7471
 30
0.0
 10
-16.0868
 20
5.6695
 30
0.0
 10
-16.1413
 20
5.5731
 30
0.0
 10
-16.1413
 20
5.4574
 30
0.0
 10
-16.1413
 20
5.4574
 30
0.0
 10
-16.1413
 20
5.3431
 30
0.0
 10
-16.0929
 20
5.2523
 30
0.0
 10
-15.9965
 20
5.1841
 30
0.0
 10
-15.9965
 20
5.1841
 30
0.0
 10
-15.8737
 20
5.099
 30
0.0
 10
-15.646
 20
5.0562
 30
0.0
 10
-15.3144
 20
5.0562
 30
0.0
  0
SPLINE
  5
7D
330
1F
100
AcDbEntity
  8
DEFAULT_1
 62
   250
100
AcDbSpline
210
0.0
220
0.0
230
1.0
 70
    11
 71
     3
 72
    92
 73
    88
 74
     0
 42
0.0000000001
 43
0.0000000001
 40
0.0
 40
0.0
 40
0.0
 40
0.0
 40
0.0434782608695652
 40
0.0434782608695652
 40
0.0434782608695652
 40
0.0434782608695652
 40
0.0869565217391304
 40
0.0869565217391304
 40
0.0869565217391304
 40
0.0869565217391304
 40
0.1304347826086956
 40
0.1304347826086956
 40
0.1304347826086956
 40
0.1304347826086956
 40
0.1739130434782609
 40
0.1739130434782609
 40
0.1739130434782609
 40
0.1739130434782609
 40
0.2173913043478261
 40
0.2173913043478261
 40
0.2173913043478261
 40
0.2173913043478261
 40
0.2608695652173913
 40
0.2608695652173913
 40
0.2608695652173913
 40
0.2608695652173913
 40
0.3043478260869565
 40
0.3043478260869565
 40
0.3043478260869565
 40
0.3043478260869565
 40
0.3478260869565217
 40
0.3478260869565217
 40
0.3478260869565217
 40
0.3478260869565217
 40
0.391304347826087
 40
0.391304347826087
 40
0.391304347826087
 40
0.391304347826087
 40
0.4347826086956522
 40
0.4347826086956522
 40
0.4347826086956522
 40
0.4347826086956522
 40
0.4782608695652174
 40
0.4782608695652174
 40
0.4782608695652174
 40
0.4782608695652174
 40
0.5217391304347826
 40
0.5217391304347826
 40
0.5217391304347826
 40
0.5217391304347826
 40
0.5652173913043478
 40
0.5652173913043478
 40
0.5652173913043478
 40
0.5652173913043478
 40
0.6086956521739131
 40
0.6086956521739131
 40
0.6086956521739131
 40
0.6086956521739131
 40
0.6521739130434783
 40
0.6521739130434783
 40
0.6521739130434783
 40
0.6521739130434783
 40
0.6956521739130435
 40
0.6956521739130435
 40
0.6956521739130435
 40
0.6956521739130435
 40
0.7391304347826086
 40
0.7391304347826086
 40
0.7391304347826086
 40
0.7391304347826086
 40
0.782608695652174
 40
0.782608695652174
 40
0.782608695652174
 40
0.782608695652174
 40
0.8260869565217391
 40
0.8260869565217391
 40
0.8260869565217391
 40
0.8260869565217391
 40
0.8695652173913043
 40
0.8695652173913043
 40
0.8695652173913043
 40
0.8695652173913043
 40
0.9130434782608695
 40
0.9130434782608695
 40
0.9130434782608695
 40
0.9130434782608695
 40
1.0
 40
1.0
 40
1.0
 40
1.0
 10
-14.8474
 20
6.3708
 30
0.0
 10
-14.8474
 20
6.3708
 30
0.0
 10
-14.8695
 20
6.6314
 30
0.0
 10
-14.8695
 20
6.6314
 30
0.0
 10
-14.8695
 20
6.6314
 30
0.0
 10
-14.7425
 20
6.6507
 30
0.0
 10
-14.6475
 20
6.6954
 30
0.0
 10
-14.5835
 20
6.7655
 30
0.0
 10
-14.5835
 20
6.7655
 30
0.0
 10
-14.5195
 20
6.836
 30
0.0
 10
-14.4875
 20
6.9207
 30
0.0
 10
-14.4875
 20
7.0199
 30
0.0
 10
-14.4875
 20
7.0199
 30
0.0
 10
-14.4875
 20
7.1394
 30
0.0
 10
-14.5327
 20
7.2405
 30
0.0
 10
-14.6225
 20
7.3228
 30
0.0
 10
-14.6225
 20
7.3228
 30
0.0
 10
-14.7128
 20
7.4056
 30
0.0
 10
-14.8323
 20
7.447
 30
0.0
 10
-14.9809
 20
7.447
 30
0.0
 10
-14.9809
 20
7.447
 30
0.0
 10
-15.1225
 20
7.447
 30
0.0
 10
-15.234
 20
7.4075
 30
0.0
 10
-15.3158
 20
7.328
 30
0.0
 10
-15.3158
 20
7.328
 30
0.0
 10
-15.3977
 20
7.2485
 30
0.0
 10
-15.4386
 20
7.1446
 30
0.0
 10
-15.4386
 20
7.0157
 30
0.0
 10
-15.4386
 20
7.0157
 30
0.0
 10
-15.4386
 20
6.9357
 30
0.0
 10
-15.4203
 20
6.8638
 30
0.0
 10
-15.3841
 20
6.7993
 30
0.0
 10
-15.3841
 20
6.7993
 30
0.0
 10
-15.3478
 20
6.7349
 30
0.0
 10
-15.3008
 20
6.6846
 30
0.0
 10
-15.2429
 20
6.6479
 30
0.0
 10
-15.2429
 20
6.6479
 30
0.0
 10
-15.2429
 20
6.6479
 30
0.0
 10
-15.273
 20
6.415
 30
0.0
 10
-15.273
 20
6.415
 30
0.0
 10
-15.273
 20
6.415
 30
0.0
 10
-15.273
 20
6.415
 30
0.0
 10
-16.3107
 20
6.6107
 30
0.0
 10
-16.3107
 20
6.6107
 30
0.0
 10
-16.3107
 20
6.6107
 30
0.0
 10
-16.3107
 20
6.6107
 30
0.0
 10
-16.3107
 20
7.6154
 30
0.0
 10
-16.3107
 20
7.6154
 30
0.0
 10
-16.3107
 20
7.6154
 30
0.0
 10
-16.3107
 20
7.6154
 30
0.0
 10
-16.0736
 20
7.6154
 30
0.0
 10
-16.0736
 20
7.6154
 30
0.0
 10
-16.0736
 20
7.6154
 30
0.0
 10
-16.0736
 20
7.6154
 30
0.0
 10
-16.0736
 20
6.8092
 30
0.0
 10
-16.0736
 20
6.8092
 30
0.0
 10
-16.0736
 20
6.8092
 30
0.0
 10
-16.0736
 20
6.8092
 30
0.0
 10
-15.5308
 20
6.7001
 30
0.0
 10
-15.5308
 20
6.7001
 30
0.0
 10
-15.5308
 20
6.7001
 30
0.0
 10
-15.6155
 20
6.8214
 30
0.0
 10
-15.6578
 20
6.9489
 30
0.0
 10
-15.6578
 20
7.082
 30
0.0
 10
-15.6578
 20
7.082
 30
0.0
 10
-15.6578
 20
7.2584
 30
0.0
 10
-15.5967
 20
7.407
 30
0.0
 10
-15.4744
 20
7.5284
 30
0.0
 10
-15.4744
 20
7.5284
 30
0.0
 10
-15.3521
 20
7.6497
 30
0.0
 10
-15.195
 20
7.7104
 30
0.0
 10
-15.0031
 20
7.7104
 30
0.0
 10
-15.0031
 20
7.7104
 30
0.0
 10
-14.8201
 20
7.7104
 30
0.0
 10
-14.662
 20
7.6568
 30
0.0
 10
-14.5289
 20
7.5505
 30
0.0
 10
-14.5289
 20
7.5505
 30
0.0
 10
-14.3657
 20
7.4207
 30
0.0
 10
-14.2839
 20
7.2438
 30
0.0
 10
-14.2839
 20
7.0199
 30
0.0
 10
-14.2839
 20
7.0199
 30
0.0
 10
-14.2839
 20
6.836
 30
0.0
 10
-14.3351
 20
6.686
 30
0.0
 10
-14.4381
 20
6.5698
 30
0.0
 10
-14.4381
 20
6.5698
 30
0.0
 10
-14.5412
 20
6.4536
 30
0.0
 10
-14.6776
 20
6.3873
 30
0.0
 10
-14.8474
 20
6.3708
 30
0.0
  0
SPLINE
  5
7E
330
1F
100
AcDbEntity
  8
DEFAULT_1
 62
   250
100
AcDbSpline
210
0.0
220
0.0
230
1.0
 70
    11
 71
     3
 72
    84
 73
    80
 74
     0
 42
0.0000000001
 43
0.0000000001
 40
0.0
 40
0.0
 40
0.0
 40
0.0
 40
0.0476190476190476
 40
0.0476190476190476
 40
0.0476190476190476
 40
0.0476190476190476
 40
0.0952380952380952
 40
0.0952380952380952
 40
0.0952380952380952
 40
0.0952380952380952
 40
0.1428571428571428
 40
0.1428571428571428
 40
0.1428571428571428
 40
0.1428571428571428
 40
0.1904761904761905
 40
0.1904761904761905
 40
0.1904761904761905
 40
0.1904761904761905
 40
0.2380952380952381
 40
0.2380952380952381
 40
0.2380952380952381
 40
0.2380952380952381
 40
0.2857142857142857
 40
0.2857142857142857
 40
0.2857142857142857
 40
0.2857142857142857
 40
0.3333333333333333
 40
0.3333333333333333
 40
0.3333333333333333
 40
0.3333333333333333
 40
0.3809523809523809
 40
0.3809523809523809
 40
0.3809523809523809
 40
0.3809523809523809
 40
0.4285714285714285
 40
0.4285714285714285
 40
0.4285714285714285
 40
0.4285714285714285
 40
0.4761904761904762
 40
0.4761904761904762
 40
0.4761904761904762
 40
0.4761904761904762
 40
0.5238095238095238
 40
0.5238095238095238
 40
0.5238095238095238
 40
0.5238095238095238
 40
0.5714285714285714
 40
0.5714285714285714
 40
0.5714285714285714
 40
0.5714285714285714
 40
0.6190476190476191
 40
0.6190476190476191
 40
0.6190476190476191
 40
0.6190476190476191
 40
0.6666666666666666
 40
0.6666666666666666
 40
0.6666666666666666
 40
0.6666666666666666
 40
0.7142857142857143
 40
0.7142857142857143
 40
0.7142857142857143
 40
0.7142857142857143
 40
0.7619047619047619
 40
0.7619047619047619
 40
0.7619047619047619
 40
0.7619047619047619
 40
0.8095238095238095
 40
0.8095238095238095
 40
0.8095238095238095
 40
0.8095238095238095
 40
0.8571428571428571
 40
0.8571428571428571
 40
0.8571428571428571
 40
0.8571428571428571
 40
0.9047619047619048
 40
0.9047619047619048
 40
0.9047619047619048
 40
0.9047619047619048
 40
1.0
 40
1.0
 40
1.0
 40
1.0
 10
9.6192
 20
-21.4606
 30
0.0
 10
9.6192
 20
-21.4606
 30
0.0
 10
9.3601
 20
-21.2292
 30
0.0
 10
9.3601
 20
-21.2292
 30
0.0
 10
9.3601
 20
-21.2292
 30
0.0
 10
9.3601
 20
-21.2292
 30
0.0
 10
9.4758
 20
-21.0928
 30
0.0
 10
9.4758
 20
-21.0928
 30
0.0
 10
9.4758
 20
-21.0928
 30
0.0
 10
9.4758
 20
-21.0928
 30
0.0
 10
9.7486
 20
-21.335
 30
0.0
 10
9.7486
 20
-21.335
 30
0.0
 10
9.7486
 20
-21.335
 30
0.0
 10
9.8662
 20
-21.256
 30
0.0
 10
9.9692
 20
-21.2029
 30
0.0
 10
10.0571
 20
-21.1751
 30
0.0
 10
10.0571
 20
-21.1751
 30
0.0
 10
10.1729
 20
-21.1384
 30
0.0
 10
10.3027
 20
-21.1201
 30
0.0
 10
10.4457
 20
-21.1201
 30
0.0
 10
10.4457
 20
-21.1201
 30
0.0
 10
10.6526
 20
-21.1201
 30
0.0
 10
10.837
 20
-21.1619
 30
0.0
 10
10.9983
 20
-21.2457
 30
0.0
 10
10.9983
 20
-21.2457
 30
0.0
 10
11.1602
 20
-21.3294
 30
0.0
 10
11.2824
 20
-21.4465
 30
0.0
 10
11.3652
 20
-21.5975
 30
0.0
 10
11.3652
 20
-21.5975
 30
0.0
 10
11.4475
 20
-21.749
 30
0.0
 10
11.4889
 20
-21.9093
 30
0.0
 10
11.4889
 20
-22.0791
 30
0.0
 10
11.4889
 20
-22.0791
 30
0.0
 10
11.4889
 20
-22.2061
 30
0.0
 10
11.4711
 20
-22.3209
 30
0.0
 10
11.4353
 20
-22.4239
 30
0.0
 10
11.4353
 20
-22.4239
 30
0.0
 10
11.4076
 20
-22.5029
 30
0.0
 10
11.3549
 20
-22.5951
 30
0.0
 10
11.2768
 20
-22.701
 30
0.0
 10
11.2768
 20
-22.701
 30
0.0
 10
11.2768
 20
-22.701
 30
0.0
 10
11.536
 20
-22.9324
 30
0.0
 10
11.536
 20
-22.9324
 30
0.0
 10
11.536
 20
-22.9324
 30
0.0
 10
11.536
 20
-22.9324
 30
0.0
 10
11.4203
 20
-23.0688
 30
0.0
 10
11.4203
 20
-23.0688
 30
0.0
 10
11.4203
 20
-23.0688
 30
0.0
 10
11.4203
 20
-23.0688
 30
0.0
 10
11.1489
 20
-22.8261
 30
0.0
 10
11.1489
 20
-22.8261
 30
0.0
 10
11.1489
 20
-22.8261
 30
0.0
 10
11.012
 20
-22.9164
 30
0.0
 10
10.8949
 20
-22.9766
 30
0.0
 10
10.798
 20
-23.0067
 30
0.0
 10
10.798
 20
-23.0067
 30
0.0
 10
10.7011
 20
-23.0368
 30
0.0
 10
10.5844
 20
-23.0523
 30
0.0
 10
10.4485
 20
-23.0523
 30
0.0
 10
10.4485
 20
-23.0523
 30
0.0
 10
10.2411
 20
-23.0523
 30
0.0
 10
10.0562
 20
-23.0109
 30
0.0
 10
9.8939
 20
-22.9282
 30
0.0
 10
9.8939
 20
-22.9282
 30
0.0
 10
9.7316
 20
-22.8454
 30
0.0
 10
9.6089
 20
-22.7297
 30
0.0
 10
9.5252
 20
-22.5801
 30
0.0
 10
9.5252
 20
-22.5801
 30
0.0
 10
9.4419
 20
-22.431
 30
0.0
 10
9.4
 20
-22.2649
 30
0.0
 10
9.4
 20
-22.082
 30
0.0
 10
9.4
 20
-22.082
 30
0.0
 10
9.4
 20
-21.9587
 30
0.0
 10
9.416
 20
-21.851
 30
0.0
 10
9.449
 20
-21.7588
 30
0.0
 10
9.449
 20
-21.7588
 30
0.0
 10
9.4814
 20
-21.6666
 30
0.0
 10
9.5383
 20
-21.5669
 30
0.0
 10
9.6192
 20
-21.4606
 30
0.0
  0
SPLINE
  5
7F
330
1F
100
AcDbEntity
  8
DEFAULT_1
 62
   250
100
AcDbSpline
210
0.0
220
0.0
230
1.0
 70
    11
 71
     3
 72
    32
 73
    28
 74
     0
 42
0.0000000001
 43
0.0000000001
 40
0.0
 40
0.0
 40
0.0
 40
0.0
 40
0.125
 40
0.125
 40
0.125
 40
0.125
 40
0.25
 40
0.25
 40
0.25
 40
0.25
 40
0.375
 40
0.375
 40
0.375
 40
0.375
 40
0.5
 40
0.5
 40
0.5
 40
0.5
 40
0.625
 40
0.625
 40
0.625
 40
0.625
 40
0.75
 40
0.75
 40
0.75
 40
0.75
 40
1.0
 40
1.0
 40
1.0
 40
1.0
 10
9.805
 20
-21.6257
 30
0.0
 10
9.7373
 20
-21.7123
 30
0.0
 10
9.6907
 20
-21.788
 30
0.0
 10
9.6658
 20
-21.8524
 30
0.0
 10
9.6658
 20
-21.8524
 30
0.0
 10
9.6413
 20
-21.9173
 30
0.0
 10
9.6286
 20
-21.9935
 30
0.0
 10
9.6286
 20
-22.0806
 30
0.0
 10
9.6286
 20
-22.0806
 30
0.0
 10
9.6286
 20
-22.2819
 30
0.0
 10
9.6968
 20
-22.4479
 30
0.0
 10
9.8332
 20
-22.5796
 30
0.0
 10
9.8332
 20
-22.5796
 30
0.0
 10
9.9697
 20
-22.7109
 30
0.0
 10
10.1733
 20
-22.7767
 30
0.0
 10
10.4447
 20
-22.7767
 30
0.0
 10
10.4447
 20
-22.7767
 30
0.0
 10
10.551
 20
-22.7767
 30
0.0
 10
10.6456
 20
-22.7664
 30
0.0
 10
10.7284
 20
-22.7461
 30
0.0
 10
10.7284
 20
-22.7461
 30
0.0
 10
10.79
 20
-22.7315
 30
0.0
 10
10.8657
 20
-22.701
 30
0.0
 10
10.9555
 20
-22.6539
 30
0.0
 10
10.9555
 20
-22.6539
 30
0.0
 10
10.9555
 20
-22.6539
 30
0.0
 10
9.805
 20
-21.6257
 30
0.0
 10
9.805
 20
-21.6257
 30
0.0
  0
SPLINE
  5
80
330
1F
100
AcDbEntity
  8
DEFAULT_1
 62
   250
100
AcDbSpline
210
0.0
220
0.0
230
1.0
 70
    11
 71
     3
 72
    28
 73
    24
 74
     0
 42
0.0000000001
 43
0.0000000001
 40
0.0
 40
0.0
 40
0.0
 40
0.0
 40
0.1428571428571428
 40
0.1428571428571428
 40
0.1428571428571428
 40
0.1428571428571428
 40
0.2857142857142857
 40
0.2857142857142857
 40
0.2857142857142857
 40
0.2857142857142857
 40
0.4285714285714285
 40
0.4285714285714285
 40
0.4285714285714285
 40
0.4285714285714285
 40
0.5714285714285714
 40
0.5714285714285714
 40
0.5714285714285714
 40
0.5714285714285714
 40
0.7142857142857143
 40
0.7142857142857143
 40
0.7142857142857143
 40
0.7142857142857143
 40
1.0
 40
1.0
 40
1.0
 40
1.0
 10
9.9471
 20
-21.5128
 30
0.0
 10
9.9471
 20
-21.5128
 30
0.0
 10
11.0934
 20
-22.5368
 30
0.0
 10
11.0934
 20
-22.5368
 30
0.0
 10
11.0934
 20
-22.5368
 30
0.0
 10
11.1512
 20
-22.4663
 30
0.0
 10
11.1917
 20
-22.4009
 30
0.0
 10
11.2147
 20
-22.3411
 30
0.0
 10
11.2147
 20
-22.3411
 30
0.0
 10
11.2453
 20
-22.2631
 30
0.0
 10
11.2603
 20
-22.1784
 30
0.0
 10
11.2603
 20
-22.0876
 30
0.0
 10
11.2603
 20
-22.0876
 30
0.0
 10
11.2603
 20
-21.8872
 30
0.0
 10
11.1898
 20
-21.7221
 30
0.0
 10
11.0482
 20
-21.5914
 30
0.0
 10
11.0482
 20
-21.5914
 30
0.0
 10
10.9066
 20
-21.4611
 30
0.0
 10
10.7081
 20
-21.3957
 30
0.0
 10
10.4527
 20
-21.3957
 30
0.0
 10
10.4527
 20
-21.3957
 30
0.0
 10
10.2618
 20
-21.3957
 30
0.0
 10
10.0929
 20
-21.4347
 30
0.0
 10
9.9471
 20
-21.5128
 30
0.0
  0
SPLINE
  5
81
330
1F
100
AcDbEntity
  8
DEFAULT_1
 62
   250
100
AcDbSpline
210
0.0
220
0.0
230
1.0
 70
    11
 71
     3
 72
    48
 73
    44
 74
     0
 42
0.0000000001
 43
0.0000000001
 40
0.0
 40
0.0
 40
0.0
 40
0.0
 40
0.0833333333333333
 40
0.0833333333333333
 40
0.0833333333333333
 40
0.0833333333333333
 40
0.1666666666666667
 40
0.1666666666666667
 40
0.1666666666666667
 40
0.1666666666666667
 40
0.25
 40
0.25
 40
0.25
 40
0.25
 40
0.3333333333333333
 40
0.3333333333333333
 40
0.3333333333333333
 40
0.3333333333333333
 40
0.4166666666666667
 40
0.4166666666666667
 40
0.4166666666666667
 40
0.4166666666666667
 40
0.5
 40
0.5
 40
0.5
 40
0.5
 40
0.5833333333333334
 40
0.5833333333333334
 40
0.5833333333333334
 40
0.5833333333333334
 40
0.6666666666666666
 40
0.6666666666666666
 40
0.6666666666666666
 40
0.6666666666666666
 40
0.75
 40
0.75
 40
0.75
 40
0.75
 40
0.8333333333333334
 40
0.8333333333333334
 40
0.8333333333333334
 40
0.8333333333333334
 40
1.0
 40
1.0
 40
1.0
 40
1.0
 10
11.4546
 20
-20.0759
 30
0.0
 10
11.4546
 20
-20.0759
 30
0.0
 10
10.9711
 20
-20.0759
 30
0.0
 10
10.9711
 20
-20.0759
 30
0.0
 10
10.9711
 20
-20.0759
 30
0.0
 10
10.9711
 20
-20.0759
 30
0.0
 10
10.9711
 20
-20.9522
 30
0.0
 10
10.9711
 20
-20.9522
 30
0.0
 10
10.9711
 20
-20.9522
 30
0.0
 10
10.9711
 20
-20.9522
 30
0.0
 10
10.7434
 20
-20.9522
 30
0.0
 10
10.7434
 20
-20.9522
 30
0.0
 10
10.7434
 20
-20.9522
 30
0.0
 10
10.7434
 20
-20.9522
 30
0.0
 10
9.4344
 20
-20.0302
 30
0.0
 10
9.4344
 20
-20.0302
 30
0.0
 10
9.4344
 20
-20.0302
 30
0.0
 10
9.4344
 20
-20.0302
 30
0.0
 10
9.4344
 20
-19.8275
 30
0.0
 10
9.4344
 20
-19.8275
 30
0.0
 10
9.4344
 20
-19.8275
 30
0.0
 10
9.4344
 20
-19.8275
 30
0.0
 10
10.7434
 20
-19.8275
 30
0.0
 10
10.7434
 20
-19.8275
 30
0.0
 10
10.7434
 20
-19.8275
 30
0.0
 10
10.7434
 20
-19.8275
 30
0.0
 10
10.7434
 20
-19.5547
 30
0.0
 10
10.7434
 20
-19.5547
 30
0.0
 10
10.7434
 20
-19.5547
 30
0.0
 10
10.7434
 20
-19.5547
 30
0.0
 10
10.9711
 20
-19.5547
 30
0.0
 10
10.9711
 20
-19.5547
 30
0.0
 10
10.9711
 20
-19.5547
 30
0.0
 10
10.9711
 20
-19.5547
 30
0.0
 10
10.9711
 20
-19.8275
 30
0.0
 10
10.9711
 20
-19.8275
 30
0.0
 10
10.9711
 20
-19.8275
 30
0.0
 10
10.9711
 20
-19.8275
 30
0.0
 10
11.4546
 20
-19.8275
 30
0.0
 10
11.4546
 20
-19.8275
 30
0.0
 10
11.4546
 20
-19.8275
 30
0.0
 10
11.4546
 20
-19.8275
 30
0.0
 10
11.4546
 20
-20.0759
 30
0.0
 10
11.4546
 20
-20.0759
 30
0.0
  0
SPLINE
  5
82
330
1F
100
AcDbEntity
  8
DEFAULT_1
 62
   250
100
AcDbSpline
210
0.0
220
0.0
230
1.0
 70
    11
 71
     3
 72
    16
 73
    12
 74
     0
 42
0.0000000001
 43
0.0000000001
 40
0.0
 40
0.0
 40
0.0
 40
0.0
 40
0.25
 40
0.25
 40
0.25
 40
0.25
 40
0.5
 40
0.5
 40
0.5
 40
0.5
 40
1.0
 40
1.0
 40
1.0
 40
1.0
 10
10.7434
 20
-20.0759
 30
0.0
 10
10.7434
 20
-20.0759
 30
0.0
 10
9.8328
 20
-20.0759
 30
0.0
 10
9.8328
 20
-20.0759
 30
0.0
 10
9.8328
 20
-20.0759
 30
0.0
 10
9.8328
 20
-20.0759
 30
0.0
 10
10.7434
 20
-20.708
 30
0.0
 10
10.7434
 20
-20.708
 30
0.0
 10
10.7434
 20
-20.708
 30
0.0
 10
10.7434
 20
-20.708
 30
0.0
 10
10.7434
 20
-20.0759
 30
0.0
 10
10.7434
 20
-20.0759
 30
0.0
  0
SPLINE
  5
83
330
1F
100
AcDbEntity
  8
DEFAULT_1
 62
   250
100
AcDbSpline
210
0.0
220
0.0
230
1.0
 70
    11
 71
     3
 72
    52
 73
    48
 74
     0
 42
0.0000000001
 43
0.0000000001
 40
0.0
 40
0.0
 40
0.0
 40
0.0
 40
0.0769230769230769
 40
0.0769230769230769
 40
0.0769230769230769
 40
0.0769230769230769
 40
0.1538461538461539
 40
0.1538461538461539
 40
0.1538461538461539
 40
0.1538461538461539
 40
0.2307692307692308
 40
0.2307692307692308
 40
0.2307692307692308
 40
0.2307692307692308
 40
0.3076923076923077
 40
0.3076923076923077
 40
0.3076923076923077
 40
0.3076923076923077
 40
0.3846153846153846
 40
0.3846153846153846
 40
0.3846153846153846
 40
0.3846153846153846
 40
0.4615384615384616
 40
0.4615384615384616
 40
0.4615384615384616
 40
0.4615384615384616
 40
0.5384615384615384
 40
0.5384615384615384
 40
0.5384615384615384
 40
0.5384615384615384
 40
0.6153846153846154
 40
0.6153846153846154
 40
0.6153846153846154
 40
0.6153846153846154
 40
0.6923076923076923
 40
0.6923076923076923
 40
0.6923076923076923
 40
0.6923076923076923
 40
0.7692307692307693
 40
0.7692307692307693
 40
0.7692307692307693
 40
0.7692307692307693
 40
0.8461538461538461
 40
0.8461538461538461
 40
0.8461538461538461
 40
0.8461538461538461
 40
1.0
 40
1.0
 40
1.0
 40
1.0
 10
10.4584
 20
-19.3012
 30
0.0
 10
10.2194
 20
-19.3012
 30
0.0
 10
10.027
 20
-19.2767
 30
0.0
 10
9.8817
 20
-19.2273
 30
0.0
 10
9.8817
 20
-19.2273
 30
0.0
 10
9.7359
 20
-19.1784
 30
0.0
 10
9.6235
 20
-19.105
 30
0.0
 10
9.5444
 20
-19.0081
 30
0.0
 10
9.5444
 20
-19.0081
 30
0.0
 10
9.4654
 20
-18.9112
 30
0.0
 10
9.4259
 20
-18.7894
 30
0.0
 10
9.4259
 20
-18.6427
 30
0.0
 10
9.4259
 20
-18.6427
 30
0.0
 10
9.4259
 20
-18.534
 30
0.0
 10
9.448
 20
-18.439
 30
0.0
 10
9.4918
 20
-18.3572
 30
0.0
 10
9.4918
 20
-18.3572
 30
0.0
 10
9.535
 20
-18.2753
 30
0.0
 10
9.5981
 20
-18.208
 30
0.0
 10
9.6804
 20
-18.1544
 30
0.0
 10
9.6804
 20
-18.1544
 30
0.0
 10
9.7627
 20
-18.1013
 30
0.0
 10
9.8629
 20
-18.0594
 30
0.0
 10
9.9809
 20
-18.0293
 30
0.0
 10
9.9809
 20
-18.0293
 30
0.0
 10
10.099
 20
-17.9987
 30
0.0
 10
10.258
 20
-17.9837
 30
0.0
 10
10.4584
 20
-17.9837
 30
0.0
 10
10.4584
 20
-17.9837
 30
0.0
 10
10.6954
 20
-17.9837
 30
0.0
 10
10.8864
 20
-18.0081
 30
0.0
 10
11.0322
 20
-18.0566
 30
0.0
 10
11.0322
 20
-18.0566
 30
0.0
 10
11.178
 20
-18.1055
 30
0.0
 10
11.2904
 20
-18.1784
 30
0.0
 10
11.3699
 20
-18.2753
 30
0.0
 10
11.3699
 20
-18.2753
 30
0.0
 10
11.4494
 20
-18.3722
 30
0.0
 10
11.4889
 20
-18.4945
 30
0.0
 10
11.4889
 20
-18.6427
 30
0.0
 10
11.4889
 20
-18.6427
 30
0.0
 10
11.4889
 20
-18.8374
 30
0.0
 10
11.4193
 20
-18.9903
 30
0.0
 10
11.2796
 20
-19.1013
 30
0.0
 10
11.2796
 20
-19.1013
 30
0.0
 10
11.1117
 20
-19.2344
 30
0.0
 10
10.8375
 20
-19.3012
 30
0.0
 10
10.4584
 20
-19.3012
 30
0.0
  0
SPLINE
  5
84
330
1F
100
AcDbEntity
  8
DEFAULT_1
 62
   250
100
AcDbSpline
210
0.0
220
0.0
230
1.0
 70
    11
 71
     3
 72
    36
 73
    32
 74
     0
 42
0.0000000001
 43
0.0000000001
 40
0.0
 40
0.0
 40
0.0
 40
0.0
 40
0.1111111111111111
 40
0.1111111111111111
 40
0.1111111111111111
 40
0.1111111111111111
 40
0.2222222222222222
 40
0.2222222222222222
 40
0.2222222222222222
 40
0.2222222222222222
 40
0.3333333333333333
 40
0.3333333333333333
 40
0.3333333333333333
 40
0.3333333333333333
 40
0.4444444444444444
 40
0.4444444444444444
 40
0.4444444444444444
 40
0.4444444444444444
 40
0.5555555555555556
 40
0.5555555555555556
 40
0.5555555555555556
 40
0.5555555555555556
 40
0.6666666666666666
 40
0.6666666666666666
 40
0.6666666666666666
 40
0.6666666666666666
 40
0.7777777777777778
 40
0.7777777777777778
 40
0.7777777777777778
 40
0.7777777777777778
 40
1.0
 40
1.0
 40
1.0
 40
1.0
 10
10.4584
 20
-19.0462
 30
0.0
 10
10.79
 20
-19.0462
 30
0.0
 10
11.0106
 20
-19.0072
 30
0.0
 10
11.1206
 20
-18.9296
 30
0.0
 10
11.1206
 20
-18.9296
 30
0.0
 10
11.2302
 20
-18.852
 30
0.0
 10
11.2853
 20
-18.7565
 30
0.0
 10
11.2853
 20
-18.6427
 30
0.0
 10
11.2853
 20
-18.6427
 30
0.0
 10
11.2853
 20
-18.5284
 30
0.0
 10
11.2298
 20
-18.4329
 30
0.0
 10
11.1197
 20
-18.3553
 30
0.0
 10
11.1197
 20
-18.3553
 30
0.0
 10
11.0096
 20
-18.2777
 30
0.0
 10
10.789
 20
-18.2386
 30
0.0
 10
10.4584
 20
-18.2386
 30
0.0
 10
10.4584
 20
-18.2386
 30
0.0
 10
10.1258
 20
-18.2386
 30
0.0
 10
9.9047
 20
-18.2777
 30
0.0
 10
9.7956
 20
-18.3553
 30
0.0
 10
9.7956
 20
-18.3553
 30
0.0
 10
9.686
 20
-18.4329
 30
0.0
 10
9.6315
 20
-18.5293
 30
0.0
 10
9.6315
 20
-18.645
 30
0.0
 10
9.6315
 20
-18.645
 30
0.0
 10
9.6315
 20
-18.7593
 30
0.0
 10
9.6799
 20
-18.8501
 30
0.0
 10
9.7763
 20
-18.9183
 30
0.0
 10
9.7763
 20
-18.9183
 30
0.0
 10
9.8991
 20
-19.0034
 30
0.0
 10
10.1268
 20
-19.0462
 30
0.0
 10
10.4584
 20
-19.0462
 30
0.0
  0
SPLINE
  5
85
330
1F
100
AcDbEntity
  8
DEFAULT_1
 62
   250
100
AcDbSpline
210
0.0
220
0.0
230
1.0
 70
    11
 71
     3
 72
    84
 73
    80
 74
     0
 42
0.0000000001
 43
0.0000000001
 40
0.0
 40
0.0
 40
0.0
 40
0.0
 40
0.0476190476190476
 40
0.0476190476190476
 40
0.0476190476190476
 40
0.0476190476190476
 40
0.0952380952380952
 40
0.0952380952380952
 40
0.0952380952380952
 40
0.0952380952380952
 40
0.1428571428571428
 40
0.1428571428571428
 40
0.1428571428571428
 40
0.1428571428571428
 40
0.1904761904761905
 40
0.1904761904761905
 40
0.1904761904761905
 40
0.1904761904761905
 40
0.2380952380952381
 40
0.2380952380952381
 40
0.2380952380952381
 40
0.2380952380952381
 40
0.2857142857142857
 40
0.2857142857142857
 40
0.2857142857142857
 40
0.2857142857142857
 40
0.3333333333333333
 40
0.3333333333333333
 40
0.3333333333333333
 40
0.3333333333333333
 40
0.3809523809523809
 40
0.3809523809523809
 40
0.3809523809523809
 40
0.3809523809523809
 40
0.4285714285714285
 40
0.4285714285714285
 40
0.4285714285714285
 40
0.4285714285714285
 40
0.4761904761904762
 40
0.4761904761904762
 40
0.4761904761904762
 40
0.4761904761904762
 40
0.5238095238095238
 40
0.5238095238095238
 40
0.5238095238095238
 40
0.5238095238095238
 40
0.5714285714285714
 40
0.5714285714285714
 40
0.5714285714285714
 40
0.5714285714285714
 40
0.6190476190476191
 40
0.6190476190476191
 40
0.6190476190476191
 40
0.6190476190476191
 40
0.6666666666666666
 40
0.6666666666666666
 40
0.6666666666666666
 40
0.6666666666666666
 40
0.7142857142857143
 40
0.7142857142857143
 40
0.7142857142857143
 40
0.7142857142857143
 40
0.7619047619047619
 40
0.7619047619047619
 40
0.7619047619047619
 40
0.7619047619047619
 40
0.8095238095238095
 40
0.8095238095238095
 40
0.8095238095238095
 40
0.8095238095238095
 40
0.8571428571428571
 40
0.8571428571428571
 40
0.8571428571428571
 40
0.8571428571428571
 40
0.9047619047619048
 40
0.9047619047619048
 40
0.9047619047619048
 40
0.9047619047619048
 40
1.0
 40
1.0
 40
1.0
 40
1.0
 10
13.64
 20
-21.355
 30
0.0
 10
13.64
 20
-21.355
 30
0.0
 10
13.3809
 20
-21.1236
 30
0.0
 10
13.3809
 20
-21.1236
 30
0.0
 10
13.3809
 20
-21.1236
 30
0.0
 10
13.3809
 20
-21.1236
 30
0.0
 10
13.4966
 20
-20.9872
 30
0.0
 10
13.4966
 20
-20.9872
 30
0.0
 10
13.4966
 20
-20.9872
 30
0.0
 10
13.4966
 20
-20.9872
 30
0.0
 10
13.7694
 20
-21.2294
 30
0.0
 10
13.7694
 20
-21.2294
 30
0.0
 10
13.7694
 20
-21.2294
 30
0.0
 10
13.887
 20
-21.1504
 30
0.0
 10
13.99
 20
-21.0973
 30
0.0
 10
14.0779
 20
-21.0695
 30
0.0
 10
14.0779
 20
-21.0695
 30
0.0
 10
14.1937
 20
-21.0328
 30
0.0
 10
14.3235
 20
-21.0145
 30
0.0
 10
14.4665
 20
-21.0145
 30
0.0
 10
14.4665
 20
-21.0145
 30
0.0
 10
14.6734
 20
-21.0145
 30
0.0
 10
14.8578
 20
-21.0563
 30
0.0
 10
15.0191
 20
-21.1401
 30
0.0
 10
15.0191
 20
-21.1401
 30
0.0
 10
15.181
 20
-21.2238
 30
0.0
 10
15.3032
 20
-21.3409
 30
0.0
 10
15.386
 20
-21.4919
 30
0.0
 10
15.386
 20
-21.4919
 30
0.0
 10
15.4683
 20
-21.6434
 30
0.0
 10
15.5097
 20
-21.8037
 30
0.0
 10
15.5097
 20
-21.9735
 30
0.0
 10
15.5097
 20
-21.9735
 30
0.0
 10
15.5097
 20
-22.1005
 30
0.0
 10
15.4919
 20
-22.2153
 30
0.0
 10
15.4561
 20
-22.3183
 30
0.0
 10
15.4561
 20
-22.3183
 30
0.0
 10
15.4284
 20
-22.3973
 30
0.0
 10
15.3757
 20
-22.4895
 30
0.0
 10
15.2976
 20
-22.5954
 30
0.0
 10
15.2976
 20
-22.5954
 30
0.0
 10
15.2976
 20
-22.5954
 30
0.0
 10
15.5568
 20
-22.8268
 30
0.0
 10
15.5568
 20
-22.8268
 30
0.0
 10
15.5568
 20
-22.8268
 30
0.0
 10
15.5568
 20
-22.8268
 30
0.0
 10
15.4411
 20
-22.9632
 30
0.0
 10
15.4411
 20
-22.9632
 30
0.0
 10
15.4411
 20
-22.9632
 30
0.0
 10
15.4411
 20
-22.9632
 30
0.0
 10
15.1697
 20
-22.7205
 30
0.0
 10
15.1697
 20
-22.7205
 30
0.0
 10
15.1697
 20
-22.7205
 30
0.0
 10
15.0328
 20
-22.8108
 30
0.0
 10
14.9157
 20
-22.871
 30
0.0
 10
14.8188
 20
-22.9011
 30
0.0
 10
14.8188
 20
-22.9011
 30
0.0
 10
14.7219
 20
-22.9312
 30
0.0
 10
14.6052
 20
-22.9467
 30
0.0
 10
14.4693
 20
-22.9467
 30
0.0
 10
14.4693
 20
-22.9467
 30
0.0
 10
14.2619
 20
-22.9467
 30
0.0
 10
14.077
 20
-22.9053
 30
0.0
 10
13.9147
 20
-22.8226
 30
0.0
 10
13.9147
 20
-22.8226
 30
0.0
 10
13.7524
 20
-22.7398
 30
0.0
 10
13.6297
 20
-22.6241
 30
0.0
 10
13.546
 20
-22.4745
 30
0.0
 10
13.546
 20
-22.4745
 30
0.0
 10
13.4627
 20
-22.3254
 30
0.0
 10
13.4208
 20
-22.1593
 30
0.0
 10
13.4208
 20
-21.9764
 30
0.0
 10
13.4208
 20
-21.9764
 30
0.0
 10
13.4208
 20
-21.8531
 30
0.0
 10
13.4368
 20
-21.7454
 30
0.0
 10
13.4698
 20
-21.6532
 30
0.0
 10
13.4698
 20
-21.6532
 30
0.0
 10
13.5022
 20
-21.561
 30
0.0
 10
13.5591
 20
-21.4613
 30
0.0
 10
13.64
 20
-21.355
 30
0.0
  0
SPLINE
  5
86
330
1F
100
AcDbEntity
  8
DEFAULT_1
 62
   250
100
AcDbSpline
210
0.0
220
0.0
230
1.0
 70
    11
 71
     3
 72
    32
 73
    28
 74
     0
 42
0.0000000001
 43
0.0000000001
 40
0.0
 40
0.0
 40
0.0
 40
0.0
 40
0.125
 40
0.125
 40
0.125
 40
0.125
 40
0.25
 40
0.25
 40
0.25
 40
0.25
 40
0.375
 40
0.375
 40
0.375
 40
0.375
 40
0.5
 40
0.5
 40
0.5
 40
0.5
 40
0.625
 40
0.625
 40
0.625
 40
0.625
 40
0.75
 40
0.75
 40
0.75
 40
0.75
 40
1.0
 40
1.0
 40
1.0
 40
1.0
 10
13.8258
 20
-21.5201
 30
0.0
 10
13.7581
 20
-21.6067
 30
0.0
 10
13.7115
 20
-21.6824
 30
0.0
 10
13.6866
 20
-21.7468
 30
0.0
 10
13.6866
 20
-21.7468
 30
0.0
 10
13.6621
 20
-21.8117
 30
0.0
 10
13.6494
 20
-21.8879
 30
0.0
 10
13.6494
 20
-21.975
 30
0.0
 10
13.6494
 20
-21.975
 30
0.0
 10
13.6494
 20
-22.1763
 30
0.0
 10
13.7176
 20
-22.3423
 30
0.0
 10
13.854
 20
-22.474
 30
0.0
 10
13.854
 20
-22.474
 30
0.0
 10
13.9905
 20
-22.6053
 30
0.0
 10
14.1941
 20
-22.6711
 30
0.0
 10
14.4655
 20
-22.6711
 30
0.0
 10
14.4655
 20
-22.6711
 30
0.0
 10
14.5718
 20
-22.6711
 30
0.0
 10
14.6664
 20
-22.6608
 30
0.0
 10
14.7492
 20
-22.6405
 30
0.0
 10
14.7492
 20
-22.6405
 30
0.0
 10
14.8108
 20
-22.6259
 30
0.0
 10
14.8865
 20
-22.5954
 30
0.0
 10
14.9763
 20
-22.5483
 30
0.0
 10
14.9763
 20
-22.5483
 30
0.0
 10
14.9763
 20
-22.5483
 30
0.0
 10
13.8258
 20
-21.5201
 30
0.0
 10
13.8258
 20
-21.5201
 30
0.0
  0
SPLINE
  5
87
330
1F
100
AcDbEntity
  8
DEFAULT_1
 62
   250
100
AcDbSpline
210
0.0
220
0.0
230
1.0
 70
    11
 71
     3
 72
    28
 73
    24
 74
     0
 42
0.0000000001
 43
0.0000000001
 40
0.0
 40
0.0
 40
0.0
 40
0.0
 40
0.1428571428571428
 40
0.1428571428571428
 40
0.1428571428571428
 40
0.1428571428571428
 40
0.2857142857142857
 40
0.2857142857142857
 40
0.2857142857142857
 40
0.2857142857142857
 40
0.4285714285714285
 40
0.4285714285714285
 40
0.4285714285714285
 40
0.4285714285714285
 40
0.5714285714285714
 40
0.5714285714285714
 40
0.5714285714285714
 40
0.5714285714285714
 40
0.7142857142857143
 40
0.7142857142857143
 40
0.7142857142857143
 40
0.7142857142857143
 40
1.0
 40
1.0
 40
1.0
 40
1.0
 10
13.9679
 20
-21.4072
 30
0.0
 10
13.9679
 20
-21.4072
 30
0.0
 10
15.1142
 20
-22.4312
 30
0.0
 10
15.1142
 20
-22.4312
 30
0.0
 10
15.1142
 20
-22.4312
 30
0.0
 10
15.172
 20
-22.3607
 30
0.0
 10
15.2125
 20
-22.2953
 30
0.0
 10
15.2355
 20
-22.2355
 30
0.0
 10
15.2355
 20
-22.2355
 30
0.0
 10
15.2661
 20
-22.1575
 30
0.0
 10
15.2811
 20
-22.0728
 30
0.0
 10
15.2811
 20
-21.982
 30
0.0
 10
15.2811
 20
-21.982
 30
0.0
 10
15.2811
 20
-21.7816
 30
0.0
 10
15.2106
 20
-21.6165
 30
0.0
 10
15.069
 20
-21.4858
 30
0.0
 10
15.069
 20
-21.4858
 30
0.0
 10
14.9274
 20
-21.3555
 30
0.0
 10
14.7289
 20
-21.2901
 30
0.0
 10
14.4735
 20
-21.2901
 30
0.0
 10
14.4735
 20
-21.2901
 30
0.0
 10
14.2826
 20
-21.2901
 30
0.0
 10
14.1137
 20
-21.3291
 30
0.0
 10
13.9679
 20
-21.4072
 30
0.0
  0
SPLINE
  5
88
330
1F
100
AcDbEntity
  8
DEFAULT_1
 62
   250
100
AcDbSpline
210
0.0
220
0.0
230
1.0
 70
    11
 71
     3
 72
    92
 73
    88
 74
     0
 42
0.0000000001
 43
0.0000000001
 40
0.0
 40
0.0
 40
0.0
 40
0.0
 40
0.0434782608695652
 40
0.0434782608695652
 40
0.0434782608695652
 40
0.0434782608695652
 40
0.0869565217391304
 40
0.0869565217391304
 40
0.0869565217391304
 40
0.0869565217391304
 40
0.1304347826086956
 40
0.1304347826086956
 40
0.1304347826086956
 40
0.1304347826086956
 40
0.1739130434782609
 40
0.1739130434782609
 40
0.1739130434782609
 40
0.1739130434782609
 40
0.2173913043478261
 40
0.2173913043478261
 40
0.2173913043478261
 40
0.2173913043478261
 40
0.2608695652173913
 40
0.2608695652173913
 40
0.2608695652173913
 40
0.2608695652173913
 40
0.3043478260869565
 40
0.3043478260869565
 40
0.3043478260869565
 40
0.3043478260869565
 40
0.3478260869565217
 40
0.3478260869565217
 40
0.3478260869565217
 40
0.3478260869565217
 40
0.391304347826087
 40
0.391304347826087
 40
0.391304347826087
 40
0.391304347826087
 40
0.4347826086956522
 40
0.4347826086956522
 40
0.4347826086956522
 40
0.4347826086956522
 40
0.4782608695652174
 40
0.4782608695652174
 40
0.4782608695652174
 40
0.4782608695652174
 40
0.5217391304347826
 40
0.5217391304347826
 40
0.5217391304347826
 40
0.5217391304347826
 40
0.5652173913043478
 40
0.5652173913043478
 40
0.5652173913043478
 40
0.5652173913043478
 40
0.6086956521739131
 40
0.6086956521739131
 40
0.6086956521739131
 40
0.6086956521739131
 40
0.6521739130434783
 40
0.6521739130434783
 40
0.6521739130434783
 40
0.6521739130434783
 40
0.6956521739130435
 40
0.6956521739130435
 40
0.6956521739130435
 40
0.6956521739130435
 40
0.7391304347826086
 40
0.7391304347826086
 40
0.7391304347826086
 40
0.7391304347826086
 40
0.782608695652174
 40
0.782608695652174
 40
0.782608695652174
 40
0.782608695652174
 40
0.8260869565217391
 40
0.8260869565217391
 40
0.8260869565217391
 40
0.8260869565217391
 40
0.8695652173913043
 40
0.8695652173913043
 40
0.8695652173913043
 40
0.8695652173913043
 40
0.9130434782608695
 40
0.9130434782608695
 40
0.9130434782608695
 40
0.9130434782608695
 40
1.0
 40
1.0
 40
1.0
 40
1.0
 10
14.9462
 20
-20.7652
 30
0.0
 10
14.9462
 20
-20.7652
 30
0.0
 10
14.9241
 20
-20.5046
 30
0.0
 10
14.9241
 20
-20.5046
 30
0.0
 10
14.9241
 20
-20.5046
 30
0.0
 10
15.0511
 20
-20.4853
 30
0.0
 10
15.1461
 20
-20.4406
 30
0.0
 10
15.2101
 20
-20.3705
 30
0.0
 10
15.2101
 20
-20.3705
 30
0.0
 10
15.2741
 20
-20.3
 30
0.0
 10
15.3061
 20
-20.2153
 30
0.0
 10
15.3061
 20
-20.1161
 30
0.0
 10
15.3061
 20
-20.1161
 30
0.0
 10
15.3061
 20
-19.9966
 30
0.0
 10
15.2609
 20
-19.8955
 30
0.0
 10
15.1711
 20
-19.8132
 30
0.0
 10
15.1711
 20
-19.8132
 30
0.0
 10
15.0808
 20
-19.7304
 30
0.0
 10
14.9613
 20
-19.689
 30
0.0
 10
14.8127
 20
-19.689
 30
0.0
 10
14.8127
 20
-19.689
 30
0.0
 10
14.6711
 20
-19.689
 30
0.0
 10
14.5596
 20
-19.7285
 30
0.0
 10
14.4778
 20
-19.808
 30
0.0
 10
14.4778
 20
-19.808
 30
0.0
 10
14.3959
 20
-19.8875
 30
0.0
 10
14.355
 20
-19.9914
 30
0.0
 10
14.355
 20
-20.1203
 30
0.0
 10
14.355
 20
-20.1203
 30
0.0
 10
14.355
 20
-20.2003
 30
0.0
 10
14.3733
 20
-20.2722
 30
0.0
 10
14.4095
 20
-20.3367
 30
0.0
 10
14.4095
 20
-20.3367
 30
0.0
 10
14.4458
 20
-20.4011
 30
0.0
 10
14.4928
 20
-20.4514
 30
0.0
 10
14.5507
 20
-20.4881
 30
0.0
 10
14.5507
 20
-20.4881
 30
0.0
 10
14.5507
 20
-20.4881
 30
0.0
 10
14.5206
 20
-20.721
 30
0.0
 10
14.5206
 20
-20.721
 30
0.0
 10
14.5206
 20
-20.721
 30
0.0
 10
14.5206
 20
-20.721
 30
0.0
 10
13.4829
 20
-20.5253
 30
0.0
 10
13.4829
 20
-20.5253
 30
0.0
 10
13.4829
 20
-20.5253
 30
0.0
 10
13.4829
 20
-20.5253
 30
0.0
 10
13.4829
 20
-19.5206
 30
0.0
 10
13.4829
 20
-19.5206
 30
0.0
 10
13.4829
 20
-19.5206
 30
0.0
 10
13.4829
 20
-19.5206
 30
0.0
 10
13.72
 20
-19.5206
 30
0.0
 10
13.72
 20
-19.5206
 30
0.0
 10
13.72
 20
-19.5206
 30
0.0
 10
13.72
 20
-19.5206
 30
0.0
 10
13.72
 20
-20.3268
 30
0.0
 10
13.72
 20
-20.3268
 30
0.0
 10
13.72
 20
-20.3268
 30
0.0
 10
13.72
 20
-20.3268
 30
0.0
 10
14.2628
 20
-20.4359
 30
0.0
 10
14.2628
 20
-20.4359
 30
0.0
 10
14.2628
 20
-20.4359
 30
0.0
 10
14.1781
 20
-20.3146
 30
0.0
 10
14.1358
 20
-20.1871
 30
0.0
 10
14.1358
 20
-20.054
 30
0.0
 10
14.1358
 20
-20.054
 30
0.0
 10
14.1358
 20
-19.8776
 30
0.0
 10
14.1969
 20
-19.729
 30
0.0
 10
14.3192
 20
-19.6076
 30
0.0
 10
14.3192
 20
-19.6076
 30
0.0
 10
14.4415
 20
-19.4863
 30
0.0
 10
14.5986
 20
-19.4256
 30
0.0
 10
14.7905
 20
-19.4256
 30
0.0
 10
14.7905
 20
-19.4256
 30
0.0
 10
14.9735
 20
-19.4256
 30
0.0
 10
15.1316
 20
-19.4792
 30
0.0
 10
15.2647
 20
-19.5855
 30
0.0
 10
15.2647
 20
-19.5855
 30
0.0
 10
15.4279
 20
-19.7153
 30
0.0
 10
15.5097
 20
-19.8922
 30
0.0
 10
15.5097
 20
-20.1161
 30
0.0
 10
15.5097
 20
-20.1161
 30
0.0
 10
15.5097
 20
-20.3
 30
0.0
 10
15.4585
 20
-20.45
 30
0.0
 10
15.3555
 20
-20.5662
 30
0.0
 10
15.3555
 20
-20.5662
 30
0.0
 10
15.2524
 20
-20.6824
 30
0.0
 10
15.116
 20
-20.7487
 30
0.0
 10
14.9462
 20
-20.7652
 30
0.0
  0
SPLINE
  5
89
330
1F
100
AcDbEntity
  8
DEFAULT_1
 62
   250
100
AcDbSpline
210
0.0
220
0.0
230
1.0
 70
    11
 71
     3
 72
    52
 73
    48
 74
     0
 42
0.0000000001
 43
0.0000000001
 40
0.0
 40
0.0
 40
0.0
 40
0.0
 40
0.0769230769230769
 40
0.0769230769230769
 40
0.0769230769230769
 40
0.0769230769230769
 40
0.1538461538461539
 40
0.1538461538461539
 40
0.1538461538461539
 40
0.1538461538461539
 40
0.2307692307692308
 40
0.2307692307692308
 40
0.2307692307692308
 40
0.2307692307692308
 40
0.3076923076923077
 40
0.3076923076923077
 40
0.3076923076923077
 40
0.3076923076923077
 40
0.3846153846153846
 40
0.3846153846153846
 40
0.3846153846153846
 40
0.3846153846153846
 40
0.4615384615384616
 40
0.4615384615384616
 40
0.4615384615384616
 40
0.4615384615384616
 40
0.5384615384615384
 40
0.5384615384615384
 40
0.5384615384615384
 40
0.5384615384615384
 40
0.6153846153846154
 40
0.6153846153846154
 40
0.6153846153846154
 40
0.6153846153846154
 40
0.6923076923076923
 40
0.6923076923076923
 40
0.6923076923076923
 40
0.6923076923076923
 40
0.7692307692307693
 40
0.7692307692307693
 40
0.7692307692307693
 40
0.7692307692307693
 40
0.8461538461538461
 40
0.8461538461538461
 40
0.8461538461538461
 40
0.8461538461538461
 40
1.0
 40
1.0
 40
1.0
 40
1.0
 10
14.4792
 20
-19.1956
 30
0.0
 10
14.2402
 20
-19.1956
 30
0.0
 10
14.0478
 20
-19.1711
 30
0.0
 10
13.9025
 20
-19.1217
 30
0.0
 10
13.9025
 20
-19.1217
 30
0.0
 10
13.7567
 20
-19.0728
 30
0.0
 10
13.6443
 20
-18.9994
 30
0.0
 10
13.5652
 20
-18.9025
 30
0.0
 10
13.5652
 20
-18.9025
 30
0.0
 10
13.4862
 20
-18.8056
 30
0.0
 10
13.4467
 20
-18.6838
 30
0.0
 10
13.4467
 20
-18.5371
 30
0.0
 10
13.4467
 20
-18.5371
 30
0.0
 10
13.4467
 20
-18.4284
 30
0.0
 10
13.4688
 20
-18.3334
 30
0.0
 10
13.5126
 20
-18.2516
 30
0.0
 10
13.5126
 20
-18.2516
 30
0.0
 10
13.5558
 20
-18.1697
 30
0.0
 10
13.6189
 20
-18.1024
 30
0.0
 10
13.7012
 20
-18.0488
 30
0.0
 10
13.7012
 20
-18.0488
 30
0.0
 10
13.7835
 20
-17.9957
 30
0.0
 10
13.8837
 20
-17.9538
 30
0.0
 10
14.0017
 20
-17.9237
 30
0.0
 10
14.0017
 20
-17.9237
 30
0.0
 10
14.1198
 20
-17.8931
 30
0.0
 10
14.2788
 20
-17.8781
 30
0.0
 10
14.4792
 20
-17.8781
 30
0.0
 10
14.4792
 20
-17.8781
 30
0.0
 10
14.7162
 20
-17.8781
 30
0.0
 10
14.9072
 20
-17.9025
 30
0.0
 10
15.053
 20
-17.951
 30
0.0
 10
15.053
 20
-17.951
 30
0.0
 10
15.1988
 20
-17.9999
 30
0.0
 10
15.3112
 20
-18.0728
 30
0.0
 10
15.3907
 20
-18.1697
 30
0.0
 10
15.3907
 20
-18.1697
 30
0.0
 10
15.4702
 20
-18.2666
 30
0.0
 10
15.5097
 20
-18.3889
 30
0.0
 10
15.5097
 20
-18.5371
 30
0.0
 10
15.5097
 20
-18.5371
 30
0.0
 10
15.5097
 20
-18.7318
 30
0.0
 10
15.4401
 20
-18.8847
 30
0.0
 10
15.3004
 20
-18.9957
 30
0.0
 10
15.3004
 20
-18.9957
 30
0.0
 10
15.1325
 20
-19.1288
 30
0.0
 10
14.8583
 20
-19.1956
 30
0.0
 10
14.4792
 20
-19.1956
 30
0.0
  0
SPLINE
  5
8A
330
1F
100
AcDbEntity
  8
DEFAULT_1
 62
   250
100
AcDbSpline
210
0.0
220
0.0
230
1.0
 70
    11
 71
     3
 72
    36
 73
    32
 74
     0
 42
0.0000000001
 43
0.0000000001
 40
0.0
 40
0.0
 40
0.0
 40
0.0
 40
0.1111111111111111
 40
0.1111111111111111
 40
0.1111111111111111
 40
0.1111111111111111
 40
0.2222222222222222
 40
0.2222222222222222
 40
0.2222222222222222
 40
0.2222222222222222
 40
0.3333333333333333
 40
0.3333333333333333
 40
0.3333333333333333
 40
0.3333333333333333
 40
0.4444444444444444
 40
0.4444444444444444
 40
0.4444444444444444
 40
0.4444444444444444
 40
0.5555555555555556
 40
0.5555555555555556
 40
0.5555555555555556
 40
0.5555555555555556
 40
0.6666666666666666
 40
0.6666666666666666
 40
0.6666666666666666
 40
0.6666666666666666
 40
0.7777777777777778
 40
0.7777777777777778
 40
0.7777777777777778
 40
0.7777777777777778
 40
1.0
 40
1.0
 40
1.0
 40
1.0
 10
14.4792
 20
-18.9406
 30
0.0
 10
14.8108
 20
-18.9406
 30
0.0
 10
15.0314
 20
-18.9016
 30
0.0
 10
15.1414
 20
-18.824
 30
0.0
 10
15.1414
 20
-18.824
 30
0.0
 10
15.251
 20
-18.7464
 30
0.0
 10
15.3061
 20
-18.6509
 30
0.0
 10
15.3061
 20
-18.5371
 30
0.0
 10
15.3061
 20
-18.5371
 30
0.0
 10
15.3061
 20
-18.4228
 30
0.0
 10
15.2506
 20
-18.3273
 30
0.0
 10
15.1405
 20
-18.2497
 30
0.0
 10
15.1405
 20
-18.2497
 30
0.0
 10
15.0304
 20
-18.1721
 30
0.0
 10
14.8098
 20
-18.133
 30
0.0
 10
14.4792
 20
-18.133
 30
0.0
 10
14.4792
 20
-18.133
 30
0.0
 10
14.1466
 20
-18.133
 30
0.0
 10
13.9255
 20
-18.1721
 30
0.0
 10
13.8164
 20
-18.2497
 30
0.0
 10
13.8164
 20
-18.2497
 30
0.0
 10
13.7068
 20
-18.3273
 30
0.0
 10
13.6523
 20
-18.4237
 30
0.0
 10
13.6523
 20
-18.5394
 30
0.0
 10
13.6523
 20
-18.5394
 30
0.0
 10
13.6523
 20
-18.6537
 30
0.0
 10
13.7007
 20
-18.7445
 30
0.0
 10
13.7971
 20
-18.8127
 30
0.0
 10
13.7971
 20
-18.8127
 30
0.0
 10
13.9199
 20
-18.8978
 30
0.0
 10
14.1476
 20
-18.9406
 30
0.0
 10
14.4792
 20
-18.9406
 30
0.0
  0
SPLINE
  5
8B
330
1F
100
AcDbEntity
  8
DEFAULT_1
 62
   250
100
AcDbSpline
210
0.0
220
0.0
230
1.0
 70
    11
 71
     3
 72
    84
 73
    80
 74
     0
 42
0.0000000001
 43
0.0000000001
 40
0.0
 40
0.0
 40
0.0
 40
0.0
 40
0.0476190476190476
 40
0.0476190476190476
 40
0.0476190476190476
 40
0.0476190476190476
 40
0.0952380952380952
 40
0.0952380952380952
 40
0.0952380952380952
 40
0.0952380952380952
 40
0.1428571428571428
 40
0.1428571428571428
 40
0.1428571428571428
 40
0.1428571428571428
 40
0.1904761904761905
 40
0.1904761904761905
 40
0.1904761904761905
 40
0.1904761904761905
 40
0.2380952380952381
 40
0.2380952380952381
 40
0.2380952380952381
 40
0.2380952380952381
 40
0.2857142857142857
 40
0.2857142857142857
 40
0.2857142857142857
 40
0.2857142857142857
 40
0.3333333333333333
 40
0.3333333333333333
 40
0.3333333333333333
 40
0.3333333333333333
 40
0.3809523809523809
 40
0.3809523809523809
 40
0.3809523809523809
 40
0.3809523809523809
 40
0.4285714285714285
 40
0.4285714285714285
 40
0.4285714285714285
 40
0.4285714285714285
 40
0.4761904761904762
 40
0.4761904761904762
 40
0.4761904761904762
 40
0.4761904761904762
 40
0.5238095238095238
 40
0.5238095238095238
 40
0.5238095238095238
 40
0.5238095238095238
 40
0.5714285714285714
 40
0.5714285714285714
 40
0.5714285714285714
 40
0.5714285714285714
 40
0.6190476190476191
 40
0.6190476190476191
 40
0.6190476190476191
 40
0.6190476190476191
 40
0.6666666666666666
 40
0.6666666666666666
 40
0.6666666666666666
 40
0.6666666666666666
 40
0.7142857142857143
 40
0.7142857142857143
 40
0.7142857142857143
 40
0.7142857142857143
 40
0.7619047619047619
 40
0.7619047619047619
 40
0.7619047619047619
 40
0.7619047619047619
 40
0.8095238095238095
 40
0.8095238095238095
 40
0.8095238095238095
 40
0.8095238095238095
 40
0.8571428571428571
 40
0.8571428571428571
 40
0.8571428571428571
 40
0.8571428571428571
 40
0.9047619047619048
 40
0.9047619047619048
 40
0.9047619047619048
 40
0.9047619047619048
 40
1.0
 40
1.0
 40
1.0
 40
1.0
 10
-8.9264
 20
1.8893
 30
0.0
 10
-8.9264
 20
1.8893
 30
0.0
 10
-8.6924
 20
2.1461
 30
0.0
 10
-8.6924
 20
2.1461
 30
0.0
 10
-8.6924
 20
2.1461
 30
0.0
 10
-8.6924
 20
2.1461
 30
0.0
 10
-8.5572
 20
2.0291
 30
0.0
 10
-8.5572
 20
2.0291
 30
0.0
 10
-8.5572
 20
2.0291
 30
0.0
 10
-8.5572
 20
2.0291
 30
0.0
 10
-8.8021
 20
1.7587
 30
0.0
 10
-8.8021
 20
1.7587
 30
0.0
 10
-8.8021
 20
1.7587
 30
0.0
 10
-8.7242
 20
1.6403
 30
0.0
 10
-8.6721
 20
1.5368
 30
0.0
 10
-8.6452
 20
1.4486
 30
0.0
 10
-8.6452
 20
1.4486
 30
0.0
 10
-8.6097
 20
1.3324
 30
0.0
 10
-8.5926
 20
1.2025
 30
0.0
 10
-8.594
 20
1.0595
 30
0.0
 10
-8.594
 20
1.0595
 30
0.0
 10
-8.5961
 20
0.8526
 30
0.0
 10
-8.6397
 20
0.6686
 30
0.0
 10
-8.7251
 20
0.5081
 30
0.0
 10
-8.7251
 20
0.5081
 30
0.0
 10
-8.8104
 20
0.3471
 30
0.0
 10
-8.9287
 20
0.226
 30
0.0
 10
-9.0805
 20
0.1447
 30
0.0
 10
-9.0805
 20
0.1447
 30
0.0
 10
-9.2328
 20
0.0639
 30
0.0
 10
-9.3935
 20
0.0241
 30
0.0
 10
-9.5633
 20
0.0258
 30
0.0
 10
-9.5633
 20
0.0258
 30
0.0
 10
-9.6903
 20
0.027
 30
0.0
 10
-9.8049
 20
0.046
 30
0.0
 10
-9.9075
 20
0.0828
 30
0.0
 10
-9.9075
 20
0.0828
 30
0.0
 10
-9.9863
 20
0.1113
 30
0.0
 10
-10.0779
 20
0.1649
 30
0.0
 10
-10.1831
 20
0.244
 30
0.0
 10
-10.1831
 20
0.244
 30
0.0
 10
-10.1831
 20
0.244
 30
0.0
 10
-10.417
 20
-0.0129
 30
0.0
 10
-10.417
 20
-0.0129
 30
0.0
 10
-10.417
 20
-0.0129
 30
0.0
 10
-10.417
 20
-0.0129
 30
0.0
 10
-10.5523
 20
0.1041
 30
0.0
 10
-10.5523
 20
0.1041
 30
0.0
 10
-10.5523
 20
0.1041
 30
0.0
 10
-10.5523
 20
0.1041
 30
0.0
 10
-10.3069
 20
0.3731
 30
0.0
 10
-10.3069
 20
0.3731
 30
0.0
 10
-10.3069
 20
0.3731
 30
0.0
 10
-10.3958
 20
0.5109
 30
0.0
 10
-10.4549
 20
0.6286
 30
0.0
 10
-10.484
 20
0.7258
 30
0.0
 10
-10.484
 20
0.7258
 30
0.0
 10
-10.5132
 20
0.823
 30
0.0
 10
-10.5275
 20
0.9398
 30
0.0
 10
-10.5262
 20
1.0757
 30
0.0
 10
-10.5262
 20
1.0757
 30
0.0
 10
-10.5241
 20
1.2831
 30
0.0
 10
-10.4809
 20
1.4676
 30
0.0
 10
-10.3966
 20
1.6291
 30
0.0
 10
-10.3966
 20
1.6291
 30
0.0
 10
-10.3122
 20
1.7906
 30
0.0
 10
-10.1953
 20
1.9121
 30
0.0
 10
-10.0449
 20
1.9943
 30
0.0
 10
-10.0449
 20
1.9943
 30
0.0
 10
-9.895
 20
2.0762
 30
0.0
 10
-9.7285
 20
2.1164
 30
0.0
 10
-9.5456
 20
2.1146
 30
0.0
 10
-9.5456
 20
2.1146
 30
0.0
 10
-9.4223
 20
2.1134
 30
0.0
 10
-9.3148
 20
2.0963
 30
0.0
 10
-9.2229
 20
2.0624
 30
0.0
 10
-9.2229
 20
2.0624
 30
0.0
 10
-9.131
 20
2.0291
 30
0.0
 10
-9.0319
 20
1.9712
 30
0.0
 10
-8.9264
 20
1.8893
 30
0.0
  0
SPLINE
  5
8C
330
1F
100
AcDbEntity
  8
DEFAULT_1
 62
   250
100
AcDbSpline
210
0.0
220
0.0
230
1.0
 70
    11
 71
     3
 72
    32
 73
    28
 74
     0
 42
0.0000000001
 43
0.0000000001
 40
0.0
 40
0.0
 40
0.0
 40
0.0
 40
0.125
 40
0.125
 40
0.125
 40
0.125
 40
0.25
 40
0.25
 40
0.25
 40
0.25
 40
0.375
 40
0.375
 40
0.375
 40
0.375
 40
0.5
 40
0.5
 40
0.5
 40
0.5
 40
0.625
 40
0.625
 40
0.625
 40
0.625
 40
0.75
 40
0.75
 40
0.75
 40
0.75
 40
1.0
 40
1.0
 40
1.0
 40
1.0
 10
-9.0933
 20
1.7051
 30
0.0
 10
-9.1792
 20
1.7737
 30
0.0
 10
-9.2545
 20
1.821
 30
0.0
 10
-9.3186
 20
1.8466
 30
0.0
 10
-9.3186
 20
1.8466
 30
0.0
 10
-9.3833
 20
1.8717
 30
0.0
 10
-9.4593
 20
1.8852
 30
0.0
 10
-9.5464
 20
1.886
 30
0.0
 10
-9.5464
 20
1.886
 30
0.0
 10
-9.7477
 20
1.888
 30
0.0
 10
-9.9144
 20
1.8214
 30
0.0
 10
-10.0474
 20
1.6863
 30
0.0
 10
-10.0474
 20
1.6863
 30
0.0
 10
-10.1801
 20
1.5511
 30
0.0
 10
-10.2479
 20
1.3482
 30
0.0
 10
-10.2506
 20
1.0768
 30
0.0
 10
-10.2506
 20
1.0768
 30
0.0
 10
-10.2516
 20
0.9705
 30
0.0
 10
-10.2422
 20
0.8758
 30
0.0
 10
-10.2228
 20
0.7928
 30
0.0
 10
-10.2228
 20
0.7928
 30
0.0
 10
-10.2088
 20
0.7311
 30
0.0
 10
-10.179
 20
0.6551
 30
0.0
 10
-10.1328
 20
0.5648
 30
0.0
 10
-10.1328
 20
0.5648
 30
0.0
 10
-10.1328
 20
0.5648
 30
0.0
 10
-9.0933
 20
1.7051
 30
0.0
 10
-9.0933
 20
1.7051
 30
0.0
  0
SPLINE
  5
8D
330
1F
100
AcDbEntity
  8
DEFAULT_1
 62
   250
100
AcDbSpline
210
0.0
220
0.0
230
1.0
 70
    11
 71
     3
 72
    28
 73
    24
 74
     0
 42
0.0000000001
 43
0.0000000001
 40
0.0
 40
0.0
 40
0.0
 40
0.0
 40
0.1428571428571428
 40
0.1428571428571428
 40
0.1428571428571428
 40
0.1428571428571428
 40
0.2857142857142857
 40
0.2857142857142857
 40
0.2857142857142857
 40
0.2857142857142857
 40
0.4285714285714285
 40
0.4285714285714285
 40
0.4285714285714285
 40
0.4285714285714285
 40
0.5714285714285714
 40
0.5714285714285714
 40
0.5714285714285714
 40
0.5714285714285714
 40
0.7142857142857143
 40
0.7142857142857143
 40
0.7142857142857143
 40
0.7142857142857143
 40
1.0
 40
1.0
 40
1.0
 40
1.0
 10
-8.9818
 20
1.5619
 30
0.0
 10
-8.9818
 20
1.5619
 30
0.0
 10
-10.0171
 20
0.4258
 30
0.0
 10
-10.0171
 20
0.4258
 30
0.0
 10
-10.0171
 20
0.4258
 30
0.0
 10
-9.9471
 20
0.3673
 30
0.0
 10
-9.8821
 20
0.3261
 30
0.0
 10
-9.8226
 20
0.3026
 30
0.0
 10
-9.8226
 20
0.3026
 30
0.0
 10
-9.7449
 20
0.2712
 30
0.0
 10
-9.6603
 20
0.2554
 30
0.0
 10
-9.5695
 20
0.2545
 30
0.0
 10
-9.5695
 20
0.2545
 30
0.0
 10
-9.3691
 20
0.2525
 30
0.0
 10
-9.2034
 20
0.3214
 30
0.0
 10
-9.0713
 20
0.4617
 30
0.0
 10
-9.0713
 20
0.4617
 30
0.0
 10
-8.9396
 20
0.602
 30
0.0
 10
-8.8722
 20
0.7998
 30
0.0
 10
-8.8697
 20
1.0552
 30
0.0
 10
-8.8697
 20
1.0552
 30
0.0
 10
-8.8678
 20
1.2461
 30
0.0
 10
-8.9052
 20
1.4154
 30
0.0
 10
-8.9818
 20
1.5619
 30
0.0
  0
SPLINE
  5
8E
330
1F
100
AcDbEntity
  8
DEFAULT_1
 62
   250
100
AcDbSpline
210
0.0
220
0.0
230
1.0
 70
    11
 71
     3
 72
    48
 73
    44
 74
     0
 42
0.0000000001
 43
0.0000000001
 40
0.0
 40
0.0
 40
0.0
 40
0.0
 40
0.0833333333333333
 40
0.0833333333333333
 40
0.0833333333333333
 40
0.0833333333333333
 40
0.1666666666666667
 40
0.1666666666666667
 40
0.1666666666666667
 40
0.1666666666666667
 40
0.25
 40
0.25
 40
0.25
 40
0.25
 40
0.3333333333333333
 40
0.3333333333333333
 40
0.3333333333333333
 40
0.3333333333333333
 40
0.4166666666666667
 40
0.4166666666666667
 40
0.4166666666666667
 40
0.4166666666666667
 40
0.5
 40
0.5
 40
0.5
 40
0.5
 40
0.5833333333333334
 40
0.5833333333333334
 40
0.5833333333333334
 40
0.5833333333333334
 40
0.6666666666666666
 40
0.6666666666666666
 40
0.6666666666666666
 40
0.6666666666666666
 40
0.75
 40
0.75
 40
0.75
 40
0.75
 40
0.8333333333333334
 40
0.8333333333333334
 40
0.8333333333333334
 40
0.8333333333333334
 40
1.0
 40
1.0
 40
1.0
 40
1.0
 10
-7.5598
 20
0.0403
 30
0.0
 10
-7.5598
 20
0.0403
 30
0.0
 10
-7.5551
 20
0.5238
 30
0.0
 10
-7.5551
 20
0.5238
 30
0.0
 10
-7.5551
 20
0.5238
 30
0.0
 10
-7.5551
 20
0.5238
 30
0.0
 10
-8.4313
 20
0.5325
 30
0.0
 10
-8.4313
 20
0.5325
 30
0.0
 10
-8.4313
 20
0.5325
 30
0.0
 10
-8.4313
 20
0.5325
 30
0.0
 10
-8.4291
 20
0.7601
 30
0.0
 10
-8.4291
 20
0.7601
 30
0.0
 10
-8.4291
 20
0.7601
 30
0.0
 10
-8.4291
 20
0.7601
 30
0.0
 10
-7.4942
 20
2.06
 30
0.0
 10
-7.4942
 20
2.06
 30
0.0
 10
-7.4942
 20
2.06
 30
0.0
 10
-7.4942
 20
2.06
 30
0.0
 10
-7.2915
 20
2.058
 30
0.0
 10
-7.2915
 20
2.058
 30
0.0
 10
-7.2915
 20
2.058
 30
0.0
 10
-7.2915
 20
2.058
 30
0.0
 10
-7.3044
 20
0.7491
 30
0.0
 10
-7.3044
 20
0.7491
 30
0.0
 10
-7.3044
 20
0.7491
 30
0.0
 10
-7.3044
 20
0.7491
 30
0.0
 10
-7.0317
 20
0.7464
 30
0.0
 10
-7.0317
 20
0.7464
 30
0.0
 10
-7.0317
 20
0.7464
 30
0.0
 10
-7.0317
 20
0.7464
 30
0.0
 10
-7.0339
 20
0.5187
 30
0.0
 10
-7.0339
 20
0.5187
 30
0.0
 10
-7.0339
 20
0.5187
 30
0.0
 10
-7.0339
 20
0.5187
 30
0.0
 10
-7.3067
 20
0.5214
 30
0.0
 10
-7.3067
 20
0.5214
 30
0.0
 10
-7.3067
 20
0.5214
 30
0.0
 10
-7.3067
 20
0.5214
 30
0.0
 10
-7.3115
 20
0.0379
 30
0.0
 10
-7.3115
 20
0.0379
 30
0.0
 10
-7.3115
 20
0.0379
 30
0.0
 10
-7.3115
 20
0.0379
 30
0.0
 10
-7.5598
 20
0.0403
 30
0.0
 10
-7.5598
 20
0.0403
 30
0.0
  0
SPLINE
  5
8F
330
1F
100
AcDbEntity
  8
DEFAULT_1
 62
   250
100
AcDbSpline
210
0.0
220
0.0
230
1.0
 70
    11
 71
     3
 72
    16
 73
    12
 74
     0
 42
0.0000000001
 43
0.0000000001
 40
0.0
 40
0.0
 40
0.0
 40
0.0
 40
0.25
 40
0.25
 40
0.25
 40
0.25
 40
0.5
 40
0.5
 40
0.5
 40
0.5
 40
1.0
 40
1.0
 40
1.0
 40
1.0
 10
-7.5528
 20
0.7515
 30
0.0
 10
-7.5528
 20
0.7515
 30
0.0
 10
-7.5439
 20
1.6621
 30
0.0
 10
-7.5439
 20
1.6621
 30
0.0
 10
-7.5439
 20
1.6621
 30
0.0
 10
-7.5439
 20
1.6621
 30
0.0
 10
-8.1849
 20
0.7577
 30
0.0
 10
-8.1849
 20
0.7577
 30
0.0
 10
-8.1849
 20
0.7577
 30
0.0
 10
-8.1849
 20
0.7577
 30
0.0
 10
-7.5528
 20
0.7515
 30
0.0
 10
-7.5528
 20
0.7515
 30
0.0
  0
SPLINE
  5
90
330
1F
100
AcDbEntity
  8
DEFAULT_1
 62
   250
100
AcDbSpline
210
0.0
220
0.0
230
1.0
 70
    11
 71
     3
 72
    52
 73
    48
 74
     0
 42
0.0000000001
 43
0.0000000001
 40
0.0
 40
0.0
 40
0.0
 40
0.0
 40
0.0769230769230769
 40
0.0769230769230769
 40
0.0769230769230769
 40
0.0769230769230769
 40
0.1538461538461539
 40
0.1538461538461539
 40
0.1538461538461539
 40
0.1538461538461539
 40
0.2307692307692308
 40
0.2307692307692308
 40
0.2307692307692308
 40
0.2307692307692308
 40
0.3076923076923077
 40
0.3076923076923077
 40
0.3076923076923077
 40
0.3076923076923077
 40
0.3846153846153846
 40
0.3846153846153846
 40
0.3846153846153846
 40
0.3846153846153846
 40
0.4615384615384616
 40
0.4615384615384616
 40
0.4615384615384616
 40
0.4615384615384616
 40
0.5384615384615384
 40
0.5384615384615384
 40
0.5384615384615384
 40
0.5384615384615384
 40
0.6153846153846154
 40
0.6153846153846154
 40
0.6153846153846154
 40
0.6153846153846154
 40
0.6923076923076923
 40
0.6923076923076923
 40
0.6923076923076923
 40
0.6923076923076923
 40
0.7692307692307693
 40
0.7692307692307693
 40
0.7692307692307693
 40
0.7692307692307693
 40
0.8461538461538461
 40
0.8461538461538461
 40
0.8461538461538461
 40
0.8461538461538461
 40
1.0
 40
1.0
 40
1.0
 40
1.0
 10
-6.7754
 20
1.0288
 30
0.0
 10
-6.773
 20
1.2678
 30
0.0
 10
-6.7466
 20
1.46
 30
0.0
 10
-6.6958
 20
1.6048
 30
0.0
 10
-6.6958
 20
1.6048
 30
0.0
 10
-6.6454
 20
1.7501
 30
0.0
 10
-6.5709
 20
1.8618
 30
0.0
 10
-6.4733
 20
1.9399
 30
0.0
 10
-6.4733
 20
1.9399
 30
0.0
 10
-6.3756
 20
2.018
 30
0.0
 10
-6.2534
 20
2.0563
 30
0.0
 10
-6.1067
 20
2.0548
 30
0.0
 10
-6.1067
 20
2.0548
 30
0.0
 10
-5.998
 20
2.0537
 30
0.0
 10
-5.9032
 20
2.0307
 30
0.0
 10
-5.8219
 20
1.9861
 30
0.0
 10
-5.8219
 20
1.9861
 30
0.0
 10
-5.7404
 20
1.9421
 30
0.0
 10
-5.6737
 20
1.8783
 30
0.0
 10
-5.6209
 20
1.7955
 30
0.0
 10
-5.6209
 20
1.7955
 30
0.0
 10
-5.5687
 20
1.7127
 30
0.0
 10
-5.5277
 20
1.6121
 30
0.0
 10
-5.4988
 20
1.4938
 30
0.0
 10
-5.4988
 20
1.4938
 30
0.0
 10
-5.4694
 20
1.3754
 30
0.0
 10
-5.4559
 20
1.2162
 30
0.0
 10
-5.4579
 20
1.0159
 30
0.0
 10
-5.4579
 20
1.0159
 30
0.0
 10
-5.4603
 20
0.7789
 30
0.0
 10
-5.4865
 20
0.5881
 30
0.0
 10
-5.5365
 20
0.4428
 30
0.0
 10
-5.5365
 20
0.4428
 30
0.0
 10
-5.5868
 20
0.2975
 30
0.0
 10
-5.6608
 20
0.1858
 30
0.0
 10
-5.7585
 20
0.1073
 30
0.0
 10
-5.7585
 20
0.1073
 30
0.0
 10
-5.8562
 20
0.0287
 30
0.0
 10
-5.9789
 20
-0.0096
 30
0.0
 10
-6.1271
 20
-0.0081
 30
0.0
 10
-6.1271
 20
-0.0081
 30
0.0
 10
-6.3217
 20
-0.0062
 30
0.0
 10
-6.474
 20
0.0649
 30
0.0
 10
-6.5836
 20
0.2057
 30
0.0
 10
-6.5836
 20
0.2057
 30
0.0
 10
-6.715
 20
0.3749
 30
0.0
 10
-6.7791
 20
0.6498
 30
0.0
 10
-6.7754
 20
1.0288
 30
0.0
  0
SPLINE
  5
91
330
1F
100
AcDbEntity
  8
DEFAULT_1
 62
   250
100
AcDbSpline
210
0.0
220
0.0
230
1.0
 70
    11
 71
     3
 72
    36
 73
    32
 74
     0
 42
0.0000000001
 43
0.0000000001
 40
0.0
 40
0.0
 40
0.0
 40
0.0
 40
0.1111111111111111
 40
0.1111111111111111
 40
0.1111111111111111
 40
0.1111111111111111
 40
0.2222222222222222
 40
0.2222222222222222
 40
0.2222222222222222
 40
0.2222222222222222
 40
0.3333333333333333
 40
0.3333333333333333
 40
0.3333333333333333
 40
0.3333333333333333
 40
0.4444444444444444
 40
0.4444444444444444
 40
0.4444444444444444
 40
0.4444444444444444
 40
0.5555555555555556
 40
0.5555555555555556
 40
0.5555555555555556
 40
0.5555555555555556
 40
0.6666666666666666
 40
0.6666666666666666
 40
0.6666666666666666
 40
0.6666666666666666
 40
0.7777777777777778
 40
0.7777777777777778
 40
0.7777777777777778
 40
0.7777777777777778
 40
1.0
 40
1.0
 40
1.0
 40
1.0
 10
-6.5204
 20
1.0263
 30
0.0
 10
-6.5236
 20
0.6947
 30
0.0
 10
-6.4868
 20
0.4738
 30
0.0
 10
-6.4103
 20
0.363
 30
0.0
 10
-6.4103
 20
0.363
 30
0.0
 10
-6.3338
 20
0.2527
 30
0.0
 10
-6.2388
 20
0.1966
 30
0.0
 10
-6.125
 20
0.1955
 30
0.0
 10
-6.125
 20
0.1955
 30
0.0
 10
-6.0108
 20
0.1944
 30
0.0
 10
-5.9147
 20
0.2489
 30
0.0
 10
-5.836
 20
0.3583
 30
0.0
 10
-5.836
 20
0.3583
 30
0.0
 10
-5.7573
 20
0.4676
 30
0.0
 10
-5.7161
 20
0.6878
 30
0.0
 10
-5.7128
 20
1.0184
 30
0.0
 10
-5.7128
 20
1.0184
 30
0.0
 10
-5.7095
 20
1.351
 30
0.0
 10
-5.7465
 20
1.5724
 30
0.0
 10
-5.823
 20
1.6823
 30
0.0
 10
-5.823
 20
1.6823
 30
0.0
 10
-5.8995
 20
1.7926
 30
0.0
 10
-5.9953
 20
1.8481
 30
0.0
 10
-6.111
 20
1.8492
 30
0.0
 10
-6.111
 20
1.8492
 30
0.0
 10
-6.2253
 20
1.8504
 30
0.0
 10
-6.3166
 20
1.8029
 30
0.0
 10
-6.3858
 20
1.7071
 30
0.0
 10
-6.3858
 20
1.7071
 30
0.0
 10
-6.4721
 20
1.5852
 30
0.0
 10
-6.5171
 20
1.3579
 30
0.0
 10
-6.5204
 20
1.0263
 30
0.0
  0
SPLINE
  5
92
330
1F
100
AcDbEntity
  8
DEFAULT_1
 62
   250
100
AcDbSpline
210
0.0
220
0.0
230
1.0
 70
    24
 71
     3
 72
     8
 73
     4
 74
     0
 42
0.0000000001
 43
0.0000000001
 40
0.0
 40
0.0
 40
0.0
 40
0.0
 40
1.0
 40
1.0
 40
1.0
 40
1.0
 10
-13.5803
 20
-12.1489
 30
0.0
 10
-13.5803
 20
-12.1489
 30
0.0
 10
-14.0413
 20
-9.0254
 30
0.0
 10
-14.0413
 20
-9.0254
 30
0.0
  0
SPLINE
  5
93
330
1F
100
AcDbEntity
  8
DEFAULT_1
 62
   250
100
AcDbSpline
210
0.0
220
0.0
230
1.0
 70
     8
 71
     3
 72
    12
 73
     8
 74
     0
 42
0.0000000001
 43
0.0000000001
 40
0.0
 40
0.0
 40
0.0
 40
0.0
 40
0.3333333333333333
 40
0.3333333333333333
 40
0.3333333333333333
 40
0.3333333333333333
 40
1.0
 40
1.0
 40
1.0
 40
1.0
 10
-14.0413
 20
-9.0254
 30
0.0
 10
-14.0413
 20
-9.0254
 30
0.0
 10
-13.1193
 20
-9.0254
 30
0.0
 10
-13.1193
 20
-9.0254
 30
0.0
 10
-13.1193
 20
-9.0254
 30
0.0
 10
-13.1193
 20
-9.0254
 30
0.0
 10
-13.5803
 20
-12.1489
 30
0.0
 10
-13.5803
 20
-12.1489
 30
0.0
  0
SPLINE
  5
94
330
1F
100
AcDbEntity
  8
DEFAULT_1
 62
   250
100
AcDbSpline
210
0.0
220
0.0
230
1.0
 70
    11
 71
     3
 72
    20
 73
    16
 74
     0
 42
0.0000000001
 43
0.0000000001
 40
0.0
 40
0.0
 40
0.0
 40
0.0
 40
0.2
 40
0.2
 40
0.2
 40
0.2
 40
0.4
 40
0.4
 40
0.4
 40
0.4
 40
0.6
 40
0.6
 40
0.6
 40
0.6
 40
1.0
 40
1.0
 40
1.0
 40
1.0
 10
-13.9885
 20
12.4777
 30
0.0
 10
-13.9885
 20
12.4777
 30
0.0
 10
-13.6356
 20
14.9777
 30
0.0
 10
-13.6356
 20
14.9777
 30
0.0
 10
-13.6356
 20
14.9777
 30
0.0
 10
-13.6356
 20
14.9777
 30
0.0
 10
-13.5573
 20
14.9777
 30
0.0
 10
-13.5573
 20
14.9777
 30
0.0
 10
-13.5573
 20
14.9777
 30
0.0
 10
-13.5573
 20
14.9777
 30
0.0
 10
-13.181
 20
12.4777
 30
0.0
 10
-13.181
 20
12.4777
 30
0.0
 10
-13.181
 20
12.4777
 30
0.0
 10
-13.181
 20
12.4777
 30
0.0
 10
-13.9885
 20
12.4777
 30
0.0
 10
-13.9885
 20
12.4777
 30
0.0
  0
SPLINE
  5
95
330
1F
100
AcDbEntity
  8
DEFAULT_1
 62
   250
100
AcDbSpline
210
0.0
220
0.0
230
1.0
 70
    24
 71
     3
 72
     8
 73
     4
 74
     0
 42
0.0000000001
 43
0.0000000001
 40
0.0
 40
0.0
 40
0.0
 40
0.0
 40
1.0
 40
1.0
 40
1.0
 40
1.0
 10
16.1422
 20
-8.5962
 30
0.0
 10
16.1422
 20
-8.5962
 30
0.0
 10
15.6812
 20
-5.4727
 30
0.0
 10
15.6812
 20
-5.4727
 30
0.0
  0
SPLINE
  5
96
330
1F
100
AcDbEntity
  8
DEFAULT_1
 62
   250
100
AcDbSpline
210
0.0
220
0.0
230
1.0
 70
     8
 71
     3
 72
    12
 73
     8
 74
     0
 42
0.0000000001
 43
0.0000000001
 40
0.0
 40
0.0
 40
0.0
 40
0.0
 40
0.3333333333333333
 40
0.3333333333333333
 40
0.3333333333333333
 40
0.3333333333333333
 40
1.0
 40
1.0
 40
1.0
 40
1.0
 10
15.6812
 20
-5.4727
 30
0.0
 10
15.6812
 20
-5.4727
 30
0.0
 10
16.6032
 20
-5.4727
 30
0.0
 10
16.6032
 20
-5.4727
 30
0.0
 10
16.6032
 20
-5.4727
 30
0.0
 10
16.6032
 20
-5.4727
 30
0.0
 10
16.1422
 20
-8.5962
 30
0.0
 10
16.1422
 20
-8.5962
 30
0.0
  0
SPLINE
  5
97
330
1F
100
AcDbEntity
  8
DEFAULT_1
 62
   250
100
AcDbSpline
210
0.0
220
0.0
230
1.0
 70
    11
 71
     3
 72
    20
 73
    16
 74
     0
 42
0.0000000001
 43
0.0000000001
 40
0.0
 40
0.0
 40
0.0
 40
0.0
 40
0.2
 40
0.2
 40
0.2
 40
0.2
 40
0.4
 40
0.4
 40
0.4
 40
0.4
 40
0.6
 40
0.6
 40
0.6
 40
0.6
 40
1.0
 40
1.0
 40
1.0
 40
1.0
 10
11.7365
 20
-17.8966
 30
0.0
 10
11.7365
 20
-17.8966
 30
0.0
 10
12.0894
 20
-15.3966
 30
0.0
 10
12.0894
 20
-15.3966
 30
0.0
 10
12.0894
 20
-15.3966
 30
0.0
 10
12.0894
 20
-15.3966
 30
0.0
 10
12.1677
 20
-15.3966
 30
0.0
 10
12.1677
 20
-15.3966
 30
0.0
 10
12.1677
 20
-15.3966
 30
0.0
 10
12.1677
 20
-15.3966
 30
0.0
 10
12.544
 20
-17.8966
 30
0.0
 10
12.544
 20
-17.8966
 30
0.0
 10
12.544
 20
-17.8966
 30
0.0
 10
12.544
 20
-17.8966
 30
0.0
 10
11.7365
 20
-17.8966
 30
0.0
 10
11.7365
 20
-17.8966
 30
0.0
  0
SPLINE
  5
98
330
1F
100
AcDbEntity
  8
DEFAULT_1
 62
   250
100
AcDbSpline
210
0.0
220
0.0
230
1.0
 70
    11
 71
     3
 72
    20
 73
    16
 74
     0
 42
0.0000000001
 43
0.0000000001
 40
0.0
 40
0.0
 40
0.0
 40
0.0
 40
0.2
 40
0.2
 40
0.2
 40
0.2
 40
0.4
 40
0.4
 40
0.4
 40
0.4
 40
0.6
 40
0.6
 40
0.6
 40
0.6
 40
1.0
 40
1.0
 40
1.0
 40
1.0
 10
15.7553
 20
-18.6718
 30
0.0
 10
15.7553
 20
-18.6718
 30
0.0
 10
16.1082
 20
-16.1718
 30
0.0
 10
16.1082
 20
-16.1718
 30
0.0
 10
16.1082
 20
-16.1718
 30
0.0
 10
16.1082
 20
-16.1718
 30
0.0
 10
16.1865
 20
-16.1718
 30
0.0
 10
16.1865
 20
-16.1718
 30
0.0
 10
16.1865
 20
-16.1718
 30
0.0
 10
16.1865
 20
-16.1718
 30
0.0
 10
16.5628
 20
-18.6718
 30
0.0
 10
16.5628
 20
-18.6718
 30
0.0
 10
16.5628
 20
-18.6718
 30
0.0
 10
16.5628
 20
-18.6718
 30
0.0
 10
15.7553
 20
-18.6718
 30
0.0
 10
15.7553
 20
-18.6718
 30
0.0
  0
SPLINE
  5
99
330
1F
100
AcDbEntity
  8
DEFAULT_1
 62
   250
100
AcDbSpline
210
0.0
220
0.0
230
1.0
 70
    24
 71
     3
 72
     8
 73
     4
 74
     0
 42
0.0000000001
 43
0.0000000001
 40
0.0
 40
0.0
 40
0.0
 40
0.0
 40
1.0
 40
1.0
 40
1.0
 40
1.0
 10
12.1422
 20
-9.3322
 30
0.0
 10
12.1422
 20
-9.3322
 30
0.0
 10
11.6812
 20
-6.2087
 30
0.0
 10
11.6812
 20
-6.2087
 30
0.0
  0
SPLINE
  5
9A
330
1F
100
AcDbEntity
  8
DEFAULT_1
 62
   250
100
AcDbSpline
210
0.0
220
0.0
230
1.0
 70
     8
 71
     3
 72
    12
 73
     8
 74
     0
 42
0.0000000001
 43
0.0000000001
 40
0.0
 40
0.0
 40
0.0
 40
0.0
 40
0.3333333333333333
 40
0.3333333333333333
 40
0.3333333333333333
 40
0.3333333333333333
 40
1.0
 40
1.0
 40
1.0
 40
1.0
 10
11.6812
 20
-6.2087
 30
0.0
 10
11.6812
 20
-6.2087
 30
0.0
 10
12.6032
 20
-6.2087
 30
0.0
 10
12.6032
 20
-6.2087
 30
0.0
 10
12.6032
 20
-6.2087
 30
0.0
 10
12.6032
 20
-6.2087
 30
0.0
 10
12.1422
 20
-9.3322
 30
0.0
 10
12.1422
 20
-9.3322
 30
0.0
  0
SPLINE
  5
9B
330
1F
100
AcDbEntity
  8
DEFAULT_1
 62
   250
100
AcDbSpline
210
0.0
220
0.0
230
1.0
 70
    11
 71
     3
 72
   164
 73
   160
 74
     0
 42
0.0000000001
 43
0.0000000001
 40
0.0
 40
0.0
 40
0.0
 40
0.0
 40
0.024390243902439
 40
0.024390243902439
 40
0.024390243902439
 40
0.024390243902439
 40
0.0487804878048781
 40
0.0487804878048781
 40
0.0487804878048781
 40
0.0487804878048781
 40
0.0731707317073171
 40
0.0731707317073171
 40
0.0731707317073171
 40
0.0731707317073171
 40
0.0975609756097561
 40
0.0975609756097561
 40
0.0975609756097561
 40
0.0975609756097561
 40
0.1219512195121951
 40
0.1219512195121951
 40
0.1219512195121951
 40
0.1219512195121951
 40
0.1463414634146341
 40
0.1463414634146341
 40
0.1463414634146341
 40
0.1463414634146341
 40
0.1707317073170732
 40
0.1707317073170732
 40
0.1707317073170732
 40
0.1707317073170732
 40
0.1951219512195122
 40
0.1951219512195122
 40
0.1951219512195122
 40
0.1951219512195122
 40
0.2195121951219512
 40
0.2195121951219512
 40
0.2195121951219512
 40
0.2195121951219512
 40
0.2439024390243902
 40
0.2439024390243902
 40
0.2439024390243902
 40
0.2439024390243902
 40
0.2682926829268293
 40
0.2682926829268293
 40
0.2682926829268293
 40
0.2682926829268293
 40
0.2926829268292683
 40
0.2926829268292683
 40
0.2926829268292683
 40
0.2926829268292683
 40
0.3170731707317073
 40
0.3170731707317073
 40
0.3170731707317073
 40
0.3170731707317073
 40
0.3414634146341464
 40
0.3414634146341464
 40
0.3414634146341464
 40
0.3414634146341464
 40
0.3658536585365854
 40
0.3658536585365854
 40
0.3658536585365854
 40
0.3658536585365854
 40
0.3902439024390244
 40
0.3902439024390244
 40
0.3902439024390244
 40
0.3902439024390244
 40
0.4146341463414634
 40
0.4146341463414634
 40
0.4146341463414634
 40
0.4146341463414634
 40
0.4390243902439024
 40
0.4390243902439024
 40
0.4390243902439024
 40
0.4390243902439024
 40
0.4634146341463415
 40
0.4634146341463415
 40
0.4634146341463415
 40
0.4634146341463415
 40
0.4878048780487805
 40
0.4878048780487805
 40
0.4878048780487805
 40
0.4878048780487805
 40
0.5121951219512195
 40
0.5121951219512195
 40
0.5121951219512195
 40
0.5121951219512195
 40
0.5365853658536586
 40
0.5365853658536586
 40
0.5365853658536586
 40
0.5365853658536586
 40
0.5609756097560976
 40
0.5609756097560976
 40
0.5609756097560976
 40
0.5609756097560976
 40
0.5853658536585366
 40
0.5853658536585366
 40
0.5853658536585366
 40
0.5853658536585366
 40
0.6097560975609756
 40
0.6097560975609756
 40
0.6097560975609756
 40
0.6097560975609756
 40
0.6341463414634146
 40
0.6341463414634146
 40
0.6341463414634146
 40
0.6341463414634146
 40
0.6585365853658537
 40
0.6585365853658537
 40
0.6585365853658537
 40
0.6585365853658537
 40
0.6829268292682927
 40
0.6829268292682927
 40
0.6829268292682927
 40
0.6829268292682927
 40
0.7073170731707317
 40
0.7073170731707317
 40
0.7073170731707317
 40
0.7073170731707317
 40
0.7317073170731707
 40
0.7317073170731707
 40
0.7317073170731707
 40
0.7317073170731707
 40
0.7560975609756098
 40
0.7560975609756098
 40
0.7560975609756098
 40
0.7560975609756098
 40
0.7804878048780488
 40
0.7804878048780488
 40
0.7804878048780488
 40
0.7804878048780488
 40
0.8048780487804879
 40
0.8048780487804879
 40
0.8048780487804879
 40
0.8048780487804879
 40
0.8292682926829268
 40
0.8292682926829268
 40
0.8292682926829268
 40
0.8292682926829268
 40
0.8536585365853658
 40
0.8536585365853658
 40
0.8536585365853658
 40
0.8536585365853658
 40
0.8780487804878049
 40
0.8780487804878049
 40
0.8780487804878049
 40
0.8780487804878049
 40
0.9024390243902439
 40
0.9024390243902439
 40
0.9024390243902439
 40
0.9024390243902439
 40
0.926829268292683
 40
0.926829268292683
 40
0.926829268292683
 40
0.926829268292683
 40
0.9512195121951219
 40
0.9512195121951219
 40
0.9512195121951219
 40
0.9512195121951219
 40
1.0
 40
1.0
 40
1.0
 40
1.0
 10
-0.4971
 20
10.5558
 30
0.0
 10
-0.4971
 20
10.5558
 30
0.0
 10
1.9966
 20
10.5558
 30
0.0
 10
1.9966
 20
10.5558
 30
0.0
 10
1.9966
 20
10.5558
 30
0.0
 10
1.9966
 20
10.5558
 30
0.0
 10
1.9841
 20
9.4513
 30
0.0
 10
1.9841
 20
9.4513
 30
0.0
 10
1.9841
 20
9.4513
 30
0.0
 10
1.9841
 20
9.4513
 30
0.0
 10
2.0544
 20
9.287
 30
0.0
 10
2.0544
 20
9.287
 30
0.0
 10
2.0544
 20
9.287
 30
0.0
 10
2.0544
 20
9.287
 30
0.0
 10
2.1863
 20
9.166
 30
0.0
 10
2.1863
 20
9.166
 30
0.0
 10
2.1863
 20
9.166
 30
0.0
 10
2.1863
 20
9.166
 30
0.0
 10
2.2829
 20
9.1833
 30
0.0
 10
2.2829
 20
9.1833
 30
0.0
 10
2.2829
 20
9.1833
 30
0.0
 10
2.2829
 20
9.1833
 30
0.0
 10
2.3621
 20
9.2524
 30
0.0
 10
2.3621
 20
9.2524
 30
0.0
 10
2.3621
 20
9.2524
 30
0.0
 10
2.3621
 20
9.2524
 30
0.0
 10
2.4061
 20
9.3648
 30
0.0
 10
2.4061
 20
9.3648
 30
0.0
 10
2.4061
 20
9.3648
 30
0.0
 10
2.4061
 20
9.3648
 30
0.0
 10
2.45
 20
9.5205
 30
0.0
 10
2.45
 20
9.5205
 30
0.0
 10
2.45
 20
9.5205
 30
0.0
 10
2.45
 20
9.5205
 30
0.0
 10
2.45
 20
10.5491
 30
0.0
 10
2.45
 20
10.5491
 30
0.0
 10
2.45
 20
10.5491
 30
0.0
 10
2.45
 20
10.5491
 30
0.0
 10
3.4256
 20
10.5578
 30
0.0
 10
3.4256
 20
10.5578
 30
0.0
 10
3.4256
 20
10.5578
 30
0.0
 10
3.4256
 20
10.5578
 30
0.0
 10
3.4081
 20
8.6732
 30
0.0
 10
3.4081
 20
8.6732
 30
0.0
 10
3.4081
 20
8.6732
 30
0.0
 10
3.4081
 20
8.6732
 30
0.0
 10
3.3641
 20
8.5609
 30
0.0
 10
3.3641
 20
8.5609
 30
0.0
 10
3.3641
 20
8.5609
 30
0.0
 10
3.3641
 20
8.5609
 30
0.0
 10
3.2674
 20
8.4744
 30
0.0
 10
3.2674
 20
8.4744
 30
0.0
 10
3.2674
 20
8.4744
 30
0.0
 10
3.2674
 20
8.4744
 30
0.0
 10
3.1884
 20
8.4312
 30
0.0
 10
3.1884
 20
8.4312
 30
0.0
 10
3.1884
 20
8.4312
 30
0.0
 10
3.1884
 20
8.4312
 30
0.0
 10
3.074
 20
8.3965
 30
0.0
 10
3.074
 20
8.3965
 30
0.0
 10
3.074
 20
8.3965
 30
0.0
 10
3.074
 20
8.3965
 30
0.0
 10
-4.7201
 20
8.3903
 30
0.0
 10
-4.7201
 20
8.3903
 30
0.0
 10
-4.7201
 20
8.3903
 30
0.0
 10
-4.7201
 20
8.3903
 30
0.0
 10
-4.8804
 20
8.4503
 30
0.0
 10
-4.8804
 20
8.4503
 30
0.0
 10
-4.8804
 20
8.4503
 30
0.0
 10
-4.8804
 20
8.4503
 30
0.0
 10
-4.9889
 20
8.5416
 30
0.0
 10
-4.9889
 20
8.5416
 30
0.0
 10
-4.9889
 20
8.5416
 30
0.0
 10
-4.9889
 20
8.5416
 30
0.0
 10
-5.0198
 20
8.7016
 30
0.0
 10
-5.0198
 20
8.7016
 30
0.0
 10
-5.0198
 20
8.7016
 30
0.0
 10
-5.0198
 20
8.7016
 30
0.0
 10
-5.0198
 20
10.5757
 30
0.0
 10
-5.0198
 20
10.5757
 30
0.0
 10
-5.0198
 20
10.5757
 30
0.0
 10
-5.0198
 20
10.5757
 30
0.0
 10
-4.0284
 20
10.5681
 30
0.0
 10
-4.0284
 20
10.5681
 30
0.0
 10
-4.0284
 20
10.5681
 30
0.0
 10
-4.0284
 20
10.5681
 30
0.0
 10
-4.0516
 20
9.4787
 30
0.0
 10
-4.0516
 20
9.4787
 30
0.0
 10
-4.0516
 20
9.4787
 30
0.0
 10
-4.0516
 20
9.4787
 30
0.0
 10
-3.9974
 20
9.2729
 30
0.0
 10
-3.9974
 20
9.2729
 30
0.0
 10
-3.9974
 20
9.2729
 30
0.0
 10
-3.9974
 20
9.2729
 30
0.0
 10
-3.9354
 20
9.1816
 30
0.0
 10
-3.9354
 20
9.1816
 30
0.0
 10
-3.9354
 20
9.1816
 30
0.0
 10
-3.9354
 20
9.1816
 30
0.0
 10
-3.8657
 20
9.1816
 30
0.0
 10
-3.8657
 20
9.1816
 30
0.0
 10
-3.8657
 20
9.1816
 30
0.0
 10
-3.8657
 20
9.1816
 30
0.0
 10
-3.7883
 20
9.1816
 30
0.0
 10
-3.7883
 20
9.1816
 30
0.0
 10
-3.7883
 20
9.1816
 30
0.0
 10
-3.7883
 20
9.1816
 30
0.0
 10
-3.6798
 20
9.2653
 30
0.0
 10
-3.6798
 20
9.2653
 30
0.0
 10
-3.6798
 20
9.2653
 30
0.0
 10
-3.6798
 20
9.2653
 30
0.0
 10
-3.6101
 20
9.3949
 30
0.0
 10
-3.6101
 20
9.3949
 30
0.0
 10
-3.6101
 20
9.3949
 30
0.0
 10
-3.6101
 20
9.3949
 30
0.0
 10
-3.6101
 20
9.4711
 30
0.0
 10
-3.6101
 20
9.4711
 30
0.0
 10
-3.6101
 20
9.4711
 30
0.0
 10
-3.6101
 20
9.4711
 30
0.0
 10
-3.6101
 20
10.5528
 30
0.0
 10
-3.6101
 20
10.5528
 30
0.0
 10
-3.6101
 20
10.5528
 30
0.0
 10
-3.6101
 20
10.5528
 30
0.0
 10
-1.0929
 20
10.5528
 30
0.0
 10
-1.0929
 20
10.5528
 30
0.0
 10
-1.0929
 20
10.5528
 30
0.0
 10
-1.0929
 20
10.5528
 30
0.0
 10
-1.0929
 20
9.4939
 30
0.0
 10
-1.0929
 20
9.4939
 30
0.0
 10
-1.0929
 20
9.4939
 30
0.0
 10
-1.0929
 20
9.4939
 30
0.0
 10
-1.0619
 20
9.3491
 30
0.0
 10
-1.0619
 20
9.3491
 30
0.0
 10
-1.0619
 20
9.3491
 30
0.0
 10
-1.0619
 20
9.3491
 30
0.0
 10
-0.9844
 20
9.2426
 30
0.0
 10
-0.9844
 20
9.2426
 30
0.0
 10
-0.9844
 20
9.2426
 30
0.0
 10
-0.9844
 20
9.2426
 30
0.0
 10
-0.8373
 20
9.1968
 30
0.0
 10
-0.8373
 20
9.1968
 30
0.0
 10
-0.8373
 20
9.1968
 30
0.0
 10
-0.8373
 20
9.1968
 30
0.0
 10
-0.69
 20
9.2197
 30
0.0
 10
-0.69
 20
9.2197
 30
0.0
 10
-0.69
 20
9.2197
 30
0.0
 10
-0.69
 20
9.2197
 30
0.0
 10
-0.5817
 20
9.2653
 30
0.0
 10
-0.5817
 20
9.2653
 30
0.0
 10
-0.5817
 20
9.2653
 30
0.0
 10
-0.5817
 20
9.2653
 30
0.0
 10
-0.5197
 20
9.3339
 30
0.0
 10
-0.5197
 20
9.3339
 30
0.0
 10
-0.5197
 20
9.3339
 30
0.0
 10
-0.5197
 20
9.3339
 30
0.0
 10
-0.4887
 20
9.4025
 30
0.0
 10
-0.4887
 20
9.4025
 30
0.0
 10
-0.4887
 20
9.4025
 30
0.0
 10
-0.4887
 20
9.4025
 30
0.0
 10
-0.4971
 20
10.5558
 30
0.0
 10
-0.4971
 20
10.5558
 30
0.0
  0
SPLINE
  5
9C
330
1F
100
AcDbEntity
  8
DEFAULT_1
 62
   250
100
AcDbSpline
210
0.0
220
0.0
230
1.0
 70
    11
 71
     3
 72
    28
 73
    24
 74
     0
 42
0.0000000001
 43
0.0000000001
 40
0.0
 40
0.0
 40
0.0
 40
0.0
 40
0.1428571428571428
 40
0.1428571428571428
 40
0.1428571428571428
 40
0.1428571428571428
 40
0.2857142857142857
 40
0.2857142857142857
 40
0.2857142857142857
 40
0.2857142857142857
 40
0.4285714285714285
 40
0.4285714285714285
 40
0.4285714285714285
 40
0.4285714285714285
 40
0.5714285714285714
 40
0.5714285714285714
 40
0.5714285714285714
 40
0.5714285714285714
 40
0.7142857142857143
 40
0.7142857142857143
 40
0.7142857142857143
 40
0.7142857142857143
 40
1.0
 40
1.0
 40
1.0
 40
1.0
 10
3.4824
 20
9.1715
 30
0.0
 10
3.4824
 20
9.1715
 30
0.0
 10
3.4824
 20
11.0173
 30
0.0
 10
3.4824
 20
11.0173
 30
0.0
 10
3.4824
 20
11.0173
 30
0.0
 10
3.4824
 20
11.0173
 30
0.0
 10
-5.1007
 20
11.0173
 30
0.0
 10
-5.1007
 20
11.0173
 30
0.0
 10
-5.1007
 20
11.0173
 30
0.0
 10
-5.1007
 20
11.0173
 30
0.0
 10
-5.1007
 20
9.1715
 30
0.0
 10
-5.1007
 20
9.1715
 30
0.0
 10
-5.1007
 20
9.1715
 30
0.0
 10
-5.1007
 20
9.1715
 30
0.0
 10
-5.1007
 20
11.0173
 30
0.0
 10
-5.1007
 20
11.0173
 30
0.0
 10
-5.1007
 20
11.0173
 30
0.0
 10
-5.1007
 20
11.0173
 30
0.0
 10
3.4824
 20
11.0173
 30
0.0
 10
3.4824
 20
11.0173
 30
0.0
 10
3.4824
 20
11.0173
 30
0.0
 10
3.4824
 20
11.0173
 30
0.0
 10
3.4824
 20
9.1715
 30
0.0
 10
3.4824
 20
9.1715
 30
0.0
  0
SPLINE
  5
9D
330
1F
100
AcDbEntity
  8
DEFAULT_1
 62
   250
100
AcDbSpline
210
0.0
220
0.0
230
1.0
 70
    24
 71
     3
 72
     8
 73
     4
 74
     0
 42
0.0000000001
 43
0.0000000001
 40
0.0
 40
0.0
 40
0.0
 40
0.0
 40
1.0
 40
1.0
 40
1.0
 40
1.0
 10
-6.4462
 20
-23.9647
 30
0.0
 10
-6.4462
 20
-23.9647
 30
0.0
 10
4.6444
 20
-23.9647
 30
0.0
 10
4.6444
 20
-23.9647
 30
0.0
  0
SPLINE
  5
9E
330
1F
100
AcDbEntity
  8
DEFAULT_1
 62
   250
100
AcDbSpline
210
0.0
220
0.0
230
1.0
 70
    24
 71
     3
 72
     8
 73
     4
 74
     0
 42
0.0000000001
 43
0.0000000001
 40
0.0
 40
0.0
 40
0.0
 40
0.0
 40
1.0
 40
1.0
 40
1.0
 40
1.0
 10
5.0879
 20
-23.0655
 30
0.0
 10
5.0879
 20
-23.0655
 30
0.0
 10
4.8897
 20
-23.0655
 30
0.0
 10
4.8897
 20
-23.0655
 30
0.0
  0
SPLINE
  5
9F
330
1F
100
AcDbEntity
  8
DEFAULT_1
 62
   250
100
AcDbSpline
210
0.0
220
0.0
230
1.0
 70
    24
 71
     3
 72
     8
 73
     4
 74
     0
 42
0.0000000001
 43
0.0000000001
 40
0.0
 40
0.0
 40
0.0
 40
0.0
 40
1.0
 40
1.0
 40
1.0
 40
1.0
 10
-6.9004
 20
-23.0655
 30
0.0
 10
-6.9004
 20
-23.0655
 30
0.0
 10
-6.6915
 20
-23.0655
 30
0.0
 10
-6.6915
 20
-23.0655
 30
0.0
  0
SPLINE
  5
A0
330
1F
100
AcDbEntity
  8
DEFAULT_1
 62
   250
100
AcDbSpline
210
0.0
220
0.0
230
1.0
 70
    24
 71
     3
 72
     8
 73
     4
 74
     0
 42
0.0000000001
 43
0.0000000001
 40
0.0
 40
0.0
 40
0.0
 40
0.0
 40
1.0
 40
1.0
 40
1.0
 40
1.0
 10
5.2448
 20
-21.5668
 30
0.0
 10
5.2448
 20
-21.5668
 30
0.0
 10
3.6509
 20
-21.5668
 30
0.0
 10
3.6509
 20
-21.5668
 30
0.0
  0
SPLINE
  5
A1
330
1F
100
AcDbEntity
  8
DEFAULT_1
 62
   250
100
AcDbSpline
210
0.0
220
0.0
230
1.0
 70
    24
 71
     3
 72
     8
 73
     4
 74
     0
 42
0.0000000001
 43
0.0000000001
 40
0.0
 40
0.0
 40
0.0
 40
0.0
 40
1.0
 40
1.0
 40
1.0
 40
1.0
 10
3.227
 20
-21.5668
 30
0.0
 10
3.227
 20
-21.5668
 30
0.0
 10
0.9771
 20
-21.5668
 30
0.0
 10
0.9771
 20
-21.5668
 30
0.0
  0
SPLINE
  5
A2
330
1F
100
AcDbEntity
  8
DEFAULT_1
 62
   250
100
AcDbSpline
210
0.0
220
0.0
230
1.0
 70
    24
 71
     3
 72
     8
 73
     4
 74
     0
 42
0.0000000001
 43
0.0000000001
 40
0.0
 40
0.0
 40
0.0
 40
0.0
 40
1.0
 40
1.0
 40
1.0
 40
1.0
 10
0.398
 20
-21.5668
 30
0.0
 10
0.398
 20
-21.5668
 30
0.0
 10
-2.1998
 20
-21.5668
 30
0.0
 10
-2.1998
 20
-21.5668
 30
0.0
  0
SPLINE
  5
A3
330
1F
100
AcDbEntity
  8
DEFAULT_1
 62
   250
100
AcDbSpline
210
0.0
220
0.0
230
1.0
 70
    24
 71
     3
 72
     8
 73
     4
 74
     0
 42
0.0000000001
 43
0.0000000001
 40
0.0
 40
0.0
 40
0.0
 40
0.0
 40
1.0
 40
1.0
 40
1.0
 40
1.0
 10
-2.7789
 20
-21.5668
 30
0.0
 10
-2.7789
 20
-21.5668
 30
0.0
 10
-5.0288
 20
-21.5668
 30
0.0
 10
-5.0288
 20
-21.5668
 30
0.0
  0
SPLINE
  5
A4
330
1F
100
AcDbEntity
  8
DEFAULT_1
 62
   250
100
AcDbSpline
210
0.0
220
0.0
230
1.0
 70
    24
 71
     3
 72
     8
 73
     4
 74
     0
 42
0.0000000001
 43
0.0000000001
 40
0.0
 40
0.0
 40
0.0
 40
0.0
 40
1.0
 40
1.0
 40
1.0
 40
1.0
 10
-5.4526
 20
-21.5668
 30
0.0
 10
-5.4526
 20
-21.5668
 30
0.0
 10
-7.0436
 20
-21.5668
 30
0.0
 10
-7.0436
 20
-21.5668
 30
0.0
  0
SPLINE
  5
A5
330
1F
100
AcDbEntity
  8
DEFAULT_1
 62
   250
100
AcDbSpline
210
0.0
220
0.0
230
1.0
 70
    24
 71
     3
 72
     8
 73
     4
 74
     0
 42
0.0000000001
 43
0.0000000001
 40
0.0
 40
0.0
 40
0.0
 40
0.0
 40
1.0
 40
1.0
 40
1.0
 40
1.0
 10
5.2439
 20
-21.0197
 30
0.0
 10
5.2439
 20
-21.0197
 30
0.0
 10
-7.0457
 20
-21.0197
 30
0.0
 10
-7.0457
 20
-21.0197
 30
0.0
  0
SPLINE
  5
A6
330
1F
100
AcDbEntity
  8
DEFAULT_1
 62
   250
100
AcDbSpline
210
0.0
220
0.0
230
1.0
 70
    24
 71
     3
 72
     8
 73
     4
 74
     0
 42
0.0000000001
 43
0.0000000001
 40
0.0
 40
0.0
 40
0.0
 40
0.0
 40
1.0
 40
1.0
 40
1.0
 40
1.0
 10
-6.7459
 20
-20.5701
 30
0.0
 10
-6.7459
 20
-20.5701
 30
0.0
 10
4.9441
 20
-20.5701
 30
0.0
 10
4.9441
 20
-20.5701
 30
0.0
  0
SPLINE
  5
A7
330
1F
100
AcDbEntity
  8
DEFAULT_1
 62
   250
100
AcDbSpline
210
0.0
220
0.0
230
1.0
 70
    24
 71
     3
 72
     8
 73
     4
 74
     0
 42
0.0000000001
 43
0.0000000001
 40
0.0
 40
0.0
 40
0.0
 40
0.0
 40
1.0
 40
1.0
 40
1.0
 40
1.0
 10
5.2439
 20
-16.7943
 30
0.0
 10
5.2439
 20
-16.7943
 30
0.0
 10
5.6935
 20
-16.7943
 30
0.0
 10
5.6935
 20
-16.7943
 30
0.0
  0
SPLINE
  5
A8
330
1F
100
AcDbEntity
  8
DEFAULT_1
 62
   250
100
AcDbSpline
210
0.0
220
0.0
230
1.0
 70
    24
 71
     3
 72
     8
 73
     4
 74
     0
 42
0.0000000001
 43
0.0000000001
 40
0.0
 40
0.0
 40
0.0
 40
0.0
 40
1.0
 40
1.0
 40
1.0
 40
1.0
 10
4.3473
 20
-16.5685
 30
0.0
 10
4.3473
 20
-16.5685
 30
0.0
 10
5.2439
 20
-16.5685
 30
0.0
 10
5.2439
 20
-16.5685
 30
0.0
  0
SPLINE
  5
A9
330
1F
100
AcDbEntity
  8
DEFAULT_1
 62
   250
100
AcDbSpline
210
0.0
220
0.0
230
1.0
 70
    24
 71
     3
 72
     8
 73
     4
 74
     0
 42
0.0000000001
 43
0.0000000001
 40
0.0
 40
0.0
 40
0.0
 40
0.0
 40
1.0
 40
1.0
 40
1.0
 40
1.0
 10
4.0213
 20
-8.0857
 30
0.0
 10
4.0213
 20
-8.0857
 30
0.0
 10
5.2439
 20
-8.0857
 30
0.0
 10
5.2439
 20
-8.0857
 30
0.0
  0
SPLINE
  5
AA
330
1F
100
AcDbEntity
  8
DEFAULT_1
 62
   250
100
AcDbSpline
210
0.0
220
0.0
230
1.0
 70
    24
 71
     3
 72
     8
 73
     4
 74
     0
 42
0.0000000001
 43
0.0000000001
 40
0.0
 40
0.0
 40
0.0
 40
0.0
 40
1.0
 40
1.0
 40
1.0
 40
1.0
 10
5.2439
 20
-7.8599
 30
0.0
 10
5.2439
 20
-7.8599
 30
0.0
 10
5.6935
 20
-7.8599
 30
0.0
 10
5.6935
 20
-7.8599
 30
0.0
  0
SPLINE
  5
AB
330
1F
100
AcDbEntity
  8
DEFAULT_1
 62
   250
100
AcDbSpline
210
0.0
220
0.0
230
1.0
 70
    24
 71
     3
 72
     8
 73
     4
 74
     0
 42
0.0000000001
 43
0.0000000001
 40
0.0
 40
0.0
 40
0.0
 40
0.0
 40
1.0
 40
1.0
 40
1.0
 40
1.0
 10
3.4584
 20
-7.831
 30
0.0
 10
3.4584
 20
-7.831
 30
0.0
 10
-5.2601
 20
-7.831
 30
0.0
 10
-5.2601
 20
-7.831
 30
0.0
  0
SPLINE
  5
AC
330
1F
100
AcDbEntity
  8
DEFAULT_1
 62
   250
100
AcDbSpline
210
0.0
220
0.0
230
1.0
 70
    24
 71
     3
 72
     8
 73
     4
 74
     0
 42
0.0000000001
 43
0.0000000001
 40
0.0
 40
0.0
 40
0.0
 40
0.0
 40
1.0
 40
1.0
 40
1.0
 40
1.0
 10
-7.0457
 20
-20.8698
 30
0.0
 10
-7.0457
 20
-20.8698
 30
0.0
 10
-7.0457
 20
-21.0197
 30
0.0
 10
-7.0457
 20
-21.0197
 30
0.0
  0
SPLINE
  5
AD
330
1F
100
AcDbEntity
  8
DEFAULT_1
 62
   250
100
AcDbSpline
210
0.0
220
0.0
230
1.0
 70
    24
 71
     3
 72
     8
 73
     4
 74
     0
 42
0.0000000001
 43
0.0000000001
 40
0.0
 40
0.0
 40
0.0
 40
0.0
 40
1.0
 40
1.0
 40
1.0
 40
1.0
 10
-7.0456
 20
-21.5668
 30
0.0
 10
-7.0456
 20
-21.5668
 30
0.0
 10
-7.0456
 20
-21.0182
 30
0.0
 10
-7.0456
 20
-21.0182
 30
0.0
  0
SPLINE
  5
AE
330
1F
100
AcDbEntity
  8
DEFAULT_1
 62
   250
100
AcDbSpline
210
0.0
220
0.0
230
1.0
 70
    24
 71
     3
 72
     8
 73
     4
 74
     0
 42
0.0000000001
 43
0.0000000001
 40
0.0
 40
0.0
 40
0.0
 40
0.0
 40
1.0
 40
1.0
 40
1.0
 40
1.0
 10
-6.8956
 20
-23.5151
 30
0.0
 10
-6.8956
 20
-23.5151
 30
0.0
 10
-6.8956
 20
-21.5523
 30
0.0
 10
-6.8956
 20
-21.5523
 30
0.0
  0
SPLINE
  5
AF
330
1F
100
AcDbEntity
  8
DEFAULT_1
 62
   250
100
AcDbSpline
210
0.0
220
0.0
230
1.0
 70
    24
 71
     3
 72
     8
 73
     4
 74
     0
 42
0.0000000001
 43
0.0000000001
 40
0.0
 40
0.0
 40
0.0
 40
0.0
 40
1.0
 40
1.0
 40
1.0
 40
1.0
 10
-6.6067
 20
-22.7657
 30
0.0
 10
-6.6067
 20
-22.7657
 30
0.0
 10
-6.6067
 20
-21.5668
 30
0.0
 10
-6.6067
 20
-21.5668
 30
0.0
  0
SPLINE
  5
B0
330
1F
100
AcDbEntity
  8
DEFAULT_1
 62
   250
100
AcDbSpline
210
0.0
220
0.0
230
1.0
 70
    24
 71
     3
 72
     8
 73
     4
 74
     0
 42
0.0000000001
 43
0.0000000001
 40
0.0
 40
0.0
 40
0.0
 40
0.0
 40
1.0
 40
1.0
 40
1.0
 40
1.0
 10
-5.4526
 20
-22.7657
 30
0.0
 10
-5.4526
 20
-22.7657
 30
0.0
 10
-5.4526
 20
-21.5668
 30
0.0
 10
-5.4526
 20
-21.5668
 30
0.0
  0
SPLINE
  5
B1
330
1F
100
AcDbEntity
  8
DEFAULT_1
 62
   250
100
AcDbSpline
210
0.0
220
0.0
230
1.0
 70
    24
 71
     3
 72
     8
 73
     4
 74
     0
 42
0.0000000001
 43
0.0000000001
 40
0.0
 40
0.0
 40
0.0
 40
0.0
 40
1.0
 40
1.0
 40
1.0
 40
1.0
 10
-5.0288
 20
-22.7657
 30
0.0
 10
-5.0288
 20
-22.7657
 30
0.0
 10
-5.0288
 20
-21.5668
 30
0.0
 10
-5.0288
 20
-21.5668
 30
0.0
  0
SPLINE
  5
B2
330
1F
100
AcDbEntity
  8
DEFAULT_1
 62
   250
100
AcDbSpline
210
0.0
220
0.0
230
1.0
 70
    24
 71
     3
 72
     8
 73
     4
 74
     0
 42
0.0000000001
 43
0.0000000001
 40
0.0
 40
0.0
 40
0.0
 40
0.0
 40
1.0
 40
1.0
 40
1.0
 40
1.0
 10
-6.0094
 20
-8.5672
 30
0.0
 10
-6.0094
 20
-8.5672
 30
0.0
 10
-6.2137
 20
-20.2756
 30
0.0
 10
-6.2137
 20
-20.2756
 30
0.0
  0
SPLINE
  5
B3
330
1F
100
AcDbEntity
  8
DEFAULT_1
 62
   250
100
AcDbSpline
210
0.0
220
0.0
230
1.0
 70
    24
 71
     3
 72
     8
 73
     4
 74
     0
 42
0.0000000001
 43
0.0000000001
 40
0.0
 40
0.0
 40
0.0
 40
0.0
 40
1.0
 40
1.0
 40
1.0
 40
1.0
 10
-2.7789
 20
-22.7657
 30
0.0
 10
-2.7789
 20
-22.7657
 30
0.0
 10
-2.7789
 20
-21.5668
 30
0.0
 10
-2.7789
 20
-21.5668
 30
0.0
  0
SPLINE
  5
B4
330
1F
100
AcDbEntity
  8
DEFAULT_1
 62
   250
100
AcDbSpline
210
0.0
220
0.0
230
1.0
 70
    24
 71
     3
 72
     8
 73
     4
 74
     0
 42
0.0000000001
 43
0.0000000001
 40
0.0
 40
0.0
 40
0.0
 40
0.0
 40
1.0
 40
1.0
 40
1.0
 40
1.0
 10
-2.1998
 20
-22.7657
 30
0.0
 10
-2.1998
 20
-22.7657
 30
0.0
 10
-2.1998
 20
-21.5668
 30
0.0
 10
-2.1998
 20
-21.5668
 30
0.0
  0
SPLINE
  5
B5
330
1F
100
AcDbEntity
  8
DEFAULT_1
 62
   250
100
AcDbSpline
210
0.0
220
0.0
230
1.0
 70
    24
 71
     3
 72
     8
 73
     4
 74
     0
 42
0.0000000001
 43
0.0000000001
 40
0.0
 40
0.0
 40
0.0
 40
0.0
 40
1.0
 40
1.0
 40
1.0
 40
1.0
 10
0.398
 20
-22.7657
 30
0.0
 10
0.398
 20
-22.7657
 30
0.0
 10
0.398
 20
-21.5668
 30
0.0
 10
0.398
 20
-21.5668
 30
0.0
  0
SPLINE
  5
B6
330
1F
100
AcDbEntity
  8
DEFAULT_1
 62
   250
100
AcDbSpline
210
0.0
220
0.0
230
1.0
 70
    24
 71
     3
 72
     8
 73
     4
 74
     0
 42
0.0000000001
 43
0.0000000001
 40
0.0
 40
0.0
 40
0.0
 40
0.0
 40
1.0
 40
1.0
 40
1.0
 40
1.0
 10
0.9771
 20
-22.7657
 30
0.0
 10
0.9771
 20
-22.7657
 30
0.0
 10
0.9771
 20
-21.5668
 30
0.0
 10
0.9771
 20
-21.5668
 30
0.0
  0
SPLINE
  5
B7
330
1F
100
AcDbEntity
  8
DEFAULT_1
 62
   250
100
AcDbSpline
210
0.0
220
0.0
230
1.0
 70
    24
 71
     3
 72
     8
 73
     4
 74
     0
 42
0.0000000001
 43
0.0000000001
 40
0.0
 40
0.0
 40
0.0
 40
0.0
 40
1.0
 40
1.0
 40
1.0
 40
1.0
 10
3.227
 20
-22.7657
 30
0.0
 10
3.227
 20
-22.7657
 30
0.0
 10
3.227
 20
-21.5668
 30
0.0
 10
3.227
 20
-21.5668
 30
0.0
  0
SPLINE
  5
B8
330
1F
100
AcDbEntity
  8
DEFAULT_1
 62
   250
100
AcDbSpline
210
0.0
220
0.0
230
1.0
 70
    24
 71
     3
 72
     8
 73
     4
 74
     0
 42
0.0000000001
 43
0.0000000001
 40
0.0
 40
0.0
 40
0.0
 40
0.0
 40
1.0
 40
1.0
 40
1.0
 40
1.0
 10
3.6509
 20
-22.7657
 30
0.0
 10
3.6509
 20
-22.7657
 30
0.0
 10
3.6509
 20
-21.5668
 30
0.0
 10
3.6509
 20
-21.5668
 30
0.0
  0
SPLINE
  5
B9
330
1F
100
AcDbEntity
  8
DEFAULT_1
 62
   250
100
AcDbSpline
210
0.0
220
0.0
230
1.0
 70
    24
 71
     3
 72
     8
 73
     4
 74
     0
 42
0.0000000001
 43
0.0000000001
 40
0.0
 40
0.0
 40
0.0
 40
0.0
 40
1.0
 40
1.0
 40
1.0
 40
1.0
 10
4.3473
 20
-16.5685
 30
0.0
 10
4.3473
 20
-16.5685
 30
0.0
 10
4.412
 20
-20.2756
 30
0.0
 10
4.412
 20
-20.2756
 30
0.0
  0
SPLINE
  5
BA
330
1F
100
AcDbEntity
  8
DEFAULT_1
 62
   250
100
AcDbSpline
210
0.0
220
0.0
230
1.0
 70
    24
 71
     3
 72
     8
 73
     4
 74
     0
 42
0.0000000001
 43
0.0000000001
 40
0.0
 40
0.0
 40
0.0
 40
0.0
 40
1.0
 40
1.0
 40
1.0
 40
1.0
 10
4.8049
 20
-22.7657
 30
0.0
 10
4.8049
 20
-22.7657
 30
0.0
 10
4.8049
 20
-21.5668
 30
0.0
 10
4.8049
 20
-21.5668
 30
0.0
  0
SPLINE
  5
BB
330
1F
100
AcDbEntity
  8
DEFAULT_1
 62
   250
100
AcDbSpline
210
0.0
220
0.0
230
1.0
 70
    24
 71
     3
 72
     8
 73
     4
 74
     0
 42
0.0000000001
 43
0.0000000001
 40
0.0
 40
0.0
 40
0.0
 40
0.0
 40
1.0
 40
1.0
 40
1.0
 40
1.0
 10
5.0942
 20
-23.5151
 30
0.0
 10
5.0942
 20
-23.5151
 30
0.0
 10
5.0942
 20
-21.5682
 30
0.0
 10
5.0942
 20
-21.5682
 30
0.0
  0
SPLINE
  5
BC
330
1F
100
AcDbEntity
  8
DEFAULT_1
 62
   250
100
AcDbSpline
210
0.0
220
0.0
230
1.0
 70
    24
 71
     3
 72
     8
 73
     4
 74
     0
 42
0.0000000001
 43
0.0000000001
 40
0.0
 40
0.0
 40
0.0
 40
0.0
 40
1.0
 40
1.0
 40
1.0
 40
1.0
 10
5.2439
 20
-7.8599
 30
0.0
 10
5.2439
 20
-7.8599
 30
0.0
 10
5.2439
 20
-16.7943
 30
0.0
 10
5.2439
 20
-16.7943
 30
0.0
  0
SPLINE
  5
BD
330
1F
100
AcDbEntity
  8
DEFAULT_1
 62
   250
100
AcDbSpline
210
0.0
220
0.0
230
1.0
 70
    24
 71
     3
 72
     8
 73
     4
 74
     0
 42
0.0000000001
 43
0.0000000001
 40
0.0
 40
0.0
 40
0.0
 40
0.0
 40
1.0
 40
1.0
 40
1.0
 40
1.0
 10
5.2439
 20
-20.8698
 30
0.0
 10
5.2439
 20
-20.8698
 30
0.0
 10
5.2439
 20
-21.0197
 30
0.0
 10
5.2439
 20
-21.0197
 30
0.0
  0
SPLINE
  5
BE
330
1F
100
AcDbEntity
  8
DEFAULT_1
 62
   250
100
AcDbSpline
210
0.0
220
0.0
230
1.0
 70
    24
 71
     3
 72
     8
 73
     4
 74
     0
 42
0.0000000001
 43
0.0000000001
 40
0.0
 40
0.0
 40
0.0
 40
0.0
 40
1.0
 40
1.0
 40
1.0
 40
1.0
 10
5.2439
 20
-21.5668
 30
0.0
 10
5.2439
 20
-21.5668
 30
0.0
 10
5.2439
 20
-21.0178
 30
0.0
 10
5.2439
 20
-21.0178
 30
0.0
  0
SPLINE
  5
BF
330
1F
100
AcDbEntity
  8
DEFAULT_1
 62
   250
100
AcDbSpline
210
0.0
220
0.0
230
1.0
 70
     8
 71
     3
 72
     8
 73
     4
 74
     0
 42
0.0000000001
 43
0.0000000001
 40
0.0
 40
0.0
 40
0.0
 40
0.0
 40
1.0
 40
1.0
 40
1.0
 40
1.0
 10
-6.8958
 20
-23.5151
 30
0.0
 10
-6.8958
 20
-23.7634
 30
0.0
 10
-6.6944
 20
-23.9647
 30
0.0
 10
-6.4462
 20
-23.9647
 30
0.0
  0
SPLINE
  5
C0
330
1F
100
AcDbEntity
  8
DEFAULT_1
 62
   250
100
AcDbSpline
210
0.0
220
0.0
230
1.0
 70
     8
 71
     3
 72
     8
 73
     4
 74
     0
 42
0.0000000001
 43
0.0000000001
 40
0.0
 40
0.0
 40
0.0
 40
0.0
 40
1.0
 40
1.0
 40
1.0
 40
1.0
 10
4.6444
 20
-23.9647
 30
0.0
 10
4.8927
 20
-23.9647
 30
0.0
 10
5.094
 20
-23.7634
 30
0.0
 10
5.094
 20
-23.5151
 30
0.0
  0
SPLINE
  5
C1
330
1F
100
AcDbEntity
  8
DEFAULT_1
 62
   250
100
AcDbSpline
210
0.0
220
0.0
230
1.0
 70
     8
 71
     3
 72
     8
 73
     4
 74
     0
 42
0.0000000001
 43
0.0000000001
 40
0.0
 40
0.0
 40
0.0
 40
0.0
 40
1.0
 40
1.0
 40
1.0
 40
1.0
 10
-5.8295
 20
-24.3769
 30
0.0
 10
-5.8489
 20
-24.1439
 30
0.0
 10
-6.0437
 20
-23.9647
 30
0.0
 10
-6.2775
 20
-23.9647
 30
0.0
  0
SPLINE
  5
C2
330
1F
100
AcDbEntity
  8
DEFAULT_1
 62
   250
100
AcDbSpline
210
0.0
220
0.0
230
1.0
 70
     8
 71
     3
 72
     8
 73
     4
 74
     0
 42
0.0000000001
 43
0.0000000001
 40
0.0
 40
0.0
 40
0.0
 40
0.0
 40
1.0
 40
1.0
 40
1.0
 40
1.0
 10
4.4757
 20
-23.9647
 30
0.0
 10
4.2419
 20
-23.9647
 30
0.0
 10
4.0472
 20
-24.1439
 30
0.0
 10
4.0277
 20
-24.3769
 30
0.0
  0
SPLINE
  5
C3
330
1F
100
AcDbEntity
  8
DEFAULT_1
 62
   250
100
AcDbSpline
210
0.0
220
0.0
230
1.0
 70
     8
 71
     3
 72
    12
 73
     8
 74
     0
 42
0.0000000001
 43
0.0000000001
 40
0.0
 40
0.0
 40
0.0
 40
0.0
 40
0.3333333333333333
 40
0.3333333333333333
 40
0.3333333333333333
 40
0.3333333333333333
 40
1.0
 40
1.0
 40
1.0
 40
1.0
 10
-5.8295
 20
-24.3769
 30
0.0
 10
-5.6151
 20
-26.9396
 30
0.0
 10
-3.4726
 20
-28.9105
 30
0.0
 10
-0.9009
 20
-28.9105
 30
0.0
 10
-0.9009
 20
-28.9105
 30
0.0
 10
1.6708
 20
-28.9105
 30
0.0
 10
3.8134
 20
-26.9396
 30
0.0
 10
4.0277
 20
-24.3769
 30
0.0
  0
SPLINE
  5
C4
330
1F
100
AcDbEntity
  8
DEFAULT_1
 62
   250
100
AcDbSpline
210
0.0
220
0.0
230
1.0
 70
     8
 71
     3
 72
     8
 73
     4
 74
     0
 42
0.0000000001
 43
0.0000000001
 40
0.0
 40
0.0
 40
0.0
 40
0.0
 40
1.0
 40
1.0
 40
1.0
 40
1.0
 10
5.2439
 20
-20.8698
 30
0.0
 10
5.2439
 20
-20.7043
 30
0.0
 10
5.1097
 20
-20.5701
 30
0.0
 10
4.9441
 20
-20.5701
 30
0.0
  0
SPLINE
  5
C5
330
1F
100
AcDbEntity
  8
DEFAULT_1
 62
   250
100
AcDbSpline
210
0.0
220
0.0
230
1.0
 70
     8
 71
     3
 72
     8
 73
     4
 74
     0
 42
0.0000000001
 43
0.0000000001
 40
0.0
 40
0.0
 40
0.0
 40
0.0
 40
1.0
 40
1.0
 40
1.0
 40
1.0
 10
-6.7459
 20
-20.5701
 30
0.0
 10
-6.9115
 20
-20.5701
 30
0.0
 10
-7.0457
 20
-20.7043
 30
0.0
 10
-7.0457
 20
-20.8698
 30
0.0
  0
SPLINE
  5
C6
330
1F
100
AcDbEntity
  8
DEFAULT_1
 62
   250
100
AcDbSpline
210
0.0
220
0.0
230
1.0
 70
     8
 71
     3
 72
     8
 73
     4
 74
     0
 42
0.0000000001
 43
0.0000000001
 40
0.0
 40
0.0
 40
0.0
 40
0.0
 40
1.0
 40
1.0
 40
1.0
 40
1.0
 10
4.412
 20
-20.2756
 30
0.0
 10
4.4148
 20
-20.439
 30
0.0
 10
4.5482
 20
-20.5701
 30
0.0
 10
4.7117
 20
-20.5701
 30
0.0
  0
SPLINE
  5
C7
330
1F
100
AcDbEntity
  8
DEFAULT_1
 62
   250
100
AcDbSpline
210
0.0
220
0.0
230
1.0
 70
     8
 71
     3
 72
     8
 73
     4
 74
     0
 42
0.0000000001
 43
0.0000000001
 40
0.0
 40
0.0
 40
0.0
 40
0.0
 40
1.0
 40
1.0
 40
1.0
 40
1.0
 10
-6.5134
 20
-20.5701
 30
0.0
 10
-6.35
 20
-20.5701
 30
0.0
 10
-6.2166
 20
-20.439
 30
0.0
 10
-6.2137
 20
-20.2756
 30
0.0
  0
SPLINE
  5
C8
330
1F
100
AcDbEntity
  8
DEFAULT_1
 62
   250
100
AcDbSpline
210
0.0
220
0.0
230
1.0
 70
     8
 71
     3
 72
     8
 73
     4
 74
     0
 42
0.0000000001
 43
0.0000000001
 40
0.0
 40
0.0
 40
0.0
 40
0.0
 40
1.0
 40
1.0
 40
1.0
 40
1.0
 10
-5.2601
 20
-7.831
 30
0.0
 10
-5.6689
 20
-7.831
 30
0.0
 10
-6.0022
 20
-8.1585
 30
0.0
 10
-6.0094
 20
-8.5672
 30
0.0
  0
SPLINE
  5
C9
330
1F
100
AcDbEntity
  8
DEFAULT_1
 62
   250
100
AcDbSpline
210
0.0
220
0.0
230
1.0
 70
     8
 71
     3
 72
     8
 73
     4
 74
     0
 42
0.0000000001
 43
0.0000000001
 40
0.0
 40
0.0
 40
0.0
 40
0.0
 40
1.0
 40
1.0
 40
1.0
 40
1.0
 10
4.0213
 20
-8.0857
 30
0.0
 10
3.8791
 20
-7.9238
 30
0.0
 10
3.6739
 20
-7.831
 30
0.0
 10
3.4584
 20
-7.831
 30
0.0
  0
SPLINE
  5
CA
330
1F
100
AcDbEntity
  8
DEFAULT_1
 62
   250
100
AcDbSpline
210
0.0
220
0.0
230
1.0
 70
     8
 71
     3
 72
    28
 73
    24
 74
     0
 42
0.0000000001
 43
0.0000000001
 40
0.0
 40
0.0
 40
0.0
 40
0.0
 40
0.1428571428571428
 40
0.1428571428571428
 40
0.1428571428571428
 40
0.1428571428571428
 40
0.2857142857142857
 40
0.2857142857142857
 40
0.2857142857142857
 40
0.2857142857142857
 40
0.4285714285714285
 40
0.4285714285714285
 40
0.4285714285714285
 40
0.4285714285714285
 40
0.5714285714285714
 40
0.5714285714285714
 40
0.5714285714285714
 40
0.5714285714285714
 40
0.7142857142857143
 40
0.7142857142857143
 40
0.7142857142857143
 40
0.7142857142857143
 40
1.0
 40
1.0
 40
1.0
 40
1.0
 10
3.4441
 20
-23.0654
 30
0.0
 10
3.4441
 20
-23.0654
 30
0.0
 10
3.4742
 20
-23.0624
 30
0.0
 10
3.4742
 20
-23.0624
 30
0.0
 10
3.4742
 20
-23.0624
 30
0.0
 10
3.4742
 20
-23.0624
 30
0.0
 10
3.5312
 20
-23.0384
 30
0.0
 10
3.5312
 20
-23.0384
 30
0.0
 10
3.5312
 20
-23.0384
 30
0.0
 10
3.5312
 20
-23.0384
 30
0.0
 10
3.5807
 20
-22.9922
 30
0.0
 10
3.5807
 20
-22.9922
 30
0.0
 10
3.5807
 20
-22.9922
 30
0.0
 10
3.5807
 20
-22.9922
 30
0.0
 10
3.6188
 20
-22.9277
 30
0.0
 10
3.6188
 20
-22.9277
 30
0.0
 10
3.6188
 20
-22.9277
 30
0.0
 10
3.6188
 20
-22.9277
 30
0.0
 10
3.6427
 20
-22.8501
 30
0.0
 10
3.6427
 20
-22.8501
 30
0.0
 10
3.6427
 20
-22.8501
 30
0.0
 10
3.6427
 20
-22.8501
 30
0.0
 10
3.6509
 20
-22.7657
 30
0.0
 10
3.6509
 20
-22.7657
 30
0.0
  0
SPLINE
  5
CB
330
1F
100
AcDbEntity
  8
DEFAULT_1
 62
   250
100
AcDbSpline
210
0.0
220
0.0
230
1.0
 70
     8
 71
     3
 72
    28
 73
    24
 74
     0
 42
0.0000000001
 43
0.0000000001
 40
0.0
 40
0.0
 40
0.0
 40
0.0
 40
0.1428571428571428
 40
0.1428571428571428
 40
0.1428571428571428
 40
0.1428571428571428
 40
0.2857142857142857
 40
0.2857142857142857
 40
0.2857142857142857
 40
0.2857142857142857
 40
0.4285714285714285
 40
0.4285714285714285
 40
0.4285714285714285
 40
0.4285714285714285
 40
0.5714285714285714
 40
0.5714285714285714
 40
0.5714285714285714
 40
0.5714285714285714
 40
0.7142857142857143
 40
0.7142857142857143
 40
0.7142857142857143
 40
0.7142857142857143
 40
1.0
 40
1.0
 40
1.0
 40
1.0
 10
0.6895
 20
-23.0654
 30
0.0
 10
0.6895
 20
-23.0654
 30
0.0
 10
0.7306
 20
-23.0624
 30
0.0
 10
0.7306
 20
-23.0624
 30
0.0
 10
0.7306
 20
-23.0624
 30
0.0
 10
0.7306
 20
-23.0624
 30
0.0
 10
0.8094
 20
-23.0384
 30
0.0
 10
0.8094
 20
-23.0384
 30
0.0
 10
0.8094
 20
-23.0384
 30
0.0
 10
0.8094
 20
-23.0384
 30
0.0
 10
0.8783
 20
-22.9922
 30
0.0
 10
0.8783
 20
-22.9922
 30
0.0
 10
0.8783
 20
-22.9922
 30
0.0
 10
0.8783
 20
-22.9922
 30
0.0
 10
0.9317
 20
-22.9277
 30
0.0
 10
0.9317
 20
-22.9277
 30
0.0
 10
0.9317
 20
-22.9277
 30
0.0
 10
0.9317
 20
-22.9277
 30
0.0
 10
0.9655
 20
-22.8501
 30
0.0
 10
0.9655
 20
-22.8501
 30
0.0
 10
0.9655
 20
-22.8501
 30
0.0
 10
0.9655
 20
-22.8501
 30
0.0
 10
0.9771
 20
-22.7657
 30
0.0
 10
0.9771
 20
-22.7657
 30
0.0
  0
SPLINE
  5
CC
330
1F
100
AcDbEntity
  8
DEFAULT_1
 62
   250
100
AcDbSpline
210
0.0
220
0.0
230
1.0
 70
     8
 71
     3
 72
    28
 73
    24
 74
     0
 42
0.0000000001
 43
0.0000000001
 40
0.0
 40
0.0
 40
0.0
 40
0.0
 40
0.1428571428571428
 40
0.1428571428571428
 40
0.1428571428571428
 40
0.1428571428571428
 40
0.2857142857142857
 40
0.2857142857142857
 40
0.2857142857142857
 40
0.2857142857142857
 40
0.4285714285714285
 40
0.4285714285714285
 40
0.4285714285714285
 40
0.4285714285714285
 40
0.5714285714285714
 40
0.5714285714285714
 40
0.5714285714285714
 40
0.5714285714285714
 40
0.7142857142857143
 40
0.7142857142857143
 40
0.7142857142857143
 40
0.7142857142857143
 40
1.0
 40
1.0
 40
1.0
 40
1.0
 10
-5.4526
 20
-22.7657
 30
0.0
 10
-5.4526
 20
-22.7657
 30
0.0
 10
-5.4445
 20
-22.8501
 30
0.0
 10
-5.4445
 20
-22.8501
 30
0.0
 10
-5.4445
 20
-22.8501
 30
0.0
 10
-5.4445
 20
-22.8501
 30
0.0
 10
-5.4205
 20
-22.9277
 30
0.0
 10
-5.4205
 20
-22.9277
 30
0.0
 10
-5.4205
 20
-22.9277
 30
0.0
 10
-5.4205
 20
-22.9277
 30
0.0
 10
-5.3825
 20
-22.9922
 30
0.0
 10
-5.3825
 20
-22.9922
 30
0.0
 10
-5.3825
 20
-22.9922
 30
0.0
 10
-5.3825
 20
-22.9922
 30
0.0
 10
-5.333
 20
-23.0384
 30
0.0
 10
-5.333
 20
-23.0384
 30
0.0
 10
-5.333
 20
-23.0384
 30
0.0
 10
-5.333
 20
-23.0384
 30
0.0
 10
-5.2759
 20
-23.0624
 30
0.0
 10
-5.2759
 20
-23.0624
 30
0.0
 10
-5.2759
 20
-23.0624
 30
0.0
 10
-5.2759
 20
-23.0624
 30
0.0
 10
-5.2459
 20
-23.0654
 30
0.0
 10
-5.2459
 20
-23.0654
 30
0.0
  0
SPLINE
  5
CD
330
1F
100
AcDbEntity
  8
DEFAULT_1
 62
   250
100
AcDbSpline
210
0.0
220
0.0
230
1.0
 70
     8
 71
     3
 72
    28
 73
    24
 74
     0
 42
0.0000000001
 43
0.0000000001
 40
0.0
 40
0.0
 40
0.0
 40
0.0
 40
0.1428571428571428
 40
0.1428571428571428
 40
0.1428571428571428
 40
0.1428571428571428
 40
0.2857142857142857
 40
0.2857142857142857
 40
0.2857142857142857
 40
0.2857142857142857
 40
0.4285714285714285
 40
0.4285714285714285
 40
0.4285714285714285
 40
0.4285714285714285
 40
0.5714285714285714
 40
0.5714285714285714
 40
0.5714285714285714
 40
0.5714285714285714
 40
0.7142857142857143
 40
0.7142857142857143
 40
0.7142857142857143
 40
0.7142857142857143
 40
1.0
 40
1.0
 40
1.0
 40
1.0
 10
-2.7789
 20
-22.7657
 30
0.0
 10
-2.7789
 20
-22.7657
 30
0.0
 10
-2.7673
 20
-22.8501
 30
0.0
 10
-2.7673
 20
-22.8501
 30
0.0
 10
-2.7673
 20
-22.8501
 30
0.0
 10
-2.7673
 20
-22.8501
 30
0.0
 10
-2.7335
 20
-22.9277
 30
0.0
 10
-2.7335
 20
-22.9277
 30
0.0
 10
-2.7335
 20
-22.9277
 30
0.0
 10
-2.7335
 20
-22.9277
 30
0.0
 10
-2.68
 20
-22.9922
 30
0.0
 10
-2.68
 20
-22.9922
 30
0.0
 10
-2.68
 20
-22.9922
 30
0.0
 10
-2.68
 20
-22.9922
 30
0.0
 10
-2.6112
 20
-23.0384
 30
0.0
 10
-2.6112
 20
-23.0384
 30
0.0
 10
-2.6112
 20
-23.0384
 30
0.0
 10
-2.6112
 20
-23.0384
 30
0.0
 10
-2.5324
 20
-23.0624
 30
0.0
 10
-2.5324
 20
-23.0624
 30
0.0
 10
-2.5324
 20
-23.0624
 30
0.0
 10
-2.5324
 20
-23.0624
 30
0.0
 10
-2.4912
 20
-23.0654
 30
0.0
 10
-2.4912
 20
-23.0654
 30
0.0
  0
SPLINE
  5
CE
330
1F
100
AcDbEntity
  8
DEFAULT_1
 62
   250
100
AcDbSpline
210
0.0
220
0.0
230
1.0
 70
     8
 71
     3
 72
    28
 73
    24
 74
     0
 42
0.0000000001
 43
0.0000000001
 40
0.0
 40
0.0
 40
0.0
 40
0.0
 40
0.1428571428571428
 40
0.1428571428571428
 40
0.1428571428571428
 40
0.1428571428571428
 40
0.2857142857142857
 40
0.2857142857142857
 40
0.2857142857142857
 40
0.2857142857142857
 40
0.4285714285714285
 40
0.4285714285714285
 40
0.4285714285714285
 40
0.4285714285714285
 40
0.5714285714285714
 40
0.5714285714285714
 40
0.5714285714285714
 40
0.5714285714285714
 40
0.7142857142857143
 40
0.7142857142857143
 40
0.7142857142857143
 40
0.7142857142857143
 40
1.0
 40
1.0
 40
1.0
 40
1.0
 10
-2.4912
 20
-23.0654
 30
0.0
 10
-2.4912
 20
-23.0654
 30
0.0
 10
-2.45
 20
-23.0624
 30
0.0
 10
-2.45
 20
-23.0624
 30
0.0
 10
-2.45
 20
-23.0624
 30
0.0
 10
-2.45
 20
-23.0624
 30
0.0
 10
-2.3707
 20
-23.0384
 30
0.0
 10
-2.3707
 20
-23.0384
 30
0.0
 10
-2.3707
 20
-23.0384
 30
0.0
 10
-2.3707
 20
-23.0384
 30
0.0
 10
-2.3008
 20
-22.9922
 30
0.0
 10
-2.3008
 20
-22.9922
 30
0.0
 10
-2.3008
 20
-22.9922
 30
0.0
 10
-2.3008
 20
-22.9922
 30
0.0
 10
-2.2463
 20
-22.9277
 30
0.0
 10
-2.2463
 20
-22.9277
 30
0.0
 10
-2.2463
 20
-22.9277
 30
0.0
 10
-2.2463
 20
-22.9277
 30
0.0
 10
-2.2117
 20
-22.8501
 30
0.0
 10
-2.2117
 20
-22.8501
 30
0.0
 10
-2.2117
 20
-22.8501
 30
0.0
 10
-2.2117
 20
-22.8501
 30
0.0
 10
-2.1998
 20
-22.7657
 30
0.0
 10
-2.1998
 20
-22.7657
 30
0.0
  0
SPLINE
  5
CF
330
1F
100
AcDbEntity
  8
DEFAULT_1
 62
   250
100
AcDbSpline
210
0.0
220
0.0
230
1.0
 70
     8
 71
     3
 72
    28
 73
    24
 74
     0
 42
0.0000000001
 43
0.0000000001
 40
0.0
 40
0.0
 40
0.0
 40
0.0
 40
0.1428571428571428
 40
0.1428571428571428
 40
0.1428571428571428
 40
0.1428571428571428
 40
0.2857142857142857
 40
0.2857142857142857
 40
0.2857142857142857
 40
0.2857142857142857
 40
0.4285714285714285
 40
0.4285714285714285
 40
0.4285714285714285
 40
0.4285714285714285
 40
0.5714285714285714
 40
0.5714285714285714
 40
0.5714285714285714
 40
0.5714285714285714
 40
0.7142857142857143
 40
0.7142857142857143
 40
0.7142857142857143
 40
0.7142857142857143
 40
1.0
 40
1.0
 40
1.0
 40
1.0
 10
-6.6915
 20
-23.0655
 30
0.0
 10
-6.6915
 20
-23.0655
 30
0.0
 10
-6.6709
 20
-23.0552
 30
0.0
 10
-6.6709
 20
-23.0552
 30
0.0
 10
-6.6709
 20
-23.0552
 30
0.0
 10
-6.6709
 20
-23.0552
 30
0.0
 10
-6.6509
 20
-23.0252
 30
0.0
 10
-6.6509
 20
-23.0252
 30
0.0
 10
-6.6509
 20
-23.0252
 30
0.0
 10
-6.6509
 20
-23.0252
 30
0.0
 10
-6.633
 20
-22.9775
 30
0.0
 10
-6.633
 20
-22.9775
 30
0.0
 10
-6.633
 20
-22.9775
 30
0.0
 10
-6.633
 20
-22.9775
 30
0.0
 10
-6.6188
 20
-22.9153
 30
0.0
 10
-6.6188
 20
-22.9153
 30
0.0
 10
-6.6188
 20
-22.9153
 30
0.0
 10
-6.6188
 20
-22.9153
 30
0.0
 10
-6.6097
 20
-22.8428
 30
0.0
 10
-6.6097
 20
-22.8428
 30
0.0
 10
-6.6097
 20
-22.8428
 30
0.0
 10
-6.6097
 20
-22.8428
 30
0.0
 10
-6.6067
 20
-22.7657
 30
0.0
 10
-6.6067
 20
-22.7657
 30
0.0
  0
SPLINE
  5
D0
330
1F
100
AcDbEntity
  8
DEFAULT_1
 62
   250
100
AcDbSpline
210
0.0
220
0.0
230
1.0
 70
     8
 71
     3
 72
    28
 73
    24
 74
     0
 42
0.0000000001
 43
0.0000000001
 40
0.0
 40
0.0
 40
0.0
 40
0.0
 40
0.1428571428571428
 40
0.1428571428571428
 40
0.1428571428571428
 40
0.1428571428571428
 40
0.2857142857142857
 40
0.2857142857142857
 40
0.2857142857142857
 40
0.2857142857142857
 40
0.4285714285714285
 40
0.4285714285714285
 40
0.4285714285714285
 40
0.4285714285714285
 40
0.5714285714285714
 40
0.5714285714285714
 40
0.5714285714285714
 40
0.5714285714285714
 40
0.7142857142857143
 40
0.7142857142857143
 40
0.7142857142857143
 40
0.7142857142857143
 40
1.0
 40
1.0
 40
1.0
 40
1.0
 10
-5.2459
 20
-23.0654
 30
0.0
 10
-5.2459
 20
-23.0654
 30
0.0
 10
-5.2156
 20
-23.0624
 30
0.0
 10
-5.2156
 20
-23.0624
 30
0.0
 10
-5.2156
 20
-23.0624
 30
0.0
 10
-5.2156
 20
-23.0624
 30
0.0
 10
-5.157
 20
-23.0384
 30
0.0
 10
-5.157
 20
-23.0384
 30
0.0
 10
-5.157
 20
-23.0384
 30
0.0
 10
-5.157
 20
-23.0384
 30
0.0
 10
-5.1049
 20
-22.9922
 30
0.0
 10
-5.1049
 20
-22.9922
 30
0.0
 10
-5.1049
 20
-22.9922
 30
0.0
 10
-5.1049
 20
-22.9922
 30
0.0
 10
-5.0639
 20
-22.9277
 30
0.0
 10
-5.0639
 20
-22.9277
 30
0.0
 10
-5.0639
 20
-22.9277
 30
0.0
 10
-5.0639
 20
-22.9277
 30
0.0
 10
-5.0378
 20
-22.8501
 30
0.0
 10
-5.0378
 20
-22.8501
 30
0.0
 10
-5.0378
 20
-22.8501
 30
0.0
 10
-5.0378
 20
-22.8501
 30
0.0
 10
-5.0288
 20
-22.7657
 30
0.0
 10
-5.0288
 20
-22.7657
 30
0.0
  0
SPLINE
  5
D1
330
1F
100
AcDbEntity
  8
DEFAULT_1
 62
   250
100
AcDbSpline
210
0.0
220
0.0
230
1.0
 70
     8
 71
     3
 72
    28
 73
    24
 74
     0
 42
0.0000000001
 43
0.0000000001
 40
0.0
 40
0.0
 40
0.0
 40
0.0
 40
0.1428571428571428
 40
0.1428571428571428
 40
0.1428571428571428
 40
0.1428571428571428
 40
0.2857142857142857
 40
0.2857142857142857
 40
0.2857142857142857
 40
0.2857142857142857
 40
0.4285714285714285
 40
0.4285714285714285
 40
0.4285714285714285
 40
0.4285714285714285
 40
0.5714285714285714
 40
0.5714285714285714
 40
0.5714285714285714
 40
0.5714285714285714
 40
0.7142857142857143
 40
0.7142857142857143
 40
0.7142857142857143
 40
0.7142857142857143
 40
1.0
 40
1.0
 40
1.0
 40
1.0
 10
0.398
 20
-22.7657
 30
0.0
 10
0.398
 20
-22.7657
 30
0.0
 10
0.4099
 20
-22.8501
 30
0.0
 10
0.4099
 20
-22.8501
 30
0.0
 10
0.4099
 20
-22.8501
 30
0.0
 10
0.4099
 20
-22.8501
 30
0.0
 10
0.4445
 20
-22.9277
 30
0.0
 10
0.4445
 20
-22.9277
 30
0.0
 10
0.4445
 20
-22.9277
 30
0.0
 10
0.4445
 20
-22.9277
 30
0.0
 10
0.4991
 20
-22.9922
 30
0.0
 10
0.4991
 20
-22.9922
 30
0.0
 10
0.4991
 20
-22.9922
 30
0.0
 10
0.4991
 20
-22.9922
 30
0.0
 10
0.5689
 20
-23.0384
 30
0.0
 10
0.5689
 20
-23.0384
 30
0.0
 10
0.5689
 20
-23.0384
 30
0.0
 10
0.5689
 20
-23.0384
 30
0.0
 10
0.6482
 20
-23.0624
 30
0.0
 10
0.6482
 20
-23.0624
 30
0.0
 10
0.6482
 20
-23.0624
 30
0.0
 10
0.6482
 20
-23.0624
 30
0.0
 10
0.6895
 20
-23.0654
 30
0.0
 10
0.6895
 20
-23.0654
 30
0.0
  0
SPLINE
  5
D2
330
1F
100
AcDbEntity
  8
DEFAULT_1
 62
   250
100
AcDbSpline
210
0.0
220
0.0
230
1.0
 70
     8
 71
     3
 72
    28
 73
    24
 74
     0
 42
0.0000000001
 43
0.0000000001
 40
0.0
 40
0.0
 40
0.0
 40
0.0
 40
0.1428571428571428
 40
0.1428571428571428
 40
0.1428571428571428
 40
0.1428571428571428
 40
0.2857142857142857
 40
0.2857142857142857
 40
0.2857142857142857
 40
0.2857142857142857
 40
0.4285714285714285
 40
0.4285714285714285
 40
0.4285714285714285
 40
0.4285714285714285
 40
0.5714285714285714
 40
0.5714285714285714
 40
0.5714285714285714
 40
0.5714285714285714
 40
0.7142857142857143
 40
0.7142857142857143
 40
0.7142857142857143
 40
0.7142857142857143
 40
1.0
 40
1.0
 40
1.0
 40
1.0
 10
4.8049
 20
-22.7657
 30
0.0
 10
4.8049
 20
-22.7657
 30
0.0
 10
4.808
 20
-22.8429
 30
0.0
 10
4.808
 20
-22.8429
 30
0.0
 10
4.808
 20
-22.8429
 30
0.0
 10
4.808
 20
-22.8429
 30
0.0
 10
4.8171
 20
-22.9153
 30
0.0
 10
4.8171
 20
-22.9153
 30
0.0
 10
4.8171
 20
-22.9153
 30
0.0
 10
4.8171
 20
-22.9153
 30
0.0
 10
4.8312
 20
-22.9774
 30
0.0
 10
4.8312
 20
-22.9774
 30
0.0
 10
4.8312
 20
-22.9774
 30
0.0
 10
4.8312
 20
-22.9774
 30
0.0
 10
4.8491
 20
-23.0252
 30
0.0
 10
4.8491
 20
-23.0252
 30
0.0
 10
4.8491
 20
-23.0252
 30
0.0
 10
4.8491
 20
-23.0252
 30
0.0
 10
4.8691
 20
-23.0552
 30
0.0
 10
4.8691
 20
-23.0552
 30
0.0
 10
4.8691
 20
-23.0552
 30
0.0
 10
4.8691
 20
-23.0552
 30
0.0
 10
4.8897
 20
-23.0655
 30
0.0
 10
4.8897
 20
-23.0655
 30
0.0
  0
SPLINE
  5
D3
330
1F
100
AcDbEntity
  8
DEFAULT_1
 62
   250
100
AcDbSpline
210
0.0
220
0.0
230
1.0
 70
     8
 71
     3
 72
    28
 73
    24
 74
     0
 42
0.0000000001
 43
0.0000000001
 40
0.0
 40
0.0
 40
0.0
 40
0.0
 40
0.1428571428571428
 40
0.1428571428571428
 40
0.1428571428571428
 40
0.1428571428571428
 40
0.2857142857142857
 40
0.2857142857142857
 40
0.2857142857142857
 40
0.2857142857142857
 40
0.4285714285714285
 40
0.4285714285714285
 40
0.4285714285714285
 40
0.4285714285714285
 40
0.5714285714285714
 40
0.5714285714285714
 40
0.5714285714285714
 40
0.5714285714285714
 40
0.7142857142857143
 40
0.7142857142857143
 40
0.7142857142857143
 40
0.7142857142857143
 40
1.0
 40
1.0
 40
1.0
 40
1.0
 10
3.227
 20
-22.7657
 30
0.0
 10
3.227
 20
-22.7657
 30
0.0
 10
3.236
 20
-22.8501
 30
0.0
 10
3.236
 20
-22.8501
 30
0.0
 10
3.236
 20
-22.8501
 30
0.0
 10
3.236
 20
-22.8501
 30
0.0
 10
3.2621
 20
-22.9277
 30
0.0
 10
3.2621
 20
-22.9277
 30
0.0
 10
3.2621
 20
-22.9277
 30
0.0
 10
3.2621
 20
-22.9277
 30
0.0
 10
3.3031
 20
-22.9922
 30
0.0
 10
3.3031
 20
-22.9922
 30
0.0
 10
3.3031
 20
-22.9922
 30
0.0
 10
3.3031
 20
-22.9922
 30
0.0
 10
3.3552
 20
-23.0384
 30
0.0
 10
3.3552
 20
-23.0384
 30
0.0
 10
3.3552
 20
-23.0384
 30
0.0
 10
3.3552
 20
-23.0384
 30
0.0
 10
3.4139
 20
-23.0624
 30
0.0
 10
3.4139
 20
-23.0624
 30
0.0
 10
3.4139
 20
-23.0624
 30
0.0
 10
3.4139
 20
-23.0624
 30
0.0
 10
3.4441
 20
-23.0654
 30
0.0
 10
3.4441
 20
-23.0654
 30
0.0
  0
SPLINE
  5
D4
330
1F
100
AcDbEntity
  8
DEFAULT_1
 62
   250
100
AcDbSpline
210
0.0
220
0.0
230
1.0
 70
     8
 71
     3
 72
   216
 73
   212
 74
     0
 42
0.0000000001
 43
0.0000000001
 40
0.0
 40
0.0
 40
0.0
 40
0.0
 40
0.0185185185185185
 40
0.0185185185185185
 40
0.0185185185185185
 40
0.0185185185185185
 40
0.037037037037037
 40
0.037037037037037
 40
0.037037037037037
 40
0.037037037037037
 40
0.0555555555555556
 40
0.0555555555555556
 40
0.0555555555555556
 40
0.0555555555555556
 40
0.0740740740740741
 40
0.0740740740740741
 40
0.0740740740740741
 40
0.0740740740740741
 40
0.0925925925925926
 40
0.0925925925925926
 40
0.0925925925925926
 40
0.0925925925925926
 40
0.1111111111111111
 40
0.1111111111111111
 40
0.1111111111111111
 40
0.1111111111111111
 40
0.1296296296296296
 40
0.1296296296296296
 40
0.1296296296296296
 40
0.1296296296296296
 40
0.1481481481481481
 40
0.1481481481481481
 40
0.1481481481481481
 40
0.1481481481481481
 40
0.1666666666666667
 40
0.1666666666666667
 40
0.1666666666666667
 40
0.1666666666666667
 40
0.1851851851851852
 40
0.1851851851851852
 40
0.1851851851851852
 40
0.1851851851851852
 40
0.2037037037037037
 40
0.2037037037037037
 40
0.2037037037037037
 40
0.2037037037037037
 40
0.2222222222222222
 40
0.2222222222222222
 40
0.2222222222222222
 40
0.2222222222222222
 40
0.2407407407407407
 40
0.2407407407407407
 40
0.2407407407407407
 40
0.2407407407407407
 40
0.2592592592592592
 40
0.2592592592592592
 40
0.2592592592592592
 40
0.2592592592592592
 40
0.2777777777777778
 40
0.2777777777777778
 40
0.2777777777777778
 40
0.2777777777777778
 40
0.2962962962962963
 40
0.2962962962962963
 40
0.2962962962962963
 40
0.2962962962962963
 40
0.3148148148148148
 40
0.3148148148148148
 40
0.3148148148148148
 40
0.3148148148148148
 40
0.3333333333333333
 40
0.3333333333333333
 40
0.3333333333333333
 40
0.3333333333333333
 40
0.3518518518518519
 40
0.3518518518518519
 40
0.3518518518518519
 40
0.3518518518518519
 40
0.3703703703703703
 40
0.3703703703703703
 40
0.3703703703703703
 40
0.3703703703703703
 40
0.3888888888888889
 40
0.3888888888888889
 40
0.3888888888888889
 40
0.3888888888888889
 40
0.4074074074074074
 40
0.4074074074074074
 40
0.4074074074074074
 40
0.4074074074074074
 40
0.4259259259259259
 40
0.4259259259259259
 40
0.4259259259259259
 40
0.4259259259259259
 40
0.4444444444444444
 40
0.4444444444444444
 40
0.4444444444444444
 40
0.4444444444444444
 40
0.462962962962963
 40
0.462962962962963
 40
0.462962962962963
 40
0.462962962962963
 40
0.4814814814814815
 40
0.4814814814814815
 40
0.4814814814814815
 40
0.4814814814814815
 40
0.5
 40
0.5
 40
0.5
 40
0.5
 40
0.5185185185185185
 40
0.5185185185185185
 40
0.5185185185185185
 40
0.5185185185185185
 40
0.5370370370370371
 40
0.5370370370370371
 40
0.5370370370370371
 40
0.5370370370370371
 40
0.5555555555555556
 40
0.5555555555555556
 40
0.5555555555555556
 40
0.5555555555555556
 40
0.5740740740740741
 40
0.5740740740740741
 40
0.5740740740740741
 40
0.5740740740740741
 40
0.5925925925925926
 40
0.5925925925925926
 40
0.5925925925925926
 40
0.5925925925925926
 40
0.6111111111111112
 40
0.6111111111111112
 40
0.6111111111111112
 40
0.6111111111111112
 40
0.6296296296296297
 40
0.6296296296296297
 40
0.6296296296296297
 40
0.6296296296296297
 40
0.6481481481481481
 40
0.6481481481481481
 40
0.6481481481481481
 40
0.6481481481481481
 40
0.6666666666666666
 40
0.6666666666666666
 40
0.6666666666666666
 40
0.6666666666666666
 40
0.6851851851851852
 40
0.6851851851851852
 40
0.6851851851851852
 40
0.6851851851851852
 40
0.7037037037037037
 40
0.7037037037037037
 40
0.7037037037037037
 40
0.7037037037037037
 40
0.7222222222222222
 40
0.7222222222222222
 40
0.7222222222222222
 40
0.7222222222222222
 40
0.7407407407407407
 40
0.7407407407407407
 40
0.7407407407407407
 40
0.7407407407407407
 40
0.7592592592592593
 40
0.7592592592592593
 40
0.7592592592592593
 40
0.7592592592592593
 40
0.7777777777777778
 40
0.7777777777777778
 40
0.7777777777777778
 40
0.7777777777777778
 40
0.7962962962962963
 40
0.7962962962962963
 40
0.7962962962962963
 40
0.7962962962962963
 40
0.8148148148148148
 40
0.8148148148148148
 40
0.8148148148148148
 40
0.8148148148148148
 40
0.8333333333333334
 40
0.8333333333333334
 40
0.8333333333333334
 40
0.8333333333333334
 40
0.8518518518518519
 40
0.8518518518518519
 40
0.8518518518518519
 40
0.8518518518518519
 40
0.8703703703703703
 40
0.8703703703703703
 40
0.8703703703703703
 40
0.8703703703703703
 40
0.8888888888888888
 40
0.8888888888888888
 40
0.8888888888888888
 40
0.8888888888888888
 40
0.9074074074074074
 40
0.9074074074074074
 40
0.9074074074074074
 40
0.9074074074074074
 40
0.9259259259259259
 40
0.9259259259259259
 40
0.9259259259259259
 40
0.9259259259259259
 40
0.9444444444444444
 40
0.9444444444444444
 40
0.9444444444444444
 40
0.9444444444444444
 40
0.9629629629629629
 40
0.9629629629629629
 40
0.9629629629629629
 40
0.9629629629629629
 40
1.0
 40
1.0
 40
1.0
 40
1.0
 10
3.8155
 20
-8.5672
 30
0.0
 10
3.8155
 20
-8.5672
 30
0.0
 10
3.7314
 20
-8.6759
 30
0.0
 10
3.7314
 20
-8.6759
 30
0.0
 10
3.7314
 20
-8.6759
 30
0.0
 10
3.7314
 20
-8.6759
 30
0.0
 10
3.6385
 20
-8.7976
 30
0.0
 10
3.6385
 20
-8.7976
 30
0.0
 10
3.6385
 20
-8.7976
 30
0.0
 10
3.6385
 20
-8.7976
 30
0.0
 10
3.5372
 20
-8.9324
 30
0.0
 10
3.5372
 20
-8.9324
 30
0.0
 10
3.5372
 20
-8.9324
 30
0.0
 10
3.5372
 20
-8.9324
 30
0.0
 10
3.4279
 20
-9.0807
 30
0.0
 10
3.4279
 20
-9.0807
 30
0.0
 10
3.4279
 20
-9.0807
 30
0.0
 10
3.4279
 20
-9.0807
 30
0.0
 10
3.3114
 20
-9.2424
 30
0.0
 10
3.3114
 20
-9.2424
 30
0.0
 10
3.3114
 20
-9.2424
 30
0.0
 10
3.3114
 20
-9.2424
 30
0.0
 10
3.1889
 20
-9.4173
 30
0.0
 10
3.1889
 20
-9.4173
 30
0.0
 10
3.1889
 20
-9.4173
 30
0.0
 10
3.1889
 20
-9.4173
 30
0.0
 10
3.062
 20
-9.6047
 30
0.0
 10
3.062
 20
-9.6047
 30
0.0
 10
3.062
 20
-9.6047
 30
0.0
 10
3.062
 20
-9.6047
 30
0.0
 10
2.9333
 20
-9.8026
 30
0.0
 10
2.9333
 20
-9.8026
 30
0.0
 10
2.9333
 20
-9.8026
 30
0.0
 10
2.9333
 20
-9.8026
 30
0.0
 10
2.8059
 20
-10.0086
 30
0.0
 10
2.8059
 20
-10.0086
 30
0.0
 10
2.8059
 20
-10.0086
 30
0.0
 10
2.8059
 20
-10.0086
 30
0.0
 10
2.6836
 20
-10.2187
 30
0.0
 10
2.6836
 20
-10.2187
 30
0.0
 10
2.6836
 20
-10.2187
 30
0.0
 10
2.6836
 20
-10.2187
 30
0.0
 10
2.5696
 20
-10.4288
 30
0.0
 10
2.5696
 20
-10.4288
 30
0.0
 10
2.5696
 20
-10.4288
 30
0.0
 10
2.5696
 20
-10.4288
 30
0.0
 10
2.4665
 20
-10.6355
 30
0.0
 10
2.4665
 20
-10.6355
 30
0.0
 10
2.4665
 20
-10.6355
 30
0.0
 10
2.4665
 20
-10.6355
 30
0.0
 10
2.3759
 20
-10.8359
 30
0.0
 10
2.3759
 20
-10.8359
 30
0.0
 10
2.3759
 20
-10.8359
 30
0.0
 10
2.3759
 20
-10.8359
 30
0.0
 10
2.2982
 20
-11.0288
 30
0.0
 10
2.2982
 20
-11.0288
 30
0.0
 10
2.2982
 20
-11.0288
 30
0.0
 10
2.2982
 20
-11.0288
 30
0.0
 10
2.2329
 20
-11.2141
 30
0.0
 10
2.2329
 20
-11.2141
 30
0.0
 10
2.2329
 20
-11.2141
 30
0.0
 10
2.2329
 20
-11.2141
 30
0.0
 10
2.1793
 20
-11.3921
 30
0.0
 10
2.1793
 20
-11.3921
 30
0.0
 10
2.1793
 20
-11.3921
 30
0.0
 10
2.1793
 20
-11.3921
 30
0.0
 10
2.1367
 20
-11.5641
 30
0.0
 10
2.1367
 20
-11.5641
 30
0.0
 10
2.1367
 20
-11.5641
 30
0.0
 10
2.1367
 20
-11.5641
 30
0.0
 10
2.1041
 20
-11.7309
 30
0.0
 10
2.1041
 20
-11.7309
 30
0.0
 10
2.1041
 20
-11.7309
 30
0.0
 10
2.1041
 20
-11.7309
 30
0.0
 10
2.081
 20
-11.894
 30
0.0
 10
2.081
 20
-11.894
 30
0.0
 10
2.081
 20
-11.894
 30
0.0
 10
2.081
 20
-11.894
 30
0.0
 10
2.0668
 20
-12.0551
 30
0.0
 10
2.0668
 20
-12.0551
 30
0.0
 10
2.0668
 20
-12.0551
 30
0.0
 10
2.0668
 20
-12.0551
 30
0.0
 10
2.0613
 20
-12.2149
 30
0.0
 10
2.0613
 20
-12.2149
 30
0.0
 10
2.0613
 20
-12.2149
 30
0.0
 10
2.0613
 20
-12.2149
 30
0.0
 10
2.0644
 20
-12.3743
 30
0.0
 10
2.0644
 20
-12.3743
 30
0.0
 10
2.0644
 20
-12.3743
 30
0.0
 10
2.0644
 20
-12.3743
 30
0.0
 10
2.0762
 20
-12.535
 30
0.0
 10
2.0762
 20
-12.535
 30
0.0
 10
2.0762
 20
-12.535
 30
0.0
 10
2.0762
 20
-12.535
 30
0.0
 10
2.097
 20
-12.6983
 30
0.0
 10
2.097
 20
-12.6983
 30
0.0
 10
2.097
 20
-12.6983
 30
0.0
 10
2.097
 20
-12.6983
 30
0.0
 10
2.1271
 20
-12.8649
 30
0.0
 10
2.1271
 20
-12.8649
 30
0.0
 10
2.1271
 20
-12.8649
 30
0.0
 10
2.1271
 20
-12.8649
 30
0.0
 10
2.1672
 20
-13.036
 30
0.0
 10
2.1672
 20
-13.036
 30
0.0
 10
2.1672
 20
-13.036
 30
0.0
 10
2.1672
 20
-13.036
 30
0.0
 10
2.2181
 20
-13.2132
 30
0.0
 10
2.2181
 20
-13.2132
 30
0.0
 10
2.2181
 20
-13.2132
 30
0.0
 10
2.2181
 20
-13.2132
 30
0.0
 10
2.2805
 20
-13.3974
 30
0.0
 10
2.2805
 20
-13.3974
 30
0.0
 10
2.2805
 20
-13.3974
 30
0.0
 10
2.2805
 20
-13.3974
 30
0.0
 10
2.3555
 20
-13.5893
 30
0.0
 10
2.3555
 20
-13.5893
 30
0.0
 10
2.3555
 20
-13.5893
 30
0.0
 10
2.3555
 20
-13.5893
 30
0.0
 10
2.4434
 20
-13.789
 30
0.0
 10
2.4434
 20
-13.789
 30
0.0
 10
2.4434
 20
-13.789
 30
0.0
 10
2.4434
 20
-13.789
 30
0.0
 10
2.5441
 20
-13.9955
 30
0.0
 10
2.5441
 20
-13.9955
 30
0.0
 10
2.5441
 20
-13.9955
 30
0.0
 10
2.5441
 20
-13.9955
 30
0.0
 10
2.6571
 20
-14.2076
 30
0.0
 10
2.6571
 20
-14.2076
 30
0.0
 10
2.6571
 20
-14.2076
 30
0.0
 10
2.6571
 20
-14.2076
 30
0.0
 10
2.7804
 20
-14.4223
 30
0.0
 10
2.7804
 20
-14.4223
 30
0.0
 10
2.7804
 20
-14.4223
 30
0.0
 10
2.7804
 20
-14.4223
 30
0.0
 10
2.9112
 20
-14.636
 30
0.0
 10
2.9112
 20
-14.636
 30
0.0
 10
2.9112
 20
-14.636
 30
0.0
 10
2.9112
 20
-14.636
 30
0.0
 10
3.0455
 20
-14.8441
 30
0.0
 10
3.0455
 20
-14.8441
 30
0.0
 10
3.0455
 20
-14.8441
 30
0.0
 10
3.0455
 20
-14.8441
 30
0.0
 10
3.1796
 20
-15.0429
 30
0.0
 10
3.1796
 20
-15.0429
 30
0.0
 10
3.1796
 20
-15.0429
 30
0.0
 10
3.1796
 20
-15.0429
 30
0.0
 10
3.3108
 20
-15.2304
 30
0.0
 10
3.3108
 20
-15.2304
 30
0.0
 10
3.3108
 20
-15.2304
 30
0.0
 10
3.3108
 20
-15.2304
 30
0.0
 10
3.4369
 20
-15.4052
 30
0.0
 10
3.4369
 20
-15.4052
 30
0.0
 10
3.4369
 20
-15.4052
 30
0.0
 10
3.4369
 20
-15.4052
 30
0.0
 10
3.5565
 20
-15.5671
 30
0.0
 10
3.5565
 20
-15.5671
 30
0.0
 10
3.5565
 20
-15.5671
 30
0.0
 10
3.5565
 20
-15.5671
 30
0.0
 10
3.6685
 20
-15.7156
 30
0.0
 10
3.6685
 20
-15.7156
 30
0.0
 10
3.6685
 20
-15.7156
 30
0.0
 10
3.6685
 20
-15.7156
 30
0.0
 10
3.7721
 20
-15.8505
 30
0.0
 10
3.7721
 20
-15.8505
 30
0.0
 10
3.7721
 20
-15.8505
 30
0.0
 10
3.7721
 20
-15.8505
 30
0.0
 10
3.8669
 20
-15.9723
 30
0.0
 10
3.8669
 20
-15.9723
 30
0.0
 10
3.8669
 20
-15.9723
 30
0.0
 10
3.8669
 20
-15.9723
 30
0.0
 10
3.9528
 20
-16.0812
 30
0.0
 10
3.9528
 20
-16.0812
 30
0.0
 10
3.9528
 20
-16.0812
 30
0.0
 10
3.9528
 20
-16.0812
 30
0.0
 10
4.0297
 20
-16.1779
 30
0.0
 10
4.0297
 20
-16.1779
 30
0.0
 10
4.0297
 20
-16.1779
 30
0.0
 10
4.0297
 20
-16.1779
 30
0.0
 10
4.0978
 20
-16.2628
 30
0.0
 10
4.0978
 20
-16.2628
 30
0.0
 10
4.0978
 20
-16.2628
 30
0.0
 10
4.0978
 20
-16.2628
 30
0.0
 10
4.1574
 20
-16.3365
 30
0.0
 10
4.1574
 20
-16.3365
 30
0.0
 10
4.1574
 20
-16.3365
 30
0.0
 10
4.1574
 20
-16.3365
 30
0.0
 10
4.2084
 20
-16.3992
 30
0.0
 10
4.2084
 20
-16.3992
 30
0.0
 10
4.2084
 20
-16.3992
 30
0.0
 10
4.2084
 20
-16.3992
 30
0.0
 10
4.2512
 20
-16.4517
 30
0.0
 10
4.2512
 20
-16.4517
 30
0.0
 10
4.2512
 20
-16.4517
 30
0.0
 10
4.2512
 20
-16.4517
 30
0.0
 10
4.286
 20
-16.4941
 30
0.0
 10
4.286
 20
-16.4941
 30
0.0
 10
4.286
 20
-16.4941
 30
0.0
 10
4.286
 20
-16.4941
 30
0.0
 10
4.3129
 20
-16.5268
 30
0.0
 10
4.3129
 20
-16.5268
 30
0.0
 10
4.3129
 20
-16.5268
 30
0.0
 10
4.3129
 20
-16.5268
 30
0.0
 10
4.3321
 20
-16.5501
 30
0.0
 10
4.3321
 20
-16.5501
 30
0.0
 10
4.3321
 20
-16.5501
 30
0.0
 10
4.3321
 20
-16.5501
 30
0.0
 10
4.3435
 20
-16.5639
 30
0.0
 10
4.3435
 20
-16.5639
 30
0.0
 10
4.3435
 20
-16.5639
 30
0.0
 10
4.3435
 20
-16.5639
 30
0.0
 10
4.3473
 20
-16.5685
 30
0.0
 10
4.3473
 20
-16.5685
 30
0.0
  0
SPLINE
  5
D5
330
1F
100
AcDbEntity
  8
DEFAULT_1
 62
   250
100
AcDbSpline
210
0.0
220
0.0
230
1.0
 70
     8
 71
     3
 72
    56
 73
    52
 74
     0
 42
0.0000000001
 43
0.0000000001
 40
0.0
 40
0.0
 40
0.0
 40
0.0
 40
0.0714285714285714
 40
0.0714285714285714
 40
0.0714285714285714
 40
0.0714285714285714
 40
0.1428571428571428
 40
0.1428571428571428
 40
0.1428571428571428
 40
0.1428571428571428
 40
0.2142857142857143
 40
0.2142857142857143
 40
0.2142857142857143
 40
0.2142857142857143
 40
0.2857142857142857
 40
0.2857142857142857
 40
0.2857142857142857
 40
0.2857142857142857
 40
0.3571428571428572
 40
0.3571428571428572
 40
0.3571428571428572
 40
0.3571428571428572
 40
0.4285714285714285
 40
0.4285714285714285
 40
0.4285714285714285
 40
0.4285714285714285
 40
0.5
 40
0.5
 40
0.5
 40
0.5
 40
0.5714285714285714
 40
0.5714285714285714
 40
0.5714285714285714
 40
0.5714285714285714
 40
0.6428571428571429
 40
0.6428571428571429
 40
0.6428571428571429
 40
0.6428571428571429
 40
0.7142857142857143
 40
0.7142857142857143
 40
0.7142857142857143
 40
0.7142857142857143
 40
0.7857142857142857
 40
0.7857142857142857
 40
0.7857142857142857
 40
0.7857142857142857
 40
0.8571428571428571
 40
0.8571428571428571
 40
0.8571428571428571
 40
0.8571428571428571
 40
1.0
 40
1.0
 40
1.0
 40
1.0
 10
4.0213
 20
-8.0857
 30
0.0
 10
4.0213
 20
-8.0857
 30
0.0
 10
4.0214
 20
-8.089
 30
0.0
 10
4.0214
 20
-8.089
 30
0.0
 10
4.0214
 20
-8.089
 30
0.0
 10
4.0214
 20
-8.089
 30
0.0
 10
4.0213
 20
-8.0991
 30
0.0
 10
4.0213
 20
-8.0991
 30
0.0
 10
4.0213
 20
-8.0991
 30
0.0
 10
4.0213
 20
-8.0991
 30
0.0
 10
4.0206
 20
-8.1159
 30
0.0
 10
4.0206
 20
-8.1159
 30
0.0
 10
4.0206
 20
-8.1159
 30
0.0
 10
4.0206
 20
-8.1159
 30
0.0
 10
4.0186
 20
-8.1389
 30
0.0
 10
4.0186
 20
-8.1389
 30
0.0
 10
4.0186
 20
-8.1389
 30
0.0
 10
4.0186
 20
-8.1389
 30
0.0
 10
4.0144
 20
-8.1675
 30
0.0
 10
4.0144
 20
-8.1675
 30
0.0
 10
4.0144
 20
-8.1675
 30
0.0
 10
4.0144
 20
-8.1675
 30
0.0
 10
4.0069
 20
-8.2028
 30
0.0
 10
4.0069
 20
-8.2028
 30
0.0
 10
4.0069
 20
-8.2028
 30
0.0
 10
4.0069
 20
-8.2028
 30
0.0
 10
3.9943
 20
-8.2469
 30
0.0
 10
3.9943
 20
-8.2469
 30
0.0
 10
3.9943
 20
-8.2469
 30
0.0
 10
3.9943
 20
-8.2469
 30
0.0
 10
3.9773
 20
-8.2942
 30
0.0
 10
3.9773
 20
-8.2942
 30
0.0
 10
3.9773
 20
-8.2942
 30
0.0
 10
3.9773
 20
-8.2942
 30
0.0
 10
3.957
 20
-8.341
 30
0.0
 10
3.957
 20
-8.341
 30
0.0
 10
3.957
 20
-8.341
 30
0.0
 10
3.957
 20
-8.341
 30
0.0
 10
3.9313
 20
-8.3917
 30
0.0
 10
3.9313
 20
-8.3917
 30
0.0
 10
3.9313
 20
-8.3917
 30
0.0
 10
3.9313
 20
-8.3917
 30
0.0
 10
3.8994
 20
-8.4469
 30
0.0
 10
3.8994
 20
-8.4469
 30
0.0
 10
3.8994
 20
-8.4469
 30
0.0
 10
3.8994
 20
-8.4469
 30
0.0
 10
3.8607
 20
-8.5058
 30
0.0
 10
3.8607
 20
-8.5058
 30
0.0
 10
3.8607
 20
-8.5058
 30
0.0
 10
3.8607
 20
-8.5058
 30
0.0
 10
3.8155
 20
-8.5672
 30
0.0
 10
3.8155
 20
-8.5672
 30
0.0
  0
SPLINE
  5
D6
330
1F
100
AcDbEntity
  8
DEFAULT_1
 62
   250
100
AcDbSpline
210
0.0
220
0.0
230
1.0
 70
    11
 71
     3
 72
   164
 73
   160
 74
     0
 42
0.0000000001
 43
0.0000000001
 40
0.0
 40
0.0
 40
0.0
 40
0.0
 40
0.024390243902439
 40
0.024390243902439
 40
0.024390243902439
 40
0.024390243902439
 40
0.0487804878048781
 40
0.0487804878048781
 40
0.0487804878048781
 40
0.0487804878048781
 40
0.0731707317073171
 40
0.0731707317073171
 40
0.0731707317073171
 40
0.0731707317073171
 40
0.0975609756097561
 40
0.0975609756097561
 40
0.0975609756097561
 40
0.0975609756097561
 40
0.1219512195121951
 40
0.1219512195121951
 40
0.1219512195121951
 40
0.1219512195121951
 40
0.1463414634146341
 40
0.1463414634146341
 40
0.1463414634146341
 40
0.1463414634146341
 40
0.1707317073170732
 40
0.1707317073170732
 40
0.1707317073170732
 40
0.1707317073170732
 40
0.1951219512195122
 40
0.1951219512195122
 40
0.1951219512195122
 40
0.1951219512195122
 40
0.2195121951219512
 40
0.2195121951219512
 40
0.2195121951219512
 40
0.2195121951219512
 40
0.2439024390243902
 40
0.2439024390243902
 40
0.2439024390243902
 40
0.2439024390243902
 40
0.2682926829268293
 40
0.2682926829268293
 40
0.2682926829268293
 40
0.2682926829268293
 40
0.2926829268292683
 40
0.2926829268292683
 40
0.2926829268292683
 40
0.2926829268292683
 40
0.3170731707317073
 40
0.3170731707317073
 40
0.3170731707317073
 40
0.3170731707317073
 40
0.3414634146341464
 40
0.3414634146341464
 40
0.3414634146341464
 40
0.3414634146341464
 40
0.3658536585365854
 40
0.3658536585365854
 40
0.3658536585365854
 40
0.3658536585365854
 40
0.3902439024390244
 40
0.3902439024390244
 40
0.3902439024390244
 40
0.3902439024390244
 40
0.4146341463414634
 40
0.4146341463414634
 40
0.4146341463414634
 40
0.4146341463414634
 40
0.4390243902439024
 40
0.4390243902439024
 40
0.4390243902439024
 40
0.4390243902439024
 40
0.4634146341463415
 40
0.4634146341463415
 40
0.4634146341463415
 40
0.4634146341463415
 40
0.4878048780487805
 40
0.4878048780487805
 40
0.4878048780487805
 40
0.4878048780487805
 40
0.5121951219512195
 40
0.5121951219512195
 40
0.5121951219512195
 40
0.5121951219512195
 40
0.5365853658536586
 40
0.5365853658536586
 40
0.5365853658536586
 40
0.5365853658536586
 40
0.5609756097560976
 40
0.5609756097560976
 40
0.5609756097560976
 40
0.5609756097560976
 40
0.5853658536585366
 40
0.5853658536585366
 40
0.5853658536585366
 40
0.5853658536585366
 40
0.6097560975609756
 40
0.6097560975609756
 40
0.6097560975609756
 40
0.6097560975609756
 40
0.6341463414634146
 40
0.6341463414634146
 40
0.6341463414634146
 40
0.6341463414634146
 40
0.6585365853658537
 40
0.6585365853658537
 40
0.6585365853658537
 40
0.6585365853658537
 40
0.6829268292682927
 40
0.6829268292682927
 40
0.6829268292682927
 40
0.6829268292682927
 40
0.7073170731707317
 40
0.7073170731707317
 40
0.7073170731707317
 40
0.7073170731707317
 40
0.7317073170731707
 40
0.7317073170731707
 40
0.7317073170731707
 40
0.7317073170731707
 40
0.7560975609756098
 40
0.7560975609756098
 40
0.7560975609756098
 40
0.7560975609756098
 40
0.7804878048780488
 40
0.7804878048780488
 40
0.7804878048780488
 40
0.7804878048780488
 40
0.8048780487804879
 40
0.8048780487804879
 40
0.8048780487804879
 40
0.8048780487804879
 40
0.8292682926829268
 40
0.8292682926829268
 40
0.8292682926829268
 40
0.8292682926829268
 40
0.8536585365853658
 40
0.8536585365853658
 40
0.8536585365853658
 40
0.8536585365853658
 40
0.8780487804878049
 40
0.8780487804878049
 40
0.8780487804878049
 40
0.8780487804878049
 40
0.9024390243902439
 40
0.9024390243902439
 40
0.9024390243902439
 40
0.9024390243902439
 40
0.926829268292683
 40
0.926829268292683
 40
0.926829268292683
 40
0.926829268292683
 40
0.9512195121951219
 40
0.9512195121951219
 40
0.9512195121951219
 40
0.9512195121951219
 40
1.0
 40
1.0
 40
1.0
 40
1.0
 10
-1.1069
 20
-6.1463
 30
0.0
 10
-1.1069
 20
-6.1463
 30
0.0
 10
-3.5572
 20
-6.1463
 30
0.0
 10
-3.5572
 20
-6.1463
 30
0.0
 10
-3.5572
 20
-6.1463
 30
0.0
 10
-3.5572
 20
-6.1463
 30
0.0
 10
-3.5449
 20
-5.0611
 30
0.0
 10
-3.5449
 20
-5.0611
 30
0.0
 10
-3.5449
 20
-5.0611
 30
0.0
 10
-3.5449
 20
-5.0611
 30
0.0
 10
-3.614
 20
-4.8997
 30
0.0
 10
-3.614
 20
-4.8997
 30
0.0
 10
-3.614
 20
-4.8997
 30
0.0
 10
-3.614
 20
-4.8997
 30
0.0
 10
-3.7435
 20
-4.7808
 30
0.0
 10
-3.7435
 20
-4.7808
 30
0.0
 10
-3.7435
 20
-4.7808
 30
0.0
 10
-3.7435
 20
-4.7808
 30
0.0
 10
-3.8385
 20
-4.7978
 30
0.0
 10
-3.8385
 20
-4.7978
 30
0.0
 10
-3.8385
 20
-4.7978
 30
0.0
 10
-3.8385
 20
-4.7978
 30
0.0
 10
-3.9163
 20
-4.8657
 30
0.0
 10
-3.9163
 20
-4.8657
 30
0.0
 10
-3.9163
 20
-4.8657
 30
0.0
 10
-3.9163
 20
-4.8657
 30
0.0
 10
-3.9595
 20
-4.9761
 30
0.0
 10
-3.9595
 20
-4.9761
 30
0.0
 10
-3.9595
 20
-4.9761
 30
0.0
 10
-3.9595
 20
-4.9761
 30
0.0
 10
-4.0026
 20
-5.1291
 30
0.0
 10
-4.0026
 20
-5.1291
 30
0.0
 10
-4.0026
 20
-5.1291
 30
0.0
 10
-4.0026
 20
-5.1291
 30
0.0
 10
-4.0026
 20
-6.1398
 30
0.0
 10
-4.0026
 20
-6.1398
 30
0.0
 10
-4.0026
 20
-6.1398
 30
0.0
 10
-4.0026
 20
-6.1398
 30
0.0
 10
-4.9613
 20
-6.1484
 30
0.0
 10
-4.9613
 20
-6.1484
 30
0.0
 10
-4.9613
 20
-6.1484
 30
0.0
 10
-4.9613
 20
-6.1484
 30
0.0
 10
-4.944
 20
-4.2965
 30
0.0
 10
-4.944
 20
-4.2965
 30
0.0
 10
-4.944
 20
-4.2965
 30
0.0
 10
-4.944
 20
-4.2965
 30
0.0
 10
-4.9008
 20
-4.1862
 30
0.0
 10
-4.9008
 20
-4.1862
 30
0.0
 10
-4.9008
 20
-4.1862
 30
0.0
 10
-4.9008
 20
-4.1862
 30
0.0
 10
-4.8058
 20
-4.1012
 30
0.0
 10
-4.8058
 20
-4.1012
 30
0.0
 10
-4.8058
 20
-4.1012
 30
0.0
 10
-4.8058
 20
-4.1012
 30
0.0
 10
-4.7282
 20
-4.0587
 30
0.0
 10
-4.7282
 20
-4.0587
 30
0.0
 10
-4.7282
 20
-4.0587
 30
0.0
 10
-4.7282
 20
-4.0587
 30
0.0
 10
-4.6158
 20
-4.0247
 30
0.0
 10
-4.6158
 20
-4.0247
 30
0.0
 10
-4.6158
 20
-4.0247
 30
0.0
 10
-4.6158
 20
-4.0247
 30
0.0
 10
3.0425
 20
-4.0186
 30
0.0
 10
3.0425
 20
-4.0186
 30
0.0
 10
3.0425
 20
-4.0186
 30
0.0
 10
3.0425
 20
-4.0186
 30
0.0
 10
3.2001
 20
-4.0775
 30
0.0
 10
3.2001
 20
-4.0775
 30
0.0
 10
3.2001
 20
-4.0775
 30
0.0
 10
3.2001
 20
-4.0775
 30
0.0
 10
3.3067
 20
-4.1673
 30
0.0
 10
3.3067
 20
-4.1673
 30
0.0
 10
3.3067
 20
-4.1673
 30
0.0
 10
3.3067
 20
-4.1673
 30
0.0
 10
3.3371
 20
-4.3245
 30
0.0
 10
3.3371
 20
-4.3245
 30
0.0
 10
3.3371
 20
-4.3245
 30
0.0
 10
3.3371
 20
-4.3245
 30
0.0
 10
3.3371
 20
-6.166
 30
0.0
 10
3.3371
 20
-6.166
 30
0.0
 10
3.3371
 20
-6.166
 30
0.0
 10
3.3371
 20
-6.166
 30
0.0
 10
2.3629
 20
-6.1585
 30
0.0
 10
2.3629
 20
-6.1585
 30
0.0
 10
2.3629
 20
-6.1585
 30
0.0
 10
2.3629
 20
-6.1585
 30
0.0
 10
2.3857
 20
-5.088
 30
0.0
 10
2.3857
 20
-5.088
 30
0.0
 10
2.3857
 20
-5.088
 30
0.0
 10
2.3857
 20
-5.088
 30
0.0
 10
2.3325
 20
-4.8859
 30
0.0
 10
2.3325
 20
-4.8859
 30
0.0
 10
2.3325
 20
-4.8859
 30
0.0
 10
2.3325
 20
-4.8859
 30
0.0
 10
2.2716
 20
-4.7961
 30
0.0
 10
2.2716
 20
-4.7961
 30
0.0
 10
2.2716
 20
-4.7961
 30
0.0
 10
2.2716
 20
-4.7961
 30
0.0
 10
2.2031
 20
-4.7961
 30
0.0
 10
2.2031
 20
-4.7961
 30
0.0
 10
2.2031
 20
-4.7961
 30
0.0
 10
2.2031
 20
-4.7961
 30
0.0
 10
2.127
 20
-4.7961
 30
0.0
 10
2.127
 20
-4.7961
 30
0.0
 10
2.127
 20
-4.7961
 30
0.0
 10
2.127
 20
-4.7961
 30
0.0
 10
2.0204
 20
-4.8784
 30
0.0
 10
2.0204
 20
-4.8784
 30
0.0
 10
2.0204
 20
-4.8784
 30
0.0
 10
2.0204
 20
-4.8784
 30
0.0
 10
1.9519
 20
-5.0057
 30
0.0
 10
1.9519
 20
-5.0057
 30
0.0
 10
1.9519
 20
-5.0057
 30
0.0
 10
1.9519
 20
-5.0057
 30
0.0
 10
1.9519
 20
-5.0806
 30
0.0
 10
1.9519
 20
-5.0806
 30
0.0
 10
1.9519
 20
-5.0806
 30
0.0
 10
1.9519
 20
-5.0806
 30
0.0
 10
1.9519
 20
-6.1435
 30
0.0
 10
1.9519
 20
-6.1435
 30
0.0
 10
1.9519
 20
-6.1435
 30
0.0
 10
1.9519
 20
-6.1435
 30
0.0
 10
-0.5214
 20
-6.1435
 30
0.0
 10
-0.5214
 20
-6.1435
 30
0.0
 10
-0.5214
 20
-6.1435
 30
0.0
 10
-0.5214
 20
-6.1435
 30
0.0
 10
-0.5214
 20
-5.103
 30
0.0
 10
-0.5214
 20
-5.103
 30
0.0
 10
-0.5214
 20
-5.103
 30
0.0
 10
-0.5214
 20
-5.103
 30
0.0
 10
-0.552
 20
-4.9607
 30
0.0
 10
-0.552
 20
-4.9607
 30
0.0
 10
-0.552
 20
-4.9607
 30
0.0
 10
-0.552
 20
-4.9607
 30
0.0
 10
-0.628
 20
-4.856
 30
0.0
 10
-0.628
 20
-4.856
 30
0.0
 10
-0.628
 20
-4.856
 30
0.0
 10
-0.628
 20
-4.856
 30
0.0
 10
-0.7726
 20
-4.811
 30
0.0
 10
-0.7726
 20
-4.811
 30
0.0
 10
-0.7726
 20
-4.811
 30
0.0
 10
-0.7726
 20
-4.811
 30
0.0
 10
-0.9173
 20
-4.8335
 30
0.0
 10
-0.9173
 20
-4.8335
 30
0.0
 10
-0.9173
 20
-4.8335
 30
0.0
 10
-0.9173
 20
-4.8335
 30
0.0
 10
-1.0238
 20
-4.8784
 30
0.0
 10
-1.0238
 20
-4.8784
 30
0.0
 10
-1.0238
 20
-4.8784
 30
0.0
 10
-1.0238
 20
-4.8784
 30
0.0
 10
-1.0847
 20
-4.9458
 30
0.0
 10
-1.0847
 20
-4.9458
 30
0.0
 10
-1.0847
 20
-4.9458
 30
0.0
 10
-1.0847
 20
-4.9458
 30
0.0
 10
-1.1151
 20
-5.0132
 30
0.0
 10
-1.1151
 20
-5.0132
 30
0.0
 10
-1.1151
 20
-5.0132
 30
0.0
 10
-1.1151
 20
-5.0132
 30
0.0
 10
-1.1069
 20
-6.1463
 30
0.0
 10
-1.1069
 20
-6.1463
 30
0.0
  0
SPLINE
  5
D7
330
1F
100
AcDbEntity
  8
DEFAULT_1
 62
   250
100
AcDbSpline
210
0.0
220
0.0
230
1.0
 70
    11
 71
     3
 72
    28
 73
    24
 74
     0
 42
0.0000000001
 43
0.0000000001
 40
0.0
 40
0.0
 40
0.0
 40
0.0
 40
0.1428571428571428
 40
0.1428571428571428
 40
0.1428571428571428
 40
0.1428571428571428
 40
0.2857142857142857
 40
0.2857142857142857
 40
0.2857142857142857
 40
0.2857142857142857
 40
0.4285714285714285
 40
0.4285714285714285
 40
0.4285714285714285
 40
0.4285714285714285
 40
0.5714285714285714
 40
0.5714285714285714
 40
0.5714285714285714
 40
0.5714285714285714
 40
0.7142857142857143
 40
0.7142857142857143
 40
0.7142857142857143
 40
0.7142857142857143
 40
1.0
 40
1.0
 40
1.0
 40
1.0
 10
-5.0171
 20
-4.7862
 30
0.0
 10
-5.0171
 20
-4.7862
 30
0.0
 10
-5.0171
 20
-6.5998
 30
0.0
 10
-5.0171
 20
-6.5998
 30
0.0
 10
-5.0171
 20
-6.5998
 30
0.0
 10
-5.0171
 20
-6.5998
 30
0.0
 10
3.4165
 20
-6.5998
 30
0.0
 10
3.4165
 20
-6.5998
 30
0.0
 10
3.4165
 20
-6.5998
 30
0.0
 10
3.4165
 20
-6.5998
 30
0.0
 10
3.4165
 20
-4.7862
 30
0.0
 10
3.4165
 20
-4.7862
 30
0.0
 10
3.4165
 20
-4.7862
 30
0.0
 10
3.4165
 20
-4.7862
 30
0.0
 10
3.4165
 20
-6.5998
 30
0.0
 10
3.4165
 20
-6.5998
 30
0.0
 10
3.4165
 20
-6.5998
 30
0.0
 10
3.4165
 20
-6.5998
 30
0.0
 10
-5.0171
 20
-6.5998
 30
0.0
 10
-5.0171
 20
-6.5998
 30
0.0
 10
-5.0171
 20
-6.5998
 30
0.0
 10
-5.0171
 20
-6.5998
 30
0.0
 10
-5.0171
 20
-4.7862
 30
0.0
 10
-5.0171
 20
-4.7862
 30
0.0
  0
SPLINE
  5
D8
330
1F
100
AcDbEntity
  8
DEFAULT_1
 62
   250
100
AcDbSpline
210
0.0
220
0.0
230
1.0
 70
     8
 71
     3
 72
    24
 73
    20
 74
     0
 42
0.0000000001
 43
0.0000000001
 40
0.0
 40
0.0
 40
0.0
 40
0.0
 40
0.1666666666666667
 40
0.1666666666666667
 40
0.1666666666666667
 40
0.1666666666666667
 40
0.3333333333333333
 40
0.3333333333333333
 40
0.3333333333333333
 40
0.3333333333333333
 40
0.5
 40
0.5
 40
0.5
 40
0.5
 40
0.6666666666666666
 40
0.6666666666666666
 40
0.6666666666666666
 40
0.6666666666666666
 40
1.0
 40
1.0
 40
1.0
 40
1.0
 10
-4.4759
 20
-6.6127
 30
0.0
 10
-4.4759
 20
-6.6127
 30
0.0
 10
-4.483
 20
-6.9325
 30
0.0
 10
-4.483
 20
-6.9325
 30
0.0
 10
-4.483
 20
-6.9325
 30
0.0
 10
-4.483
 20
-6.9325
 30
0.0
 10
-4.2625
 20
-6.9325
 30
0.0
 10
-4.2625
 20
-6.9325
 30
0.0
 10
-4.2625
 20
-6.9325
 30
0.0
 10
-4.2625
 20
-6.9325
 30
0.0
 10
2.4607
 20
-6.9325
 30
0.0
 10
2.4607
 20
-6.9325
 30
0.0
 10
2.4607
 20
-6.9325
 30
0.0
 10
2.4607
 20
-6.9325
 30
0.0
 10
2.6813
 20
-6.9325
 30
0.0
 10
2.6813
 20
-6.9325
 30
0.0
 10
2.6813
 20
-6.9325
 30
0.0
 10
2.6813
 20
-6.9325
 30
0.0
 10
2.681
 20
-6.5895
 30
0.0
 10
2.681
 20
-6.5895
 30
0.0
  0
SPLINE
  5
D9
330
1F
100
AcDbEntity
  8
DEFAULT_1
 62
   250
100
AcDbSpline
210
0.0
220
0.0
230
1.0
 70
    27
 71
     3
 72
    16
 73
    12
 74
     0
 42
0.0000000001
 43
0.0000000001
 40
0.0
 40
0.0
 40
0.0
 40
0.0
 40
0.25
 40
0.25
 40
0.25
 40
0.25
 40
0.5
 40
0.5
 40
0.5
 40
0.5
 40
1.0
 40
1.0
 40
1.0
 40
1.0
 10
2.4607
 20
-6.9324
 30
0.0
 10
2.4607
 20
-6.9324
 30
0.0
 10
2.4607
 20
-6.9325
 30
0.0
 10
2.4607
 20
-6.9325
 30
0.0
 10
2.4607
 20
-6.9325
 30
0.0
 10
2.4607
 20
-6.9325
 30
0.0
 10
2.4607
 20
-7.831
 30
0.0
 10
2.4607
 20
-7.831
 30
0.0
 10
2.4607
 20
-7.831
 30
0.0
 10
2.4607
 20
-7.831
 30
0.0
 10
2.4607
 20
-6.9324
 30
0.0
 10
2.4607
 20
-6.9324
 30
0.0
  0
SPLINE
  5
DA
330
1F
100
AcDbEntity
  8
DEFAULT_1
 62
   250
100
AcDbSpline
210
0.0
220
0.0
230
1.0
 70
    27
 71
     3
 72
    20
 73
    16
 74
     0
 42
0.0000000001
 43
0.0000000001
 40
0.0
 40
0.0
 40
0.0
 40
0.0
 40
0.2
 40
0.2
 40
0.2
 40
0.2
 40
0.4
 40
0.4
 40
0.4
 40
0.4
 40
0.6
 40
0.6
 40
0.6
 40
0.6
 40
1.0
 40
1.0
 40
1.0
 40
1.0
 10
-4.2625
 20
-6.9324
 30
0.0
 10
-4.2625
 20
-6.9324
 30
0.0
 10
-4.2625
 20
-6.9325
 30
0.0
 10
-4.2625
 20
-6.9325
 30
0.0
 10
-4.2625
 20
-6.9325
 30
0.0
 10
-4.2625
 20
-6.9325
 30
0.0
 10
-4.2625
 20
-7.831
 30
0.0
 10
-4.2625
 20
-7.831
 30
0.0
 10
-4.2625
 20
-7.831
 30
0.0
 10
-4.2625
 20
-7.831
 30
0.0
 10
-4.2625
 20
-6.9325
 30
0.0
 10
-4.2625
 20
-6.9325
 30
0.0
 10
-4.2625
 20
-6.9325
 30
0.0
 10
-4.2625
 20
-6.9325
 30
0.0
 10
-4.2625
 20
-6.9324
 30
0.0
 10
-4.2625
 20
-6.9324
 30
0.0
  0
SPLINE
  5
DB
330
1F
100
AcDbEntity
  8
DEFAULT_1
 62
   250
100
AcDbSpline
210
0.0
220
0.0
230
1.0
 70
     8
 71
     3
 72
    16
 73
    12
 74
     0
 42
0.0000000001
 43
0.0000000001
 40
0.0
 40
0.0
 40
0.0
 40
0.0
 40
0.25
 40
0.25
 40
0.25
 40
0.25
 40
0.5
 40
0.5
 40
0.5
 40
0.5
 40
1.0
 40
1.0
 40
1.0
 40
1.0
 10
6.1706
 20
-7.3759
 30
0.0
 10
6.1706
 20
-7.3759
 30
0.0
 10
5.6935
 20
-7.3813
 30
0.0
 10
5.6935
 20
-7.3813
 30
0.0
 10
5.6935
 20
-7.3813
 30
0.0
 10
5.6935
 20
-7.3813
 30
0.0
 10
5.6935
 20
-17.2729
 30
0.0
 10
5.6935
 20
-17.2729
 30
0.0
 10
5.6935
 20
-17.2729
 30
0.0
 10
5.6935
 20
-17.2729
 30
0.0
 10
6.2577
 20
-17.2811
 30
0.0
 10
6.2577
 20
-17.2811
 30
0.0
  0
SPLINE
  5
DC
330
1F
100
AcDbEntity
  8
DEFAULT_1
 62
   250
100
AcDbSpline
210
0.0
220
0.0
230
1.0
 70
     8
 71
     3
 72
    28
 73
    24
 74
     0
 42
0.0000000001
 43
0.0000000001
 40
0.0
 40
0.0
 40
0.0
 40
0.0
 40
0.1428571428571428
 40
0.1428571428571428
 40
0.1428571428571428
 40
0.1428571428571428
 40
0.2857142857142857
 40
0.2857142857142857
 40
0.2857142857142857
 40
0.2857142857142857
 40
0.4285714285714285
 40
0.4285714285714285
 40
0.4285714285714285
 40
0.4285714285714285
 40
0.5714285714285714
 40
0.5714285714285714
 40
0.5714285714285714
 40
0.5714285714285714
 40
0.7142857142857143
 40
0.7142857142857143
 40
0.7142857142857143
 40
0.7142857142857143
 40
1.0
 40
1.0
 40
1.0
 40
1.0
 10
5.8568
 20
-7.4633
 30
0.0
 10
5.8568
 20
-7.4633
 30
0.0
 10
7.9416
 20
-7.4562
 30
0.0
 10
7.9416
 20
-7.4562
 30
0.0
 10
7.9416
 20
-7.4562
 30
0.0
 10
8.1072
 20
-7.4562
 30
0.0
 10
8.2413
 20
-7.5905
 30
0.0
 10
8.2413
 20
-7.756
 30
0.0
 10
8.2413
 20
-7.756
 30
0.0
 10
8.2413
 20
-7.756
 30
0.0
 10
8.2452
 20
-16.9318
 30
0.0
 10
8.2452
 20
-16.9318
 30
0.0
 10
8.2452
 20
-16.9318
 30
0.0
 10
8.2452
 20
-16.9318
 30
0.0
 10
8.158
 20
-17.1064
 30
0.0
 10
8.158
 20
-17.1064
 30
0.0
 10
8.158
 20
-17.1064
 30
0.0
 10
8.158
 20
-17.1064
 30
0.0
 10
8.0011
 20
-17.2462
 30
0.0
 10
8.0011
 20
-17.2462
 30
0.0
 10
8.0011
 20
-17.2462
 30
0.0
 10
8.0011
 20
-17.2462
 30
0.0
 10
5.909
 20
-17.2287
 30
0.0
 10
5.909
 20
-17.2287
 30
0.0
  0
SPLINE
  5
DD
330
1F
100
AcDbEntity
  8
DEFAULT_1
 62
   250
100
AcDbSpline
210
0.0
220
0.0
230
1.0
 70
     8
 71
     3
 72
   160
 73
   156
 74
     0
 42
0.0000000001
 43
0.0000000001
 40
0.0
 40
0.0
 40
0.0
 40
0.0
 40
0.025
 40
0.025
 40
0.025
 40
0.025
 40
0.05
 40
0.05
 40
0.05
 40
0.05
 40
0.075
 40
0.075
 40
0.075
 40
0.075
 40
0.1
 40
0.1
 40
0.1
 40
0.1
 40
0.125
 40
0.125
 40
0.125
 40
0.125
 40
0.15
 40
0.15
 40
0.15
 40
0.15
 40
0.175
 40
0.175
 40
0.175
 40
0.175
 40
0.2
 40
0.2
 40
0.2
 40
0.2
 40
0.225
 40
0.225
 40
0.225
 40
0.225
 40
0.25
 40
0.25
 40
0.25
 40
0.25
 40
0.275
 40
0.275
 40
0.275
 40
0.275
 40
0.3
 40
0.3
 40
0.3
 40
0.3
 40
0.325
 40
0.325
 40
0.325
 40
0.325
 40
0.35
 40
0.35
 40
0.35
 40
0.35
 40
0.375
 40
0.375
 40
0.375
 40
0.375
 40
0.4
 40
0.4
 40
0.4
 40
0.4
 40
0.425
 40
0.425
 40
0.425
 40
0.425
 40
0.45
 40
0.45
 40
0.45
 40
0.45
 40
0.475
 40
0.475
 40
0.475
 40
0.475
 40
0.5
 40
0.5
 40
0.5
 40
0.5
 40
0.525
 40
0.525
 40
0.525
 40
0.525
 40
0.55
 40
0.55
 40
0.55
 40
0.55
 40
0.575
 40
0.575
 40
0.575
 40
0.575
 40
0.6
 40
0.6
 40
0.6
 40
0.6
 40
0.625
 40
0.625
 40
0.625
 40
0.625
 40
0.65
 40
0.65
 40
0.65
 40
0.65
 40
0.675
 40
0.675
 40
0.675
 40
0.675
 40
0.7
 40
0.7
 40
0.7
 40
0.7
 40
0.725
 40
0.725
 40
0.725
 40
0.725
 40
0.75
 40
0.75
 40
0.75
 40
0.75
 40
0.775
 40
0.775
 40
0.775
 40
0.775
 40
0.8
 40
0.8
 40
0.8
 40
0.8
 40
0.825
 40
0.825
 40
0.825
 40
0.825
 40
0.85
 40
0.85
 40
0.85
 40
0.85
 40
0.875
 40
0.875
 40
0.875
 40
0.875
 40
0.9
 40
0.9
 40
0.9
 40
0.9
 40
0.925
 40
0.925
 40
0.925
 40
0.925
 40
0.95
 40
0.95
 40
0.95
 40
0.95
 40
1.0
 40
1.0
 40
1.0
 40
1.0
 10
7.4919
 20
-7.5498
 30
0.0
 10
7.4919
 20
-7.5498
 30
0.0
 10
7.4818
 20
-7.5705
 30
0.0
 10
7.4818
 20
-7.5705
 30
0.0
 10
7.4818
 20
-7.5705
 30
0.0
 10
7.4818
 20
-7.5705
 30
0.0
 10
7.4518
 20
-7.5908
 30
0.0
 10
7.4518
 20
-7.5908
 30
0.0
 10
7.4518
 20
-7.5908
 30
0.0
 10
7.4518
 20
-7.5908
 30
0.0
 10
7.4042
 20
-7.6091
 30
0.0
 10
7.4042
 20
-7.6091
 30
0.0
 10
7.4042
 20
-7.6091
 30
0.0
 10
7.4042
 20
-7.6091
 30
0.0
 10
7.3421
 20
-7.6236
 30
0.0
 10
7.3421
 20
-7.6236
 30
0.0
 10
7.3421
 20
-7.6236
 30
0.0
 10
7.3421
 20
-7.6236
 30
0.0
 10
7.2697
 20
-7.6331
 30
0.0
 10
7.2697
 20
-7.6331
 30
0.0
 10
7.2697
 20
-7.6331
 30
0.0
 10
7.2697
 20
-7.6331
 30
0.0
 10
7.1922
 20
-7.6363
 30
0.0
 10
7.1922
 20
-7.6363
 30
0.0
 10
7.1922
 20
-7.6363
 30
0.0
 10
7.1922
 20
-7.6363
 30
0.0
 10
6.0927
 20
-7.631
 30
0.0
 10
6.0927
 20
-7.631
 30
0.0
 10
6.0927
 20
-7.631
 30
0.0
 10
6.0927
 20
-7.631
 30
0.0
 10
6.0927
 20
-8.6441
 30
0.0
 10
6.0927
 20
-8.6441
 30
0.0
 10
6.0927
 20
-8.6441
 30
0.0
 10
6.0927
 20
-8.6441
 30
0.0
 10
7.3995
 20
-8.6294
 30
0.0
 10
7.3995
 20
-8.6294
 30
0.0
 10
7.3995
 20
-8.6294
 30
0.0
 10
7.3995
 20
-8.6294
 30
0.0
 10
7.4435
 20
-8.7616
 30
0.0
 10
7.4435
 20
-8.7616
 30
0.0
 10
7.4435
 20
-8.7616
 30
0.0
 10
7.4435
 20
-8.7616
 30
0.0
 10
7.4435
 20
-8.9231
 30
0.0
 10
7.4435
 20
-8.9231
 30
0.0
 10
7.4435
 20
-8.9231
 30
0.0
 10
7.4435
 20
-8.9231
 30
0.0
 10
7.3848
 20
-8.9818
 30
0.0
 10
7.3848
 20
-8.9818
 30
0.0
 10
7.3848
 20
-8.9818
 30
0.0
 10
7.3848
 20
-8.9818
 30
0.0
 10
7.2526
 20
-9.0405
 30
0.0
 10
7.2526
 20
-9.0405
 30
0.0
 10
7.2526
 20
-9.0405
 30
0.0
 10
7.2526
 20
-9.0405
 30
0.0
 10
6.1368
 20
-9.0405
 30
0.0
 10
6.1368
 20
-9.0405
 30
0.0
 10
6.1368
 20
-9.0405
 30
0.0
 10
6.1368
 20
-9.0405
 30
0.0
 10
6.1368
 20
-10.7877
 30
0.0
 10
6.1368
 20
-10.7877
 30
0.0
 10
6.1368
 20
-10.7877
 30
0.0
 10
6.1368
 20
-10.7877
 30
0.0
 10
7.2673
 20
-10.7877
 30
0.0
 10
7.2673
 20
-10.7877
 30
0.0
 10
7.2673
 20
-10.7877
 30
0.0
 10
7.2673
 20
-10.7877
 30
0.0
 10
7.3701
 20
-10.8905
 30
0.0
 10
7.3701
 20
-10.8905
 30
0.0
 10
7.3701
 20
-10.8905
 30
0.0
 10
7.3701
 20
-10.8905
 30
0.0
 10
7.4729
 20
-11.1108
 30
0.0
 10
7.4729
 20
-11.1108
 30
0.0
 10
7.4729
 20
-11.1108
 30
0.0
 10
7.4729
 20
-11.1108
 30
0.0
 10
7.4435
 20
-11.2429
 30
0.0
 10
7.4435
 20
-11.2429
 30
0.0
 10
7.4435
 20
-11.2429
 30
0.0
 10
7.4435
 20
-11.2429
 30
0.0
 10
7.326
 20
-11.3604
 30
0.0
 10
7.326
 20
-11.3604
 30
0.0
 10
7.326
 20
-11.3604
 30
0.0
 10
7.326
 20
-11.3604
 30
0.0
 10
7.1939
 20
-11.375
 30
0.0
 10
7.1939
 20
-11.375
 30
0.0
 10
7.1939
 20
-11.375
 30
0.0
 10
7.1939
 20
-11.375
 30
0.0
 10
6.1514
 20
-11.3897
 30
0.0
 10
6.1514
 20
-11.3897
 30
0.0
 10
6.1514
 20
-11.3897
 30
0.0
 10
6.1514
 20
-11.3897
 30
0.0
 10
6.1368
 20
-13.3718
 30
0.0
 10
6.1368
 20
-13.3718
 30
0.0
 10
6.1368
 20
-13.3718
 30
0.0
 10
6.1368
 20
-13.3718
 30
0.0
 10
7.2673
 20
-13.3718
 30
0.0
 10
7.2673
 20
-13.3718
 30
0.0
 10
7.2673
 20
-13.3718
 30
0.0
 10
7.2673
 20
-13.3718
 30
0.0
 10
7.4582
 20
-13.504
 30
0.0
 10
7.4582
 20
-13.504
 30
0.0
 10
7.4582
 20
-13.504
 30
0.0
 10
7.4582
 20
-13.504
 30
0.0
 10
7.4582
 20
-13.6949
 30
0.0
 10
7.4582
 20
-13.6949
 30
0.0
 10
7.4582
 20
-13.6949
 30
0.0
 10
7.4582
 20
-13.6949
 30
0.0
 10
7.2967
 20
-13.8857
 30
0.0
 10
7.2967
 20
-13.8857
 30
0.0
 10
7.2967
 20
-13.8857
 30
0.0
 10
7.2967
 20
-13.8857
 30
0.0
 10
6.1514
 20
-13.8711
 30
0.0
 10
6.1514
 20
-13.8711
 30
0.0
 10
6.1514
 20
-13.8711
 30
0.0
 10
6.1514
 20
-13.8711
 30
0.0
 10
6.1514
 20
-15.6329
 30
0.0
 10
6.1514
 20
-15.6329
 30
0.0
 10
6.1514
 20
-15.6329
 30
0.0
 10
6.1514
 20
-15.6329
 30
0.0
 10
7.2086
 20
-15.6329
 30
0.0
 10
7.2086
 20
-15.6329
 30
0.0
 10
7.2086
 20
-15.6329
 30
0.0
 10
7.2086
 20
-15.6329
 30
0.0
 10
7.3407
 20
-15.677
 30
0.0
 10
7.3407
 20
-15.677
 30
0.0
 10
7.3407
 20
-15.677
 30
0.0
 10
7.3407
 20
-15.677
 30
0.0
 10
7.4435
 20
-15.8091
 30
0.0
 10
7.4435
 20
-15.8091
 30
0.0
 10
7.4435
 20
-15.8091
 30
0.0
 10
7.4435
 20
-15.8091
 30
0.0
 10
7.4288
 20
-15.9266
 30
0.0
 10
7.4288
 20
-15.9266
 30
0.0
 10
7.4288
 20
-15.9266
 30
0.0
 10
7.4288
 20
-15.9266
 30
0.0
 10
7.2673
 20
-16.0147
 30
0.0
 10
7.2673
 20
-16.0147
 30
0.0
 10
7.2673
 20
-16.0147
 30
0.0
 10
7.2673
 20
-16.0147
 30
0.0
 10
6.1074
 20
-16.0294
 30
0.0
 10
6.1074
 20
-16.0294
 30
0.0
 10
6.1074
 20
-16.0294
 30
0.0
 10
6.1074
 20
-16.0294
 30
0.0
 10
6.1074
 20
-17.0131
 30
0.0
 10
6.1074
 20
-17.0131
 30
0.0
 10
6.1074
 20
-17.0131
 30
0.0
 10
6.1074
 20
-17.0131
 30
0.0
 10
7.1939
 20
-16.9984
 30
0.0
 10
7.1939
 20
-16.9984
 30
0.0
 10
7.1939
 20
-16.9984
 30
0.0
 10
7.1939
 20
-16.9984
 30
0.0
 10
7.3701
 20
-17.0131
 30
0.0
 10
7.3701
 20
-17.0131
 30
0.0
 10
7.3701
 20
-17.0131
 30
0.0
 10
7.3701
 20
-17.0131
 30
0.0
 10
7.4876
 20
-17.1306
 30
0.0
 10
7.4876
 20
-17.1306
 30
0.0
  0
SPLINE
  5
DE
330
1F
100
AcDbEntity
  8
DEFAULT_1
 62
   250
100
AcDbSpline
210
0.0
220
0.0
230
1.0
 70
     8
 71
     3
 72
    16
 73
    12
 74
     0
 42
0.0000000001
 43
0.0000000001
 40
0.0
 40
0.0
 40
0.0
 40
0.0
 40
0.25
 40
0.25
 40
0.25
 40
0.25
 40
0.5
 40
0.5
 40
0.5
 40
0.5
 40
1.0
 40
1.0
 40
1.0
 40
1.0
 10
-5.8782
 20
14.7997
 30
0.0
 10
-5.8782
 20
14.7997
 30
0.0
 10
-5.8779
 20
15.0677
 30
0.0
 10
-5.8779
 20
15.0677
 30
0.0
 10
-5.8779
 20
15.0677
 30
0.0
 10
-5.8779
 20
15.0677
 30
0.0
 10
4.1359
 20
15.0677
 30
0.0
 10
4.1359
 20
15.0677
 30
0.0
 10
4.1359
 20
15.0677
 30
0.0
 10
4.1359
 20
15.0677
 30
0.0
 10
4.1548
 20
14.705
 30
0.0
 10
4.1548
 20
14.705
 30
0.0
  0
SPLINE
  5
DF
330
1F
100
AcDbEntity
  8
DEFAULT_1
 62
   250
100
AcDbSpline
210
0.0
220
0.0
230
1.0
 70
     8
 71
     3
 72
    16
 73
    12
 74
     0
 42
0.0000000001
 43
0.0000000001
 40
0.0
 40
0.0
 40
0.0
 40
0.0
 40
0.25
 40
0.25
 40
0.25
 40
0.25
 40
0.5
 40
0.5
 40
0.5
 40
0.5
 40
1.0
 40
1.0
 40
1.0
 40
1.0
 10
-4.197
 20
11.0621
 30
0.0
 10
-4.197
 20
11.0621
 30
0.0
 10
-4.197
 20
12.0635
 30
0.0
 10
-4.197
 20
12.0635
 30
0.0
 10
-4.197
 20
12.0635
 30
0.0
 10
-4.197
 20
12.0635
 30
0.0
 10
-4.6155
 20
12.4851
 30
0.0
 10
-4.6155
 20
12.4851
 30
0.0
 10
-4.6155
 20
12.4851
 30
0.0
 10
-4.6155
 20
12.4851
 30
0.0
 10
-4.6155
 20
13.9378
 30
0.0
 10
-4.6155
 20
13.9378
 30
0.0
  0
SPLINE
  5
E0
330
1F
100
AcDbEntity
  8
DEFAULT_1
 62
   250
100
AcDbSpline
210
0.0
220
0.0
230
1.0
 70
    11
 71
     3
 72
    20
 73
    16
 74
     0
 42
0.0000000001
 43
0.0000000001
 40
0.0
 40
0.0
 40
0.0
 40
0.0
 40
0.2
 40
0.2
 40
0.2
 40
0.2
 40
0.4
 40
0.4
 40
0.4
 40
0.4
 40
0.6
 40
0.6
 40
0.6
 40
0.6
 40
1.0
 40
1.0
 40
1.0
 40
1.0
 10
-6.1226
 20
14.7799
 30
0.0
 10
-6.1226
 20
14.7799
 30
0.0
 10
4.3565
 20
14.7799
 30
0.0
 10
4.3565
 20
14.7799
 30
0.0
 10
4.3565
 20
14.7799
 30
0.0
 10
4.3565
 20
14.7799
 30
0.0
 10
4.3565
 20
13.9022
 30
0.0
 10
4.3565
 20
13.9022
 30
0.0
 10
4.3565
 20
13.9022
 30
0.0
 10
4.3565
 20
13.9022
 30
0.0
 10
-6.1226
 20
13.9022
 30
0.0
 10
-6.1226
 20
13.9022
 30
0.0
 10
-6.1226
 20
13.9022
 30
0.0
 10
-6.1226
 20
13.9022
 30
0.0
 10
-6.1226
 20
14.7799
 30
0.0
 10
-6.1226
 20
14.7799
 30
0.0
  0
SPLINE
  5
E1
330
1F
100
AcDbEntity
  8
DEFAULT_1
 62
   250
100
AcDbSpline
210
0.0
220
0.0
230
1.0
 70
     8
 71
     3
 72
    16
 73
    12
 74
     0
 42
0.0000000001
 43
0.0000000001
 40
0.0
 40
0.0
 40
0.0
 40
0.0
 40
0.25
 40
0.25
 40
0.25
 40
0.25
 40
0.5
 40
0.5
 40
0.5
 40
0.5
 40
1.0
 40
1.0
 40
1.0
 40
1.0
 10
2.463
 20
11.0772
 30
0.0
 10
2.463
 20
11.0772
 30
0.0
 10
2.463
 20
12.0785
 30
0.0
 10
2.463
 20
12.0785
 30
0.0
 10
2.463
 20
12.0785
 30
0.0
 10
2.463
 20
12.0785
 30
0.0
 10
2.8751
 20
12.5002
 30
0.0
 10
2.8751
 20
12.5002
 30
0.0
 10
2.8751
 20
12.5002
 30
0.0
 10
2.8751
 20
12.5002
 30
0.0
 10
2.8751
 20
13.9529
 30
0.0
 10
2.8751
 20
13.9529
 30
0.0
  0
SPLINE
  5
E2
330
1F
100
AcDbEntity
  8
DEFAULT_1
 62
   250
100
AcDbSpline
210
0.0
220
0.0
230
1.0
 70
    24
 71
     3
 72
     8
 73
     4
 74
     0
 42
0.0000000001
 43
0.0000000001
 40
0.0
 40
0.0
 40
0.0
 40
0.0
 40
1.0
 40
1.0
 40
1.0
 40
1.0
 10
-4.1475
 20
11.5922
 30
0.0
 10
-4.1475
 20
11.5922
 30
0.0
 10
2.4672
 20
11.8496
 30
0.0
 10
2.4672
 20
11.8496
 30
0.0
  0
SPLINE
  5
E3
330
1F
100
AcDbEntity
  8
DEFAULT_1
 62
   250
100
AcDbSpline
210
0.0
220
0.0
230
1.0
 70
    24
 71
     3
 72
     8
 73
     4
 74
     0
 42
0.0000000001
 43
0.0000000001
 40
0.0
 40
0.0
 40
0.0
 40
0.0
 40
1.0
 40
1.0
 40
1.0
 40
1.0
 10
-4.1776
 20
11.1987
 30
0.0
 10
-4.1776
 20
11.1987
 30
0.0
 10
2.4371
 20
11.4561
 30
0.0
 10
2.4371
 20
11.4561
 30
0.0
  0
SPLINE
  5
E4
330
1F
100
AcDbEntity
  8
DEFAULT_1
 62
   250
100
AcDbSpline
210
0.0
220
0.0
230
1.0
 70
    27
 71
     3
 72
    12
 73
     8
 74
     0
 42
0.0000000001
 43
0.0000000001
 40
0.0
 40
0.0
 40
0.0
 40
0.0
 40
0.3333333333333333
 40
0.3333333333333333
 40
0.3333333333333333
 40
0.3333333333333333
 40
1.0
 40
1.0
 40
1.0
 40
1.0
 10
2.455
 20
12.0639
 30
0.0
 10
2.455
 20
12.0639
 30
0.0
 10
-4.1971
 20
12.0639
 30
0.0
 10
-4.1971
 20
12.0639
 30
0.0
 10
-4.1971
 20
12.0639
 30
0.0
 10
-4.1971
 20
12.0639
 30
0.0
 10
2.455
 20
12.0639
 30
0.0
 10
2.455
 20
12.0639
 30
0.0
  0
SPLINE
  5
E5
330
1F
100
AcDbEntity
  8
DEFAULT_1
 62
   250
100
AcDbSpline
210
0.0
220
0.0
230
1.0
 70
    11
 71
     3
 72
    20
 73
    16
 74
     0
 42
0.0000000001
 43
0.0000000001
 40
0.0
 40
0.0
 40
0.0
 40
0.0
 40
0.2
 40
0.2
 40
0.2
 40
0.2
 40
0.4
 40
0.4
 40
0.4
 40
0.4
 40
0.6
 40
0.6
 40
0.6
 40
0.6
 40
1.0
 40
1.0
 40
1.0
 40
1.0
 10
4.1336
 20
16.8066
 30
0.0
 10
4.1336
 20
16.8066
 30
0.0
 10
4.1336
 20
16.4555
 30
0.0
 10
4.1336
 20
16.4555
 30
0.0
 10
4.1336
 20
16.4555
 30
0.0
 10
4.1336
 20
16.4555
 30
0.0
 10
-5.8838
 20
16.4555
 30
0.0
 10
-5.8838
 20
16.4555
 30
0.0
 10
-5.8838
 20
16.4555
 30
0.0
 10
-5.8838
 20
16.4555
 30
0.0
 10
-5.8838
 20
16.8066
 30
0.0
 10
-5.8838
 20
16.8066
 30
0.0
 10
-5.8838
 20
16.8066
 30
0.0
 10
-5.8838
 20
16.8066
 30
0.0
 10
4.1336
 20
16.8066
 30
0.0
 10
4.1336
 20
16.8066
 30
0.0
  0
SPLINE
  5
E6
330
1F
100
AcDbEntity
  8
DEFAULT_1
 62
   250
100
AcDbSpline
210
0.0
220
0.0
230
1.0
 70
    11
 71
     3
 72
    24
 73
    20
 74
     0
 42
0.0000000001
 43
0.0000000001
 40
0.0
 40
0.0
 40
0.0
 40
0.0
 40
0.1666666666666667
 40
0.1666666666666667
 40
0.1666666666666667
 40
0.1666666666666667
 40
0.3333333333333333
 40
0.3333333333333333
 40
0.3333333333333333
 40
0.3333333333333333
 40
0.5
 40
0.5
 40
0.5
 40
0.5
 40
0.6666666666666666
 40
0.6666666666666666
 40
0.6666666666666666
 40
0.6666666666666666
 40
1.0
 40
1.0
 40
1.0
 40
1.0
 10
-5.8682
 20
18.4223
 30
0.0
 10
-5.8682
 20
18.4223
 30
0.0
 10
4.0754
 20
18.4223
 30
0.0
 10
4.0754
 20
18.4223
 30
0.0
 10
4.0754
 20
18.4223
 30
0.0
 10
4.0754
 20
18.4223
 30
0.0
 10
4.0754
 20
18.2288
 30
0.0
 10
4.0754
 20
18.2288
 30
0.0
 10
4.0754
 20
18.2288
 30
0.0
 10
4.0754
 20
18.2288
 30
0.0
 10
-4.1925
 20
18.2288
 30
0.0
 10
-4.1925
 20
18.2288
 30
0.0
 10
-4.1925
 20
18.2288
 30
0.0
 10
-4.1925
 20
18.2288
 30
0.0
 10
-5.8682
 20
18.2288
 30
0.0
 10
-5.8682
 20
18.2288
 30
0.0
 10
-5.8682
 20
18.2288
 30
0.0
 10
-5.8682
 20
18.2288
 30
0.0
 10
-5.8682
 20
18.4223
 30
0.0
 10
-5.8682
 20
18.4223
 30
0.0
  0
SPLINE
  5
E7
330
1F
100
AcDbEntity
  8
DEFAULT_1
 62
   250
100
AcDbSpline
210
0.0
220
0.0
230
1.0
 70
     8
 71
     3
 72
    16
 73
    12
 74
     0
 42
0.0000000001
 43
0.0000000001
 40
0.0
 40
0.0
 40
0.0
 40
0.0
 40
0.25
 40
0.25
 40
0.25
 40
0.25
 40
0.5
 40
0.5
 40
0.5
 40
0.5
 40
1.0
 40
1.0
 40
1.0
 40
1.0
 10
-1.759
 20
16.4267
 30
0.0
 10
-1.759
 20
16.4267
 30
0.0
 10
-1.4223
 20
16.09
 30
0.0
 10
-1.4223
 20
16.09
 30
0.0
 10
-1.4223
 20
16.09
 30
0.0
 10
-1.4223
 20
16.09
 30
0.0
 10
-0.2917
 20
16.081
 30
0.0
 10
-0.2917
 20
16.081
 30
0.0
 10
-0.2917
 20
16.081
 30
0.0
 10
-0.2917
 20
16.081
 30
0.0
 10
0.0462
 20
16.4823
 30
0.0
 10
0.0462
 20
16.4823
 30
0.0
  0
SPLINE
  5
E8
330
1F
100
AcDbEntity
  8
DEFAULT_1
 62
   250
100
AcDbSpline
210
0.0
220
0.0
230
1.0
 70
    11
 71
     3
 72
    16
 73
    12
 74
     0
 42
0.0000000001
 43
0.0000000001
 40
0.0
 40
0.0
 40
0.0
 40
0.0
 40
0.25
 40
0.25
 40
0.25
 40
0.25
 40
0.5
 40
0.5
 40
0.5
 40
0.5
 40
1.0
 40
1.0
 40
1.0
 40
1.0
 10
-3.8789
 20
16.7846
 30
0.0
 10
-3.8789
 20
16.7846
 30
0.0
 10
-4.1925
 20
18.2288
 30
0.0
 10
-4.1925
 20
18.2288
 30
0.0
 10
-4.1925
 20
18.2288
 30
0.0
 10
-4.1925
 20
18.2288
 30
0.0
 10
-4.2122
 20
18.3192
 30
0.0
 10
-4.2122
 20
18.3192
 30
0.0
 10
-4.2122
 20
18.3192
 30
0.0
 10
-4.2122
 20
18.3192
 30
0.0
 10
-3.8789
 20
16.7846
 30
0.0
 10
-3.8789
 20
16.7846
 30
0.0
  0
SPLINE
  5
E9
330
1F
100
AcDbEntity
  8
DEFAULT_1
 62
   250
100
AcDbSpline
210
0.0
220
0.0
230
1.0
 70
    27
 71
     3
 72
    12
 73
     8
 74
     0
 42
0.0000000001
 43
0.0000000001
 40
0.0
 40
0.0
 40
0.0
 40
0.0
 40
0.3333333333333333
 40
0.3333333333333333
 40
0.3333333333333333
 40
0.3333333333333333
 40
1.0
 40
1.0
 40
1.0
 40
1.0
 10
2.1364
 20
16.7846
 30
0.0
 10
2.1364
 20
16.7846
 30
0.0
 10
2.4481
 20
18.2158
 30
0.0
 10
2.4481
 20
18.2158
 30
0.0
 10
2.4481
 20
18.2158
 30
0.0
 10
2.4481
 20
18.2158
 30
0.0
 10
2.1364
 20
16.7846
 30
0.0
 10
2.1364
 20
16.7846
 30
0.0
  0
SPLINE
  5
EA
330
1F
100
AcDbEntity
  8
DEFAULT_1
 62
   250
100
AcDbSpline
210
0.0
220
0.0
230
1.0
 70
    11
 71
     3
 72
    16
 73
    12
 74
     0
 42
0.0000000001
 43
0.0000000001
 40
0.0
 40
0.0
 40
0.0
 40
0.0
 40
0.25
 40
0.25
 40
0.25
 40
0.25
 40
0.5
 40
0.5
 40
0.5
 40
0.5
 40
1.0
 40
1.0
 40
1.0
 40
1.0
 10
-1.3176
 20
15.7028
 30
0.0
 10
-1.3176
 20
15.7028
 30
0.0
 10
-1.2999
 20
15.7058
 30
0.0
 10
-1.2999
 20
15.7058
 30
0.0
 10
-1.2999
 20
15.7058
 30
0.0
 10
-1.2999
 20
15.7058
 30
0.0
 10
-0.4866
 20
15.849
 30
0.0
 10
-0.4866
 20
15.849
 30
0.0
 10
-0.4866
 20
15.849
 30
0.0
 10
-0.4866
 20
15.849
 30
0.0
 10
-1.3176
 20
15.7028
 30
0.0
 10
-1.3176
 20
15.7028
 30
0.0
  0
SPLINE
  5
EB
330
1F
100
AcDbEntity
  8
DEFAULT_1
 62
   250
100
AcDbSpline
210
0.0
220
0.0
230
1.0
 70
    11
 71
     3
 72
    16
 73
    12
 74
     0
 42
0.0000000001
 43
0.0000000001
 40
0.0
 40
0.0
 40
0.0
 40
0.0
 40
0.25
 40
0.25
 40
0.25
 40
0.25
 40
0.5
 40
0.5
 40
0.5
 40
0.5
 40
1.0
 40
1.0
 40
1.0
 40
1.0
 10
-1.239
 20
15.2864
 30
0.0
 10
-1.239
 20
15.2864
 30
0.0
 10
-0.4416
 20
15.4268
 30
0.0
 10
-0.4416
 20
15.4268
 30
0.0
 10
-0.4416
 20
15.4268
 30
0.0
 10
-0.4416
 20
15.4268
 30
0.0
 10
-0.408
 20
15.4327
 30
0.0
 10
-0.408
 20
15.4327
 30
0.0
 10
-0.408
 20
15.4327
 30
0.0
 10
-0.408
 20
15.4327
 30
0.0
 10
-1.239
 20
15.2864
 30
0.0
 10
-1.239
 20
15.2864
 30
0.0
  0
SPLINE
  5
EC
330
1F
100
AcDbEntity
  8
DEFAULT_1
 62
   250
100
AcDbSpline
210
0.0
220
0.0
230
1.0
 70
    27
 71
     3
 72
    28
 73
    24
 74
     0
 42
0.0000000001
 43
0.0000000001
 40
0.0
 40
0.0
 40
0.0
 40
0.0
 40
0.1428571428571428
 40
0.1428571428571428
 40
0.1428571428571428
 40
0.1428571428571428
 40
0.2857142857142857
 40
0.2857142857142857
 40
0.2857142857142857
 40
0.2857142857142857
 40
0.4285714285714285
 40
0.4285714285714285
 40
0.4285714285714285
 40
0.4285714285714285
 40
0.5714285714285714
 40
0.5714285714285714
 40
0.5714285714285714
 40
0.5714285714285714
 40
0.7142857142857143
 40
0.7142857142857143
 40
0.7142857142857143
 40
0.7142857142857143
 40
1.0
 40
1.0
 40
1.0
 40
1.0
 10
-0.4416
 20
15.0675
 30
0.0
 10
-0.4416
 20
15.0675
 30
0.0
 10
-0.4416
 20
15.4256
 30
0.0
 10
-0.4416
 20
15.4256
 30
0.0
 10
-0.4416
 20
15.4256
 30
0.0
 10
-0.4416
 20
15.4256
 30
0.0
 10
-0.4416
 20
15.4268
 30
0.0
 10
-0.4416
 20
15.4268
 30
0.0
 10
-0.4416
 20
15.4268
 30
0.0
 10
-0.4416
 20
15.4268
 30
0.0
 10
-0.4416
 20
16.09
 30
0.0
 10
-0.4416
 20
16.09
 30
0.0
 10
-0.4416
 20
16.09
 30
0.0
 10
-0.4416
 20
16.09
 30
0.0
 10
-0.4416
 20
15.4268
 30
0.0
 10
-0.4416
 20
15.4268
 30
0.0
 10
-0.4416
 20
15.4268
 30
0.0
 10
-0.4416
 20
15.4268
 30
0.0
 10
-0.4416
 20
15.4256
 30
0.0
 10
-0.4416
 20
15.4256
 30
0.0
 10
-0.4416
 20
15.4256
 30
0.0
 10
-0.4416
 20
15.4256
 30
0.0
 10
-0.4416
 20
15.0675
 30
0.0
 10
-0.4416
 20
15.0675
 30
0.0
  0
SPLINE
  5
ED
330
1F
100
AcDbEntity
  8
DEFAULT_1
 62
   250
100
AcDbSpline
210
0.0
220
0.0
230
1.0
 70
    27
 71
     3
 72
    28
 73
    24
 74
     0
 42
0.0000000001
 43
0.0000000001
 40
0.0
 40
0.0
 40
0.0
 40
0.0
 40
0.1428571428571428
 40
0.1428571428571428
 40
0.1428571428571428
 40
0.1428571428571428
 40
0.2857142857142857
 40
0.2857142857142857
 40
0.2857142857142857
 40
0.2857142857142857
 40
0.4285714285714285
 40
0.4285714285714285
 40
0.4285714285714285
 40
0.4285714285714285
 40
0.5714285714285714
 40
0.5714285714285714
 40
0.5714285714285714
 40
0.5714285714285714
 40
0.7142857142857143
 40
0.7142857142857143
 40
0.7142857142857143
 40
0.7142857142857143
 40
1.0
 40
1.0
 40
1.0
 40
1.0
 10
-1.2999
 20
15.0675
 30
0.0
 10
-1.2999
 20
15.0675
 30
0.0
 10
-1.2999
 20
15.7028
 30
0.0
 10
-1.2999
 20
15.7028
 30
0.0
 10
-1.2999
 20
15.7028
 30
0.0
 10
-1.2999
 20
15.7028
 30
0.0
 10
-1.2999
 20
15.7058
 30
0.0
 10
-1.2999
 20
15.7058
 30
0.0
 10
-1.2999
 20
15.7058
 30
0.0
 10
-1.2999
 20
15.7058
 30
0.0
 10
-1.2999
 20
16.09
 30
0.0
 10
-1.2999
 20
16.09
 30
0.0
 10
-1.2999
 20
16.09
 30
0.0
 10
-1.2999
 20
16.09
 30
0.0
 10
-1.2999
 20
15.7058
 30
0.0
 10
-1.2999
 20
15.7058
 30
0.0
 10
-1.2999
 20
15.7058
 30
0.0
 10
-1.2999
 20
15.7058
 30
0.0
 10
-1.2999
 20
15.7028
 30
0.0
 10
-1.2999
 20
15.7028
 30
0.0
 10
-1.2999
 20
15.7028
 30
0.0
 10
-1.2999
 20
15.7028
 30
0.0
 10
-1.2999
 20
15.0675
 30
0.0
 10
-1.2999
 20
15.0675
 30
0.0
  0
SPLINE
  5
EE
330
1F
100
AcDbEntity
  8
DEFAULT_1
 62
   250
100
AcDbSpline
210
0.0
220
0.0
230
1.0
 70
     8
 71
     3
 72
    12
 73
     8
 74
     0
 42
0.0000000001
 43
0.0000000001
 40
0.0
 40
0.0
 40
0.0
 40
0.0
 40
0.3333333333333333
 40
0.3333333333333333
 40
0.3333333333333333
 40
0.3333333333333333
 40
1.0
 40
1.0
 40
1.0
 40
1.0
 10
-1.3176
 20
15.7028
 30
0.0
 10
-1.3176
 20
15.7028
 30
0.0
 10
-1.2999
 20
15.7058
 30
0.0
 10
-1.2999
 20
15.7058
 30
0.0
 10
-1.2999
 20
15.7058
 30
0.0
 10
-1.2999
 20
15.7058
 30
0.0
 10
-0.4866
 20
15.849
 30
0.0
 10
-0.4866
 20
15.849
 30
0.0
  0
SPLINE
  5
EF
330
1F
100
AcDbEntity
  8
DEFAULT_1
 62
   250
100
AcDbSpline
210
0.0
220
0.0
230
1.0
 70
     8
 71
     3
 72
    12
 73
     8
 74
     0
 42
0.0000000001
 43
0.0000000001
 40
0.0
 40
0.0
 40
0.0
 40
0.0
 40
0.3333333333333333
 40
0.3333333333333333
 40
0.3333333333333333
 40
0.3333333333333333
 40
1.0
 40
1.0
 40
1.0
 40
1.0
 10
-1.239
 20
15.2864
 30
0.0
 10
-1.239
 20
15.2864
 30
0.0
 10
-0.4416
 20
15.4268
 30
0.0
 10
-0.4416
 20
15.4268
 30
0.0
 10
-0.4416
 20
15.4268
 30
0.0
 10
-0.4416
 20
15.4268
 30
0.0
 10
-0.408
 20
15.4327
 30
0.0
 10
-0.408
 20
15.4327
 30
0.0
  0
SPLINE
  5
F0
330
1F
100
AcDbEntity
  8
DEFAULT_1
 62
   250
100
AcDbSpline
210
0.0
220
0.0
230
1.0
 70
    27
 71
     3
 72
    28
 73
    24
 74
     0
 42
0.0000000001
 43
0.0000000001
 40
0.0
 40
0.0
 40
0.0
 40
0.0
 40
0.1428571428571428
 40
0.1428571428571428
 40
0.1428571428571428
 40
0.1428571428571428
 40
0.2857142857142857
 40
0.2857142857142857
 40
0.2857142857142857
 40
0.2857142857142857
 40
0.4285714285714285
 40
0.4285714285714285
 40
0.4285714285714285
 40
0.4285714285714285
 40
0.5714285714285714
 40
0.5714285714285714
 40
0.5714285714285714
 40
0.5714285714285714
 40
0.7142857142857143
 40
0.7142857142857143
 40
0.7142857142857143
 40
0.7142857142857143
 40
1.0
 40
1.0
 40
1.0
 40
1.0
 10
-0.4416
 20
15.0675
 30
0.0
 10
-0.4416
 20
15.0675
 30
0.0
 10
-0.4416
 20
15.4256
 30
0.0
 10
-0.4416
 20
15.4256
 30
0.0
 10
-0.4416
 20
15.4256
 30
0.0
 10
-0.4416
 20
15.4256
 30
0.0
 10
-0.4416
 20
15.4268
 30
0.0
 10
-0.4416
 20
15.4268
 30
0.0
 10
-0.4416
 20
15.4268
 30
0.0
 10
-0.4416
 20
15.4268
 30
0.0
 10
-0.4416
 20
16.09
 30
0.0
 10
-0.4416
 20
16.09
 30
0.0
 10
-0.4416
 20
16.09
 30
0.0
 10
-0.4416
 20
16.09
 30
0.0
 10
-0.4416
 20
15.4268
 30
0.0
 10
-0.4416
 20
15.4268
 30
0.0
 10
-0.4416
 20
15.4268
 30
0.0
 10
-0.4416
 20
15.4268
 30
0.0
 10
-0.4416
 20
15.4256
 30
0.0
 10
-0.4416
 20
15.4256
 30
0.0
 10
-0.4416
 20
15.4256
 30
0.0
 10
-0.4416
 20
15.4256
 30
0.0
 10
-0.4416
 20
15.0675
 30
0.0
 10
-0.4416
 20
15.0675
 30
0.0
  0
SPLINE
  5
F1
330
1F
100
AcDbEntity
  8
DEFAULT_1
 62
   250
100
AcDbSpline
210
0.0
220
0.0
230
1.0
 70
    27
 71
     3
 72
    28
 73
    24
 74
     0
 42
0.0000000001
 43
0.0000000001
 40
0.0
 40
0.0
 40
0.0
 40
0.0
 40
0.1428571428571428
 40
0.1428571428571428
 40
0.1428571428571428
 40
0.1428571428571428
 40
0.2857142857142857
 40
0.2857142857142857
 40
0.2857142857142857
 40
0.2857142857142857
 40
0.4285714285714285
 40
0.4285714285714285
 40
0.4285714285714285
 40
0.4285714285714285
 40
0.5714285714285714
 40
0.5714285714285714
 40
0.5714285714285714
 40
0.5714285714285714
 40
0.7142857142857143
 40
0.7142857142857143
 40
0.7142857142857143
 40
0.7142857142857143
 40
1.0
 40
1.0
 40
1.0
 40
1.0
 10
-1.2999
 20
15.0675
 30
0.0
 10
-1.2999
 20
15.0675
 30
0.0
 10
-1.2999
 20
15.7028
 30
0.0
 10
-1.2999
 20
15.7028
 30
0.0
 10
-1.2999
 20
15.7028
 30
0.0
 10
-1.2999
 20
15.7028
 30
0.0
 10
-1.2999
 20
15.7058
 30
0.0
 10
-1.2999
 20
15.7058
 30
0.0
 10
-1.2999
 20
15.7058
 30
0.0
 10
-1.2999
 20
15.7058
 30
0.0
 10
-1.2999
 20
16.09
 30
0.0
 10
-1.2999
 20
16.09
 30
0.0
 10
-1.2999
 20
16.09
 30
0.0
 10
-1.2999
 20
16.09
 30
0.0
 10
-1.2999
 20
15.7058
 30
0.0
 10
-1.2999
 20
15.7058
 30
0.0
 10
-1.2999
 20
15.7058
 30
0.0
 10
-1.2999
 20
15.7058
 30
0.0
 10
-1.2999
 20
15.7028
 30
0.0
 10
-1.2999
 20
15.7028
 30
0.0
 10
-1.2999
 20
15.7028
 30
0.0
 10
-1.2999
 20
15.7028
 30
0.0
 10
-1.2999
 20
15.0675
 30
0.0
 10
-1.2999
 20
15.0675
 30
0.0
  0
SPLINE
  5
F2
330
1F
100
AcDbEntity
  8
DEFAULT_1
 62
   250
100
AcDbSpline
210
0.0
220
0.0
230
1.0
 70
     8
 71
     3
 72
    60
 73
    56
 74
     0
 42
0.0000000001
 43
0.0000000001
 40
0.0
 40
0.0
 40
0.0
 40
0.0
 40
0.0666666666666667
 40
0.0666666666666667
 40
0.0666666666666667
 40
0.0666666666666667
 40
0.1333333333333333
 40
0.1333333333333333
 40
0.1333333333333333
 40
0.1333333333333333
 40
0.2
 40
0.2
 40
0.2
 40
0.2
 40
0.2666666666666667
 40
0.2666666666666667
 40
0.2666666666666667
 40
0.2666666666666667
 40
0.3333333333333333
 40
0.3333333333333333
 40
0.3333333333333333
 40
0.3333333333333333
 40
0.4
 40
0.4
 40
0.4
 40
0.4
 40
0.4666666666666667
 40
0.4666666666666667
 40
0.4666666666666667
 40
0.4666666666666667
 40
0.5333333333333333
 40
0.5333333333333333
 40
0.5333333333333333
 40
0.5333333333333333
 40
0.6
 40
0.6
 40
0.6
 40
0.6
 40
0.6666666666666666
 40
0.6666666666666666
 40
0.6666666666666666
 40
0.6666666666666666
 40
0.7333333333333333
 40
0.7333333333333333
 40
0.7333333333333333
 40
0.7333333333333333
 40
0.8
 40
0.8
 40
0.8
 40
0.8
 40
0.8666666666666667
 40
0.8666666666666667
 40
0.8666666666666667
 40
0.8666666666666667
 40
1.0
 40
1.0
 40
1.0
 40
1.0
 10
-1.3259
 20
27.5757
 30
0.0
 10
-1.3259
 20
27.5757
 30
0.0
 10
-1.323
 20
27.6331
 30
0.0
 10
-1.323
 20
27.6331
 30
0.0
 10
-1.323
 20
27.6331
 30
0.0
 10
-1.323
 20
27.6331
 30
0.0
 10
-1.313
 20
27.6952
 30
0.0
 10
-1.313
 20
27.6952
 30
0.0
 10
-1.313
 20
27.6952
 30
0.0
 10
-1.313
 20
27.6952
 30
0.0
 10
-1.296
 20
27.756
 30
0.0
 10
-1.296
 20
27.756
 30
0.0
 10
-1.296
 20
27.756
 30
0.0
 10
-1.296
 20
27.756
 30
0.0
 10
-1.2723
 20
27.8147
 30
0.0
 10
-1.2723
 20
27.8147
 30
0.0
 10
-1.2723
 20
27.8147
 30
0.0
 10
-1.2723
 20
27.8147
 30
0.0
 10
-1.2419
 20
27.8704
 30
0.0
 10
-1.2419
 20
27.8704
 30
0.0
 10
-1.2419
 20
27.8704
 30
0.0
 10
-1.2419
 20
27.8704
 30
0.0
 10
-1.2055
 20
27.9223
 30
0.0
 10
-1.2055
 20
27.9223
 30
0.0
 10
-1.2055
 20
27.9223
 30
0.0
 10
-1.2055
 20
27.9223
 30
0.0
 10
-1.1633
 20
27.9697
 30
0.0
 10
-1.1633
 20
27.9697
 30
0.0
 10
-1.1633
 20
27.9697
 30
0.0
 10
-1.1633
 20
27.9697
 30
0.0
 10
-1.1161
 20
28.0121
 30
0.0
 10
-1.1161
 20
28.0121
 30
0.0
 10
-1.1161
 20
28.0121
 30
0.0
 10
-1.1161
 20
28.0121
 30
0.0
 10
-1.0643
 20
28.0488
 30
0.0
 10
-1.0643
 20
28.0488
 30
0.0
 10
-1.0643
 20
28.0488
 30
0.0
 10
-1.0643
 20
28.0488
 30
0.0
 10
-1.0087
 20
28.0795
 30
0.0
 10
-1.0087
 20
28.0795
 30
0.0
 10
-1.0087
 20
28.0795
 30
0.0
 10
-1.0087
 20
28.0795
 30
0.0
 10
-0.9499
 20
28.1036
 30
0.0
 10
-0.9499
 20
28.1036
 30
0.0
 10
-0.9499
 20
28.1036
 30
0.0
 10
-0.9499
 20
28.1036
 30
0.0
 10
-0.8887
 20
28.121
 30
0.0
 10
-0.8887
 20
28.121
 30
0.0
 10
-0.8887
 20
28.121
 30
0.0
 10
-0.8887
 20
28.121
 30
0.0
 10
-0.8259
 20
28.1314
 30
0.0
 10
-0.8259
 20
28.1314
 30
0.0
 10
-0.8259
 20
28.1314
 30
0.0
 10
-0.8259
 20
28.1314
 30
0.0
 10
-0.7655
 20
28.1347
 30
0.0
 10
-0.7655
 20
28.1347
 30
0.0
  0
SPLINE
  5
F3
330
1F
100
AcDbEntity
  8
DEFAULT_1
 62
   250
100
AcDbSpline
210
0.0
220
0.0
230
1.0
 70
    24
 71
     3
 72
     8
 73
     4
 74
     0
 42
0.0000000001
 43
0.0000000001
 40
0.0
 40
0.0
 40
0.0
 40
0.0
 40
1.0
 40
1.0
 40
1.0
 40
1.0
 10
0.565
 20
27.3741
 30
0.0
 10
0.565
 20
27.3741
 30
0.0
 10
0.565
 20
27.4582
 30
0.0
 10
0.565
 20
27.4582
 30
0.0
  0
SPLINE
  5
F4
330
1F
100
AcDbEntity
  8
DEFAULT_1
 62
   250
100
AcDbSpline
210
0.0
220
0.0
230
1.0
 70
    24
 71
     3
 72
     8
 73
     4
 74
     0
 42
0.0000000001
 43
0.0000000001
 40
0.0
 40
0.0
 40
0.0
 40
0.0
 40
1.0
 40
1.0
 40
1.0
 40
1.0
 10
0.1871
 20
28.0838
 30
0.0
 10
0.1871
 20
28.0838
 30
0.0
 10
0.1871
 20
27.0122
 30
0.0
 10
0.1871
 20
27.0122
 30
0.0
  0
SPLINE
  5
F5
330
1F
100
AcDbEntity
  8
DEFAULT_1
 62
   250
100
AcDbSpline
210
0.0
220
0.0
230
1.0
 70
    24
 71
     3
 72
     8
 73
     4
 74
     0
 42
0.0000000001
 43
0.0000000001
 40
0.0
 40
0.0
 40
0.0
 40
0.0
 40
1.0
 40
1.0
 40
1.0
 40
1.0
 10
-0.2178
 20
26.6673
 30
0.0
 10
-0.2178
 20
26.6673
 30
0.0
 10
-0.2178
 20
28.2775
 30
0.0
 10
-0.2178
 20
28.2775
 30
0.0
  0
SPLINE
  5
F6
330
1F
100
AcDbEntity
  8
DEFAULT_1
 62
   250
100
AcDbSpline
210
0.0
220
0.0
230
1.0
 70
    24
 71
     3
 72
     8
 73
     4
 74
     0
 42
0.0000000001
 43
0.0000000001
 40
0.0
 40
0.0
 40
0.0
 40
0.0
 40
1.0
 40
1.0
 40
1.0
 40
1.0
 10
-1.3246
 20
28.2775
 30
0.0
 10
-1.3246
 20
28.2775
 30
0.0
 10
-1.3246
 20
26.6699
 30
0.0
 10
-1.3246
 20
26.6699
 30
0.0
  0
SPLINE
  5
F7
330
1F
100
AcDbEntity
  8
DEFAULT_1
 62
   250
100
AcDbSpline
210
0.0
220
0.0
230
1.0
 70
    24
 71
     3
 72
     8
 73
     4
 74
     0
 42
0.0000000001
 43
0.0000000001
 40
0.0
 40
0.0
 40
0.0
 40
0.0
 40
1.0
 40
1.0
 40
1.0
 40
1.0
 10
-1.7296
 20
27.0122
 30
0.0
 10
-1.7296
 20
27.0122
 30
0.0
 10
-1.7296
 20
28.0838
 30
0.0
 10
-1.7296
 20
28.0838
 30
0.0
  0
SPLINE
  5
F8
330
1F
100
AcDbEntity
  8
DEFAULT_1
 62
   250
100
AcDbSpline
210
0.0
220
0.0
230
1.0
 70
    24
 71
     3
 72
     8
 73
     4
 74
     0
 42
0.0000000001
 43
0.0000000001
 40
0.0
 40
0.0
 40
0.0
 40
0.0
 40
1.0
 40
1.0
 40
1.0
 40
1.0
 10
-2.1345
 20
27.1468
 30
0.0
 10
-2.1345
 20
27.1468
 30
0.0
 10
-2.1345
 20
27.6855
 30
0.0
 10
-2.1345
 20
27.6855
 30
0.0
  0
SPLINE
  5
F9
330
1F
100
AcDbEntity
  8
DEFAULT_1
 62
   250
100
AcDbSpline
210
0.0
220
0.0
230
1.0
 70
    24
 71
     3
 72
     8
 73
     4
 74
     0
 42
0.0000000001
 43
0.0000000001
 40
0.0
 40
0.0
 40
0.0
 40
0.0
 40
1.0
 40
1.0
 40
1.0
 40
1.0
 10
-3.5622
 20
25.2211
 30
0.0
 10
-3.5622
 20
25.2211
 30
0.0
 10
-3.8285
 20
26.4195
 30
0.0
 10
-3.8285
 20
26.4195
 30
0.0
  0
SPLINE
  5
FA
330
1F
100
AcDbEntity
  8
DEFAULT_1
 62
   250
100
AcDbSpline
210
0.0
220
0.0
230
1.0
 70
    24
 71
     3
 72
     8
 73
     4
 74
     0
 42
0.0000000001
 43
0.0000000001
 40
0.0
 40
0.0
 40
0.0
 40
0.0
 40
1.0
 40
1.0
 40
1.0
 40
1.0
 10
2.0467
 20
25.2211
 30
0.0
 10
2.0467
 20
25.2211
 30
0.0
 10
2.313
 20
26.4195
 30
0.0
 10
2.313
 20
26.4195
 30
0.0
  0
SPLINE
  5
FB
330
1F
100
AcDbEntity
  8
DEFAULT_1
 62
   250
100
AcDbSpline
210
0.0
220
0.0
230
1.0
 70
    24
 71
     3
 72
     8
 73
     4
 74
     0
 42
0.0000000001
 43
0.0000000001
 40
0.0
 40
0.0
 40
0.0
 40
0.0
 40
1.0
 40
1.0
 40
1.0
 40
1.0
 10
0.1871
 20
27.2214
 30
0.0
 10
0.1871
 20
27.2214
 30
0.0
 10
0.515
 20
27.309
 30
0.0
 10
0.515
 20
27.309
 30
0.0
  0
SPLINE
  5
FC
330
1F
100
AcDbEntity
  8
DEFAULT_1
 62
   250
100
AcDbSpline
210
0.0
220
0.0
230
1.0
 70
    24
 71
     3
 72
     8
 73
     4
 74
     0
 42
0.0000000001
 43
0.0000000001
 40
0.0
 40
0.0
 40
0.0
 40
0.0
 40
1.0
 40
1.0
 40
1.0
 40
1.0
 10
2.0467
 20
25.2211
 30
0.0
 10
2.0467
 20
25.2211
 30
0.0
 10
-3.5622
 20
25.2211
 30
0.0
 10
-3.5622
 20
25.2211
 30
0.0
  0
SPLINE
  5
FD
330
1F
100
AcDbEntity
  8
DEFAULT_1
 62
   250
100
AcDbSpline
210
0.0
220
0.0
230
1.0
 70
    24
 71
     3
 72
     8
 73
     4
 74
     0
 42
0.0000000001
 43
0.0000000001
 40
0.0
 40
0.0
 40
0.0
 40
0.0
 40
1.0
 40
1.0
 40
1.0
 40
1.0
 10
0.1871
 20
27.0122
 30
0.0
 10
0.1871
 20
27.0122
 30
0.0
 10
-0.2178
 20
27.0122
 30
0.0
 10
-0.2178
 20
27.0122
 30
0.0
  0
SPLINE
  5
FE
330
1F
100
AcDbEntity
  8
DEFAULT_1
 62
   250
100
AcDbSpline
210
0.0
220
0.0
230
1.0
 70
    24
 71
     3
 72
     8
 73
     4
 74
     0
 42
0.0000000001
 43
0.0000000001
 40
0.0
 40
0.0
 40
0.0
 40
0.0
 40
1.0
 40
1.0
 40
1.0
 40
1.0
 10
-1.3246
 20
27.0122
 30
0.0
 10
-1.3246
 20
27.0122
 30
0.0
 10
-1.7296
 20
27.0122
 30
0.0
 10
-1.7296
 20
27.0122
 30
0.0
  0
SPLINE
  5
FF
330
1F
100
AcDbEntity
  8
DEFAULT_1
 62
   250
100
AcDbSpline
210
0.0
220
0.0
230
1.0
 70
    24
 71
     3
 72
     8
 73
     4
 74
     0
 42
0.0000000001
 43
0.0000000001
 40
0.0
 40
0.0
 40
0.0
 40
0.0
 40
1.0
 40
1.0
 40
1.0
 40
1.0
 10
-2.1345
 20
27.1468
 30
0.0
 10
-2.1345
 20
27.1468
 30
0.0
 10
-1.7296
 20
27.1468
 30
0.0
 10
-1.7296
 20
27.1468
 30
0.0
  0
SPLINE
  5
100
330
1F
100
AcDbEntity
  8
DEFAULT_1
 62
   250
100
AcDbSpline
210
0.0
220
0.0
230
1.0
 70
    24
 71
     3
 72
     8
 73
     4
 74
     0
 42
0.0000000001
 43
0.0000000001
 40
0.0
 40
0.0
 40
0.0
 40
0.0
 40
1.0
 40
1.0
 40
1.0
 40
1.0
 10
-2.1345
 20
27.6855
 30
0.0
 10
-2.1345
 20
27.6855
 30
0.0
 10
-1.7296
 20
27.6855
 30
0.0
 10
-1.7296
 20
27.6855
 30
0.0
  0
SPLINE
  5
101
330
1F
100
AcDbEntity
  8
DEFAULT_1
 62
   250
100
AcDbSpline
210
0.0
220
0.0
230
1.0
 70
    24
 71
     3
 72
     8
 73
     4
 74
     0
 42
0.0000000001
 43
0.0000000001
 40
0.0
 40
0.0
 40
0.0
 40
0.0
 40
1.0
 40
1.0
 40
1.0
 40
1.0
 10
-0.7564
 20
28.1347
 30
0.0
 10
-0.7564
 20
28.1347
 30
0.0
 10
-0.7655
 20
28.1347
 30
0.0
 10
-0.7655
 20
28.1347
 30
0.0
  0
SPLINE
  5
102
330
1F
100
AcDbEntity
  8
DEFAULT_1
 62
   250
100
AcDbSpline
210
0.0
220
0.0
230
1.0
 70
    24
 71
     3
 72
     8
 73
     4
 74
     0
 42
0.0000000001
 43
0.0000000001
 40
0.0
 40
0.0
 40
0.0
 40
0.0
 40
1.0
 40
1.0
 40
1.0
 40
1.0
 10
0.1871
 20
27.6109
 30
0.0
 10
0.1871
 20
27.6109
 30
0.0
 10
0.515
 20
27.5232
 30
0.0
 10
0.515
 20
27.5232
 30
0.0
  0
SPLINE
  5
103
330
1F
100
AcDbEntity
  8
DEFAULT_1
 62
   250
100
AcDbSpline
210
0.0
220
0.0
230
1.0
 70
     8
 71
     3
 72
     8
 73
     4
 74
     0
 42
0.0000000001
 43
0.0000000001
 40
0.0
 40
0.0
 40
0.0
 40
0.0
 40
1.0
 40
1.0
 40
1.0
 40
1.0
 10
0.515
 20
27.5232
 30
0.0
 10
0.5445
 20
27.5154
 30
0.0
 10
0.565
 20
27.4887
 30
0.0
 10
0.565
 20
27.4582
 30
0.0
  0
SPLINE
  5
104
330
1F
100
AcDbEntity
  8
DEFAULT_1
 62
   250
100
AcDbSpline
210
0.0
220
0.0
230
1.0
 70
     8
 71
     3
 72
     8
 73
     4
 74
     0
 42
0.0000000001
 43
0.0000000001
 40
0.0
 40
0.0
 40
0.0
 40
0.0
 40
1.0
 40
1.0
 40
1.0
 40
1.0
 10
0.565
 20
27.3741
 30
0.0
 10
0.565
 20
27.3436
 30
0.0
 10
0.5445
 20
27.3169
 30
0.0
 10
0.515
 20
27.309
 30
0.0
  0
SPLINE
  5
105
330
1F
100
AcDbEntity
  8
DEFAULT_1
 62
   250
100
AcDbSpline
210
0.0
220
0.0
230
1.0
 70
     8
 71
     3
 72
     8
 73
     4
 74
     0
 42
0.0000000001
 43
0.0000000001
 40
0.0
 40
0.0
 40
0.0
 40
0.0
 40
1.0
 40
1.0
 40
1.0
 40
1.0
 10
-1.3493
 20
28.3295
 30
0.0
 10
-1.3337
 20
28.3167
 30
0.0
 10
-1.3246
 20
28.2976
 30
0.0
 10
-1.3246
 20
28.2775
 30
0.0
  0
SPLINE
  5
106
330
1F
100
AcDbEntity
  8
DEFAULT_1
 62
   250
100
AcDbSpline
210
0.0
220
0.0
230
1.0
 70
     8
 71
     3
 72
     8
 73
     4
 74
     0
 42
0.0000000001
 43
0.0000000001
 40
0.0
 40
0.0
 40
0.0
 40
0.0
 40
1.0
 40
1.0
 40
1.0
 40
1.0
 10
-0.2178
 20
28.2775
 30
0.0
 10
-0.2178
 20
28.2976
 30
0.0
 10
-0.2088
 20
28.3167
 30
0.0
 10
-0.1932
 20
28.3295
 30
0.0
  0
SPLINE
  5
107
330
1F
100
AcDbEntity
  8
DEFAULT_1
 62
   250
100
AcDbSpline
210
0.0
220
0.0
230
1.0
 70
     8
 71
     3
 72
    20
 73
    16
 74
     0
 42
0.0000000001
 43
0.0000000001
 40
0.0
 40
0.0
 40
0.0
 40
0.0
 40
0.2
 40
0.2
 40
0.2
 40
0.2
 40
0.4
 40
0.4
 40
0.4
 40
0.4
 40
0.6
 40
0.6
 40
0.6
 40
0.6
 40
1.0
 40
1.0
 40
1.0
 40
1.0
 10
-1.3493
 20
28.3295
 30
0.0
 10
-1.6468
 20
28.5731
 30
0.0
 10
-1.7587
 20
28.9769
 30
0.0
 10
-1.629
 20
29.3384
 30
0.0
 10
-1.629
 20
29.3384
 30
0.0
 10
-1.4994
 20
29.6998
 30
0.0
 10
-1.156
 20
29.9411
 30
0.0
 10
-0.7712
 20
29.9411
 30
0.0
 10
-0.7712
 20
29.9411
 30
0.0
 10
-0.3864
 20
29.9411
 30
0.0
 10
-0.0431
 20
29.6998
 30
0.0
 10
0.0866
 20
29.3384
 30
0.0
 10
0.0866
 20
29.3384
 30
0.0
 10
0.2162
 20
28.9769
 30
0.0
 10
0.1043
 20
28.5731
 30
0.0
 10
-0.1932
 20
28.3295
 30
0.0
  0
SPLINE
  5
108
330
1F
100
AcDbEntity
  8
DEFAULT_1
 62
   250
100
AcDbSpline
210
0.0
220
0.0
230
1.0
 70
     8
 71
     3
 72
    16
 73
    12
 74
     0
 42
0.0000000001
 43
0.0000000001
 40
0.0
 40
0.0
 40
0.0
 40
0.0
 40
0.25
 40
0.25
 40
0.25
 40
0.25
 40
0.5
 40
0.5
 40
0.5
 40
0.5
 40
1.0
 40
1.0
 40
1.0
 40
1.0
 10
-1.7296
 20
28.0838
 30
0.0
 10
-2.2535
 20
28.6108
 30
0.0
 10
-2.2512
 20
29.4615
 30
0.0
 10
-1.7243
 20
29.9856
 30
0.0
 10
-1.7243
 20
29.9856
 30
0.0
 10
-1.1976
 20
30.5098
 30
0.0
 10
-0.3449
 20
30.5098
 30
0.0
 10
0.1819
 20
29.9856
 30
0.0
 10
0.1819
 20
29.9856
 30
0.0
 10
0.7087
 20
29.4615
 30
0.0
 10
0.7111
 20
28.6108
 30
0.0
 10
0.1871
 20
28.0838
 30
0.0
  0
SPLINE
  5
109
330
1F
100
AcDbEntity
  8
DEFAULT_1
 62
   250
100
AcDbSpline
210
0.0
220
0.0
230
1.0
 70
     8
 71
     3
 72
     8
 73
     4
 74
     0
 42
0.0000000001
 43
0.0000000001
 40
0.0
 40
0.0
 40
0.0
 40
0.0
 40
1.0
 40
1.0
 40
1.0
 40
1.0
 10
-0.7564
 20
28.1347
 30
0.0
 10
-0.4619
 20
28.1347
 30
0.0
 10
-0.222
 20
27.8987
 30
0.0
 10
-0.2179
 20
27.6049
 30
0.0
  0
SPLINE
  5
10A
330
1F
100
AcDbEntity
  8
DEFAULT_1
 62
   250
100
AcDbSpline
210
0.0
220
0.0
230
1.0
 70
     8
 71
     3
 72
     8
 73
     4
 74
     0
 42
0.0000000001
 43
0.0000000001
 40
0.0
 40
0.0
 40
0.0
 40
0.0
 40
1.0
 40
1.0
 40
1.0
 40
1.0
 10
-0.2172
 20
26.8244
 30
0.0
 10
0.6387
 20
26.7841
 30
0.0
 10
1.4874
 20
26.6483
 30
0.0
 10
2.313
 20
26.4195
 30
0.0
  0
SPLINE
  5
10B
330
1F
100
AcDbEntity
  8
DEFAULT_1
 62
   250
100
AcDbSpline
210
0.0
220
0.0
230
1.0
 70
     8
 71
     3
 72
     8
 73
     4
 74
     0
 42
0.0000000001
 43
0.0000000001
 40
0.0
 40
0.0
 40
0.0
 40
0.0
 40
1.0
 40
1.0
 40
1.0
 40
1.0
 10
-3.8285
 20
26.4195
 30
0.0
 10
-3.0074
 20
26.647
 30
0.0
 10
-2.1634
 20
26.7821
 30
0.0
 10
-1.3122
 20
26.8221
 30
0.0
  0
SPLINE
  5
10C
330
1F
100
AcDbEntity
  8
DEFAULT_1
 62
   250
100
AcDbSpline
210
0.0
220
0.0
230
1.0
 70
     8
 71
     3
 72
    32
 73
    28
 74
     0
 42
0.0000000001
 43
0.0000000001
 40
0.0
 40
0.0
 40
0.0
 40
0.0
 40
0.125
 40
0.125
 40
0.125
 40
0.125
 40
0.25
 40
0.25
 40
0.25
 40
0.25
 40
0.375
 40
0.375
 40
0.375
 40
0.375
 40
0.5
 40
0.5
 40
0.5
 40
0.5
 40
0.625
 40
0.625
 40
0.625
 40
0.625
 40
0.75
 40
0.75
 40
0.75
 40
0.75
 40
1.0
 40
1.0
 40
1.0
 40
1.0
 10
-0.2179
 20
27.6012
 30
0.0
 10
-0.2179
 20
27.6012
 30
0.0
 10
-0.2183
 20
27.5893
 30
0.0
 10
-0.2183
 20
27.5893
 30
0.0
 10
-0.2183
 20
27.5893
 30
0.0
 10
-0.2183
 20
27.5893
 30
0.0
 10
-0.2189
 20
27.5747
 30
0.0
 10
-0.2189
 20
27.5747
 30
0.0
 10
-0.2189
 20
27.5747
 30
0.0
 10
-0.2189
 20
27.5747
 30
0.0
 10
-0.2195
 20
27.5574
 30
0.0
 10
-0.2195
 20
27.5574
 30
0.0
 10
-0.2195
 20
27.5574
 30
0.0
 10
-0.2195
 20
27.5574
 30
0.0
 10
-0.2198
 20
27.5378
 30
0.0
 10
-0.2198
 20
27.5378
 30
0.0
 10
-0.2198
 20
27.5378
 30
0.0
 10
-0.2198
 20
27.5378
 30
0.0
 10
-0.22
 20
27.5163
 30
0.0
 10
-0.22
 20
27.5163
 30
0.0
 10
-0.22
 20
27.5163
 30
0.0
 10
-0.22
 20
27.5163
 30
0.0
 10
-0.2198
 20
27.4931
 30
0.0
 10
-0.2198
 20
27.4931
 30
0.0
 10
-0.2198
 20
27.4931
 30
0.0
 10
-0.2198
 20
27.4931
 30
0.0
 10
-0.2197
 20
27.4834
 30
0.0
 10
-0.2197
 20
27.4834
 30
0.0
  0
SPLINE
  5
10D
330
1F
100
AcDbEntity
  8
DEFAULT_1
 62
   250
100
AcDbSpline
210
0.0
220
0.0
230
1.0
 70
     8
 71
     3
 72
    16
 73
    12
 74
     0
 42
0.0000000001
 43
0.0000000001
 40
0.0
 40
0.0
 40
0.0
 40
0.0
 40
0.25
 40
0.25
 40
0.25
 40
0.25
 40
0.5
 40
0.5
 40
0.5
 40
0.5
 40
1.0
 40
1.0
 40
1.0
 40
1.0
 10
-0.2197
 20
27.4834
 30
0.0
 10
-0.2197
 20
27.4834
 30
0.0
 10
-0.2194
 20
27.4686
 30
0.0
 10
-0.2194
 20
27.4686
 30
0.0
 10
-0.2194
 20
27.4686
 30
0.0
 10
-0.2194
 20
27.4686
 30
0.0
 10
-0.2188
 20
27.4428
 30
0.0
 10
-0.2188
 20
27.4428
 30
0.0
 10
-0.2188
 20
27.4428
 30
0.0
 10
-0.2188
 20
27.4428
 30
0.0
 10
-0.2182
 20
27.4161
 30
0.0
 10
-0.2182
 20
27.4161
 30
0.0
  0
SPLINE
  5
10E
330
1F
100
AcDbEntity
  8
DEFAULT_1
 62
   250
100
AcDbSpline
210
0.0
220
0.0
230
1.0
 70
    24
 71
     3
 72
    12
 73
     8
 74
     0
 42
0.0000000001
 43
0.0000000001
 40
0.0
 40
0.0
 40
0.0
 40
0.0
 40
0.3333333333333333
 40
0.3333333333333333
 40
0.3333333333333333
 40
0.3333333333333333
 40
1.0
 40
1.0
 40
1.0
 40
1.0
 10
-0.7577
 20
26.5421
 30
0.0
 10
-0.7577
 20
26.5421
 30
0.0
 10
-0.757
 20
26.5421
 30
0.0
 10
-0.757
 20
26.5421
 30
0.0
 10
-0.757
 20
26.5421
 30
0.0
 10
-0.757
 20
26.5421
 30
0.0
 10
-0.7564
 20
26.5421
 30
0.0
 10
-0.7564
 20
26.5421
 30
0.0
  0
SPLINE
  5
10F
330
1F
100
AcDbEntity
  8
DEFAULT_1
 62
   250
100
AcDbSpline
210
0.0
220
0.0
230
1.0
 70
     8
 71
     3
 72
    60
 73
    56
 74
     0
 42
0.0000000001
 43
0.0000000001
 40
0.0
 40
0.0
 40
0.0
 40
0.0
 40
0.0666666666666667
 40
0.0666666666666667
 40
0.0666666666666667
 40
0.0666666666666667
 40
0.1333333333333333
 40
0.1333333333333333
 40
0.1333333333333333
 40
0.1333333333333333
 40
0.2
 40
0.2
 40
0.2
 40
0.2
 40
0.2666666666666667
 40
0.2666666666666667
 40
0.2666666666666667
 40
0.2666666666666667
 40
0.3333333333333333
 40
0.3333333333333333
 40
0.3333333333333333
 40
0.3333333333333333
 40
0.4
 40
0.4
 40
0.4
 40
0.4
 40
0.4666666666666667
 40
0.4666666666666667
 40
0.4666666666666667
 40
0.4666666666666667
 40
0.5333333333333333
 40
0.5333333333333333
 40
0.5333333333333333
 40
0.5333333333333333
 40
0.6
 40
0.6
 40
0.6
 40
0.6
 40
0.6666666666666666
 40
0.6666666666666666
 40
0.6666666666666666
 40
0.6666666666666666
 40
0.7333333333333333
 40
0.7333333333333333
 40
0.7333333333333333
 40
0.7333333333333333
 40
0.8
 40
0.8
 40
0.8
 40
0.8
 40
0.8666666666666667
 40
0.8666666666666667
 40
0.8666666666666667
 40
0.8666666666666667
 40
1.0
 40
1.0
 40
1.0
 40
1.0
 10
-0.7564
 20
26.5421
 30
0.0
 10
-0.7564
 20
26.5421
 30
0.0
 10
-0.7056
 20
26.5427
 30
0.0
 10
-0.7056
 20
26.5427
 30
0.0
 10
-0.7056
 20
26.5427
 30
0.0
 10
-0.7056
 20
26.5427
 30
0.0
 10
-0.6545
 20
26.5445
 30
0.0
 10
-0.6545
 20
26.5445
 30
0.0
 10
-0.6545
 20
26.5445
 30
0.0
 10
-0.6545
 20
26.5445
 30
0.0
 10
-0.6038
 20
26.5476
 30
0.0
 10
-0.6038
 20
26.5476
 30
0.0
 10
-0.6038
 20
26.5476
 30
0.0
 10
-0.6038
 20
26.5476
 30
0.0
 10
-0.5537
 20
26.552
 30
0.0
 10
-0.5537
 20
26.552
 30
0.0
 10
-0.5537
 20
26.552
 30
0.0
 10
-0.5537
 20
26.552
 30
0.0
 10
-0.504
 20
26.5577
 30
0.0
 10
-0.504
 20
26.5577
 30
0.0
 10
-0.504
 20
26.5577
 30
0.0
 10
-0.504
 20
26.5577
 30
0.0
 10
-0.4551
 20
26.565
 30
0.0
 10
-0.4551
 20
26.565
 30
0.0
 10
-0.4551
 20
26.565
 30
0.0
 10
-0.4551
 20
26.565
 30
0.0
 10
-0.4081
 20
26.5736
 30
0.0
 10
-0.4081
 20
26.5736
 30
0.0
 10
-0.4081
 20
26.5736
 30
0.0
 10
-0.4081
 20
26.5736
 30
0.0
 10
-0.364
 20
26.5838
 30
0.0
 10
-0.364
 20
26.5838
 30
0.0
 10
-0.364
 20
26.5838
 30
0.0
 10
-0.364
 20
26.5838
 30
0.0
 10
-0.3236
 20
26.5952
 30
0.0
 10
-0.3236
 20
26.5952
 30
0.0
 10
-0.3236
 20
26.5952
 30
0.0
 10
-0.3236
 20
26.5952
 30
0.0
 10
-0.2879
 20
26.6081
 30
0.0
 10
-0.2879
 20
26.6081
 30
0.0
 10
-0.2879
 20
26.6081
 30
0.0
 10
-0.2879
 20
26.6081
 30
0.0
 10
-0.2583
 20
26.6221
 30
0.0
 10
-0.2583
 20
26.6221
 30
0.0
 10
-0.2583
 20
26.6221
 30
0.0
 10
-0.2583
 20
26.6221
 30
0.0
 10
-0.2361
 20
26.6368
 30
0.0
 10
-0.2361
 20
26.6368
 30
0.0
 10
-0.2361
 20
26.6368
 30
0.0
 10
-0.2361
 20
26.6368
 30
0.0
 10
-0.2224
 20
26.652
 30
0.0
 10
-0.2224
 20
26.652
 30
0.0
 10
-0.2224
 20
26.652
 30
0.0
 10
-0.2224
 20
26.652
 30
0.0
 10
-0.2178
 20
26.6673
 30
0.0
 10
-0.2178
 20
26.6673
 30
0.0
  0
SPLINE
  5
110
330
1F
100
AcDbEntity
  8
DEFAULT_1
 62
   250
100
AcDbSpline
210
0.0
220
0.0
230
1.0
 70
     8
 71
     3
 72
    60
 73
    56
 74
     0
 42
0.0000000001
 43
0.0000000001
 40
0.0
 40
0.0
 40
0.0
 40
0.0
 40
0.0666666666666667
 40
0.0666666666666667
 40
0.0666666666666667
 40
0.0666666666666667
 40
0.1333333333333333
 40
0.1333333333333333
 40
0.1333333333333333
 40
0.1333333333333333
 40
0.2
 40
0.2
 40
0.2
 40
0.2
 40
0.2666666666666667
 40
0.2666666666666667
 40
0.2666666666666667
 40
0.2666666666666667
 40
0.3333333333333333
 40
0.3333333333333333
 40
0.3333333333333333
 40
0.3333333333333333
 40
0.4
 40
0.4
 40
0.4
 40
0.4
 40
0.4666666666666667
 40
0.4666666666666667
 40
0.4666666666666667
 40
0.4666666666666667
 40
0.5333333333333333
 40
0.5333333333333333
 40
0.5333333333333333
 40
0.5333333333333333
 40
0.6
 40
0.6
 40
0.6
 40
0.6
 40
0.6666666666666666
 40
0.6666666666666666
 40
0.6666666666666666
 40
0.6666666666666666
 40
0.7333333333333333
 40
0.7333333333333333
 40
0.7333333333333333
 40
0.7333333333333333
 40
0.8
 40
0.8
 40
0.8
 40
0.8
 40
0.8666666666666667
 40
0.8666666666666667
 40
0.8666666666666667
 40
0.8666666666666667
 40
1.0
 40
1.0
 40
1.0
 40
1.0
 10
-1.3235
 20
26.6706
 30
0.0
 10
-1.3235
 20
26.6706
 30
0.0
 10
-1.3188
 20
26.6549
 30
0.0
 10
-1.3188
 20
26.6549
 30
0.0
 10
-1.3188
 20
26.6549
 30
0.0
 10
-1.3188
 20
26.6549
 30
0.0
 10
-1.3047
 20
26.6392
 30
0.0
 10
-1.3047
 20
26.6392
 30
0.0
 10
-1.3047
 20
26.6392
 30
0.0
 10
-1.3047
 20
26.6392
 30
0.0
 10
-1.2819
 20
26.6239
 30
0.0
 10
-1.2819
 20
26.6239
 30
0.0
 10
-1.2819
 20
26.6239
 30
0.0
 10
-1.2819
 20
26.6239
 30
0.0
 10
-1.2515
 20
26.6095
 30
0.0
 10
-1.2515
 20
26.6095
 30
0.0
 10
-1.2515
 20
26.6095
 30
0.0
 10
-1.2515
 20
26.6095
 30
0.0
 10
-1.2149
 20
26.5963
 30
0.0
 10
-1.2149
 20
26.5963
 30
0.0
 10
-1.2149
 20
26.5963
 30
0.0
 10
-1.2149
 20
26.5963
 30
0.0
 10
-1.1735
 20
26.5845
 30
0.0
 10
-1.1735
 20
26.5845
 30
0.0
 10
-1.1735
 20
26.5845
 30
0.0
 10
-1.1735
 20
26.5845
 30
0.0
 10
-1.1283
 20
26.5742
 30
0.0
 10
-1.1283
 20
26.5742
 30
0.0
 10
-1.1283
 20
26.5742
 30
0.0
 10
-1.1283
 20
26.5742
 30
0.0
 10
-1.0801
 20
26.5652
 30
0.0
 10
-1.0801
 20
26.5652
 30
0.0
 10
-1.0801
 20
26.5652
 30
0.0
 10
-1.0801
 20
26.5652
 30
0.0
 10
-1.0299
 20
26.5579
 30
0.0
 10
-1.0299
 20
26.5579
 30
0.0
 10
-1.0299
 20
26.5579
 30
0.0
 10
-1.0299
 20
26.5579
 30
0.0
 10
-0.9789
 20
26.552
 30
0.0
 10
-0.9789
 20
26.552
 30
0.0
 10
-0.9789
 20
26.552
 30
0.0
 10
-0.9789
 20
26.552
 30
0.0
 10
-0.9275
 20
26.5475
 30
0.0
 10
-0.9275
 20
26.5475
 30
0.0
 10
-0.9275
 20
26.5475
 30
0.0
 10
-0.9275
 20
26.5475
 30
0.0
 10
-0.8756
 20
26.5444
 30
0.0
 10
-0.8756
 20
26.5444
 30
0.0
 10
-0.8756
 20
26.5444
 30
0.0
 10
-0.8756
 20
26.5444
 30
0.0
 10
-0.8233
 20
26.5426
 30
0.0
 10
-0.8233
 20
26.5426
 30
0.0
 10
-0.8233
 20
26.5426
 30
0.0
 10
-0.8233
 20
26.5426
 30
0.0
 10
-0.7712
 20
26.5421
 30
0.0
 10
-0.7712
 20
26.5421
 30
0.0
  0
SPLINE
  5
111
330
1F
100
AcDbEntity
  8
DEFAULT_1
 62
   250
100
AcDbSpline
210
0.0
220
0.0
230
1.0
 70
    24
 71
     3
 72
    12
 73
     8
 74
     0
 42
0.0000000001
 43
0.0000000001
 40
0.0
 40
0.0
 40
0.0
 40
0.0
 40
0.3333333333333333
 40
0.3333333333333333
 40
0.3333333333333333
 40
0.3333333333333333
 40
1.0
 40
1.0
 40
1.0
 40
1.0
 10
-0.7712
 20
26.5421
 30
0.0
 10
-0.7712
 20
26.5421
 30
0.0
 10
-0.7645
 20
26.5421
 30
0.0
 10
-0.7645
 20
26.5421
 30
0.0
 10
-0.7645
 20
26.5421
 30
0.0
 10
-0.7645
 20
26.5421
 30
0.0
 10
-0.7577
 20
26.5421
 30
0.0
 10
-0.7577
 20
26.5421
 30
0.0
  0
SPLINE
  5
112
330
1F
100
AcDbEntity
  8
DEFAULT_1
 62
   250
100
AcDbSpline
210
0.0
220
0.0
230
1.0
 70
    24
 71
     3
 72
     8
 73
     4
 74
     0
 42
0.0000000001
 43
0.0000000001
 40
0.0
 40
0.0
 40
0.0
 40
0.0
 40
1.0
 40
1.0
 40
1.0
 40
1.0
 10
2.2688
 20
2.3659
 30
0.0
 10
2.2688
 20
2.3659
 30
0.0
 10
5.5631
 20
3.2486
 30
0.0
 10
5.5631
 20
3.2486
 30
0.0
  0
SPLINE
  5
113
330
1F
100
AcDbEntity
  8
DEFAULT_1
 62
   250
100
AcDbSpline
210
0.0
220
0.0
230
1.0
 70
     8
 71
     3
 72
    16
 73
    12
 74
     0
 42
0.0000000001
 43
0.0000000001
 40
0.0
 40
0.0
 40
0.0
 40
0.0
 40
0.25
 40
0.25
 40
0.25
 40
0.25
 40
0.5
 40
0.5
 40
0.5
 40
0.5
 40
1.0
 40
1.0
 40
1.0
 40
1.0
 10
4.6094
 20
7.6469
 30
0.0
 10
4.6094
 20
7.6469
 30
0.0
 10
4.3982
 20
7.5961
 30
0.0
 10
4.3982
 20
7.5961
 30
0.0
 10
4.3982
 20
7.5961
 30
0.0
 10
4.3982
 20
7.5961
 30
0.0
 10
5.6395
 20
2.9636
 30
0.0
 10
5.6395
 20
2.9636
 30
0.0
 10
5.6395
 20
2.9636
 30
0.0
 10
5.6395
 20
2.9636
 30
0.0
 10
5.8888
 20
3.0553
 30
0.0
 10
5.8888
 20
3.0553
 30
0.0
  0
SPLINE
  5
114
330
1F
100
AcDbEntity
  8
DEFAULT_1
 62
   250
100
AcDbSpline
210
0.0
220
0.0
230
1.0
 70
    24
 71
     3
 72
     8
 73
     4
 74
     0
 42
0.0000000001
 43
0.0000000001
 40
0.0
 40
0.0
 40
0.0
 40
0.0
 40
1.0
 40
1.0
 40
1.0
 40
1.0
 10
2.2688
 20
6.7199
 30
0.0
 10
2.2688
 20
6.7199
 30
0.0
 10
4.4746
 20
7.311
 30
0.0
 10
4.4746
 20
7.311
 30
0.0
  0
SPLINE
  5
115
330
1F
100
AcDbEntity
  8
DEFAULT_1
 62
   250
100
AcDbSpline
210
0.0
220
0.0
230
1.0
 70
     8
 71
     3
 72
    28
 73
    24
 74
     0
 42
0.0000000001
 43
0.0000000001
 40
0.0
 40
0.0
 40
0.0
 40
0.0
 40
0.1428571428571428
 40
0.1428571428571428
 40
0.1428571428571428
 40
0.1428571428571428
 40
0.2857142857142857
 40
0.2857142857142857
 40
0.2857142857142857
 40
0.2857142857142857
 40
0.4285714285714285
 40
0.4285714285714285
 40
0.4285714285714285
 40
0.4285714285714285
 40
0.5714285714285714
 40
0.5714285714285714
 40
0.5714285714285714
 40
0.5714285714285714
 40
0.7142857142857143
 40
0.7142857142857143
 40
0.7142857142857143
 40
0.7142857142857143
 40
1.0
 40
1.0
 40
1.0
 40
1.0
 10
2.2688
 20
2.3659
 30
0.0
 10
2.2688
 20
2.3659
 30
0.0
 10
2.2605
 20
2.3757
 30
0.0
 10
2.2605
 20
2.3757
 30
0.0
 10
2.2605
 20
2.3757
 30
0.0
 10
2.2605
 20
2.3757
 30
0.0
 10
2.2358
 20
2.4053
 30
0.0
 10
2.2358
 20
2.4053
 30
0.0
 10
2.2358
 20
2.4053
 30
0.0
 10
2.2358
 20
2.4053
 30
0.0
 10
2.1955
 20
2.454
 30
0.0
 10
2.1955
 20
2.454
 30
0.0
 10
2.1955
 20
2.454
 30
0.0
 10
2.1955
 20
2.454
 30
0.0
 10
2.1419
 20
2.5205
 30
0.0
 10
2.1419
 20
2.5205
 30
0.0
 10
2.1419
 20
2.5205
 30
0.0
 10
2.1419
 20
2.5205
 30
0.0
 10
2.0756
 20
2.6051
 30
0.0
 10
2.0756
 20
2.6051
 30
0.0
 10
2.0756
 20
2.6051
 30
0.0
 10
2.0756
 20
2.6051
 30
0.0
 10
2.0688
 20
2.6139
 30
0.0
 10
2.0688
 20
2.6139
 30
0.0
  0
SPLINE
  5
116
330
1F
100
AcDbEntity
  8
DEFAULT_1
 62
   250
100
AcDbSpline
210
0.0
220
0.0
230
1.0
 70
     8
 71
     3
 72
    72
 73
    68
 74
     0
 42
0.0000000001
 43
0.0000000001
 40
0.0
 40
0.0
 40
0.0
 40
0.0
 40
0.0555555555555556
 40
0.0555555555555556
 40
0.0555555555555556
 40
0.0555555555555556
 40
0.1111111111111111
 40
0.1111111111111111
 40
0.1111111111111111
 40
0.1111111111111111
 40
0.1666666666666667
 40
0.1666666666666667
 40
0.1666666666666667
 40
0.1666666666666667
 40
0.2222222222222222
 40
0.2222222222222222
 40
0.2222222222222222
 40
0.2222222222222222
 40
0.2777777777777778
 40
0.2777777777777778
 40
0.2777777777777778
 40
0.2777777777777778
 40
0.3333333333333333
 40
0.3333333333333333
 40
0.3333333333333333
 40
0.3333333333333333
 40
0.3888888888888889
 40
0.3888888888888889
 40
0.3888888888888889
 40
0.3888888888888889
 40
0.4444444444444444
 40
0.4444444444444444
 40
0.4444444444444444
 40
0.4444444444444444
 40
0.5
 40
0.5
 40
0.5
 40
0.5
 40
0.5555555555555556
 40
0.5555555555555556
 40
0.5555555555555556
 40
0.5555555555555556
 40
0.6111111111111112
 40
0.6111111111111112
 40
0.6111111111111112
 40
0.6111111111111112
 40
0.6666666666666666
 40
0.6666666666666666
 40
0.6666666666666666
 40
0.6666666666666666
 40
0.7222222222222222
 40
0.7222222222222222
 40
0.7222222222222222
 40
0.7222222222222222
 40
0.7777777777777778
 40
0.7777777777777778
 40
0.7777777777777778
 40
0.7777777777777778
 40
0.8333333333333334
 40
0.8333333333333334
 40
0.8333333333333334
 40
0.8333333333333334
 40
0.8888888888888888
 40
0.8888888888888888
 40
0.8888888888888888
 40
0.8888888888888888
 40
1.0
 40
1.0
 40
1.0
 40
1.0
 10
2.0959
 20
2.5551
 30
0.0
 10
2.0959
 20
2.5551
 30
0.0
 10
1.8961
 20
2.8523
 30
0.0
 10
1.8961
 20
2.8523
 30
0.0
 10
1.8961
 20
2.8523
 30
0.0
 10
1.8961
 20
2.8523
 30
0.0
 10
1.7793
 20
3.0335
 30
0.0
 10
1.7793
 20
3.0335
 30
0.0
 10
1.7793
 20
3.0335
 30
0.0
 10
1.7793
 20
3.0335
 30
0.0
 10
1.6551
 20
3.2558
 30
0.0
 10
1.6551
 20
3.2558
 30
0.0
 10
1.6551
 20
3.2558
 30
0.0
 10
1.6551
 20
3.2558
 30
0.0
 10
1.5403
 20
3.5113
 30
0.0
 10
1.5403
 20
3.5113
 30
0.0
 10
1.5403
 20
3.5113
 30
0.0
 10
1.5403
 20
3.5113
 30
0.0
 10
1.4515
 20
3.7903
 30
0.0
 10
1.4515
 20
3.7903
 30
0.0
 10
1.4515
 20
3.7903
 30
0.0
 10
1.4515
 20
3.7903
 30
0.0
 10
1.3991
 20
4.0909
 30
0.0
 10
1.3991
 20
4.0909
 30
0.0
 10
1.3991
 20
4.0909
 30
0.0
 10
1.3991
 20
4.0909
 30
0.0
 10
1.3907
 20
4.4113
 30
0.0
 10
1.3907
 20
4.4113
 30
0.0
 10
1.3907
 20
4.4113
 30
0.0
 10
1.3907
 20
4.4113
 30
0.0
 10
1.4297
 20
4.7485
 30
0.0
 10
1.4297
 20
4.7485
 30
0.0
 10
1.4297
 20
4.7485
 30
0.0
 10
1.4297
 20
4.7485
 30
0.0
 10
1.51
 20
5.0851
 30
0.0
 10
1.51
 20
5.0851
 30
0.0
 10
1.51
 20
5.0851
 30
0.0
 10
1.51
 20
5.0851
 30
0.0
 10
1.6193
 20
5.4092
 30
0.0
 10
1.6193
 20
5.4092
 30
0.0
 10
1.6193
 20
5.4092
 30
0.0
 10
1.6193
 20
5.4092
 30
0.0
 10
1.7436
 20
5.7108
 30
0.0
 10
1.7436
 20
5.7108
 30
0.0
 10
1.7436
 20
5.7108
 30
0.0
 10
1.7436
 20
5.7108
 30
0.0
 10
1.8728
 20
5.9867
 30
0.0
 10
1.8728
 20
5.9867
 30
0.0
 10
1.8728
 20
5.9867
 30
0.0
 10
1.8728
 20
5.9867
 30
0.0
 10
2.0014
 20
6.239
 30
0.0
 10
2.0014
 20
6.239
 30
0.0
 10
2.0014
 20
6.239
 30
0.0
 10
2.0014
 20
6.239
 30
0.0
 10
2.1162
 20
6.4512
 30
0.0
 10
2.1162
 20
6.4512
 30
0.0
 10
2.1162
 20
6.4512
 30
0.0
 10
2.1162
 20
6.4512
 30
0.0
 10
2.2031
 20
6.6059
 30
0.0
 10
2.2031
 20
6.6059
 30
0.0
 10
2.2031
 20
6.6059
 30
0.0
 10
2.2031
 20
6.6059
 30
0.0
 10
2.2541
 20
6.6946
 30
0.0
 10
2.2541
 20
6.6946
 30
0.0
 10
2.2541
 20
6.6946
 30
0.0
 10
2.2541
 20
6.6946
 30
0.0
 10
2.2688
 20
6.7199
 30
0.0
 10
2.2688
 20
6.7199
 30
0.0
  0
SPLINE
  5
117
330
1F
100
AcDbEntity
  8
DEFAULT_1
 62
   250
100
AcDbSpline
210
0.0
220
0.0
230
1.0
 70
    11
 71
     3
 72
    24
 73
    20
 74
     0
 42
0.0000000001
 43
0.0000000001
 40
0.0
 40
0.0
 40
0.0
 40
0.0
 40
0.1666666666666667
 40
0.1666666666666667
 40
0.1666666666666667
 40
0.1666666666666667
 40
0.3333333333333333
 40
0.3333333333333333
 40
0.3333333333333333
 40
0.3333333333333333
 40
0.5
 40
0.5
 40
0.5
 40
0.5
 40
0.6666666666666666
 40
0.6666666666666666
 40
0.6666666666666666
 40
0.6666666666666666
 40
1.0
 40
1.0
 40
1.0
 40
1.0
 10
10.933
 20
-1.5452
 30
0.0
 10
10.933
 20
-1.5452
 30
0.0
 10
10.8739
 20
-1.3297
 30
0.0
 10
10.8739
 20
-1.3297
 30
0.0
 10
10.8739
 20
-1.3297
 30
0.0
 10
10.8739
 20
-1.3297
 30
0.0
 10
13.503
 20
-0.6158
 30
0.0
 10
13.503
 20
-0.6158
 30
0.0
 10
13.503
 20
-0.6158
 30
0.0
 10
13.503
 20
-0.6158
 30
0.0
 10
13.6147
 20
-0.5855
 30
0.0
 10
13.6147
 20
-0.5855
 30
0.0
 10
13.6147
 20
-0.5855
 30
0.0
 10
13.6147
 20
-0.5855
 30
0.0
 10
13.6777
 20
-0.8097
 30
0.0
 10
13.6777
 20
-0.8097
 30
0.0
 10
13.6777
 20
-0.8097
 30
0.0
 10
13.6777
 20
-0.8097
 30
0.0
 10
10.933
 20
-1.5452
 30
0.0
 10
10.933
 20
-1.5452
 30
0.0
  0
SPLINE
  5
118
330
1F
100
AcDbEntity
  8
DEFAULT_1
 62
   250
100
AcDbSpline
210
0.0
220
0.0
230
1.0
 70
    11
 71
     3
 72
   140
 73
   136
 74
     0
 42
0.0000000001
 43
0.0000000001
 40
0.0
 40
0.0
 40
0.0
 40
0.0
 40
0.0285714285714286
 40
0.0285714285714286
 40
0.0285714285714286
 40
0.0285714285714286
 40
0.0571428571428571
 40
0.0571428571428571
 40
0.0571428571428571
 40
0.0571428571428571
 40
0.0857142857142857
 40
0.0857142857142857
 40
0.0857142857142857
 40
0.0857142857142857
 40
0.1142857142857143
 40
0.1142857142857143
 40
0.1142857142857143
 40
0.1142857142857143
 40
0.1428571428571428
 40
0.1428571428571428
 40
0.1428571428571428
 40
0.1428571428571428
 40
0.1714285714285714
 40
0.1714285714285714
 40
0.1714285714285714
 40
0.1714285714285714
 40
0.2
 40
0.2
 40
0.2
 40
0.2
 40
0.2285714285714286
 40
0.2285714285714286
 40
0.2285714285714286
 40
0.2285714285714286
 40
0.2571428571428571
 40
0.2571428571428571
 40
0.2571428571428571
 40
0.2571428571428571
 40
0.2857142857142857
 40
0.2857142857142857
 40
0.2857142857142857
 40
0.2857142857142857
 40
0.3142857142857143
 40
0.3142857142857143
 40
0.3142857142857143
 40
0.3142857142857143
 40
0.3428571428571429
 40
0.3428571428571429
 40
0.3428571428571429
 40
0.3428571428571429
 40
0.3714285714285714
 40
0.3714285714285714
 40
0.3714285714285714
 40
0.3714285714285714
 40
0.4
 40
0.4
 40
0.4
 40
0.4
 40
0.4285714285714285
 40
0.4285714285714285
 40
0.4285714285714285
 40
0.4285714285714285
 40
0.4571428571428571
 40
0.4571428571428571
 40
0.4571428571428571
 40
0.4571428571428571
 40
0.4857142857142857
 40
0.4857142857142857
 40
0.4857142857142857
 40
0.4857142857142857
 40
0.5142857142857142
 40
0.5142857142857142
 40
0.5142857142857142
 40
0.5142857142857142
 40
0.5428571428571428
 40
0.5428571428571428
 40
0.5428571428571428
 40
0.5428571428571428
 40
0.5714285714285714
 40
0.5714285714285714
 40
0.5714285714285714
 40
0.5714285714285714
 40
0.6
 40
0.6
 40
0.6
 40
0.6
 40
0.6285714285714286
 40
0.6285714285714286
 40
0.6285714285714286
 40
0.6285714285714286
 40
0.6571428571428571
 40
0.6571428571428571
 40
0.6571428571428571
 40
0.6571428571428571
 40
0.6857142857142857
 40
0.6857142857142857
 40
0.6857142857142857
 40
0.6857142857142857
 40
0.7142857142857143
 40
0.7142857142857143
 40
0.7142857142857143
 40
0.7142857142857143
 40
0.7428571428571429
 40
0.7428571428571429
 40
0.7428571428571429
 40
0.7428571428571429
 40
0.7714285714285715
 40
0.7714285714285715
 40
0.7714285714285715
 40
0.7714285714285715
 40
0.8
 40
0.8
 40
0.8
 40
0.8
 40
0.8285714285714286
 40
0.8285714285714286
 40
0.8285714285714286
 40
0.8285714285714286
 40
0.8571428571428571
 40
0.8571428571428571
 40
0.8571428571428571
 40
0.8571428571428571
 40
0.8857142857142857
 40
0.8857142857142857
 40
0.8857142857142857
 40
0.8857142857142857
 40
0.9142857142857143
 40
0.9142857142857143
 40
0.9142857142857143
 40
0.9142857142857143
 40
0.9428571428571428
 40
0.9428571428571428
 40
0.9428571428571428
 40
0.9428571428571428
 40
1.0
 40
1.0
 40
1.0
 40
1.0
 10
9.2074
 20
4.4867
 30
0.0
 10
9.2074
 20
4.4867
 30
0.0
 10
9.2177
 20
4.5021
 30
0.0
 10
9.2177
 20
4.5021
 30
0.0
 10
9.2177
 20
4.5021
 30
0.0
 10
9.2177
 20
4.5021
 30
0.0
 10
9.2491
 20
4.549
 30
0.0
 10
9.2491
 20
4.549
 30
0.0
 10
9.2491
 20
4.549
 30
0.0
 10
9.2491
 20
4.549
 30
0.0
 10
9.2991
 20
4.6228
 30
0.0
 10
9.2991
 20
4.6228
 30
0.0
 10
9.2991
 20
4.6228
 30
0.0
 10
9.2991
 20
4.6228
 30
0.0
 10
9.3635
 20
4.7164
 30
0.0
 10
9.3635
 20
4.7164
 30
0.0
 10
9.3635
 20
4.7164
 30
0.0
 10
9.3635
 20
4.7164
 30
0.0
 10
9.4355
 20
4.8188
 30
0.0
 10
9.4355
 20
4.8188
 30
0.0
 10
9.4355
 20
4.8188
 30
0.0
 10
9.4355
 20
4.8188
 30
0.0
 10
9.5093
 20
4.9212
 30
0.0
 10
9.5093
 20
4.9212
 30
0.0
 10
9.5093
 20
4.9212
 30
0.0
 10
9.5093
 20
4.9212
 30
0.0
 10
9.5812
 20
5.0178
 30
0.0
 10
9.5812
 20
5.0178
 30
0.0
 10
9.5812
 20
5.0178
 30
0.0
 10
9.5812
 20
5.0178
 30
0.0
 10
9.65
 20
5.1069
 30
0.0
 10
9.65
 20
5.1069
 30
0.0
 10
9.65
 20
5.1069
 30
0.0
 10
9.65
 20
5.1069
 30
0.0
 10
9.7147
 20
5.1877
 30
0.0
 10
9.7147
 20
5.1877
 30
0.0
 10
9.7147
 20
5.1877
 30
0.0
 10
9.7147
 20
5.1877
 30
0.0
 10
9.7757
 20
5.2603
 30
0.0
 10
9.7757
 20
5.2603
 30
0.0
 10
9.7757
 20
5.2603
 30
0.0
 10
9.7757
 20
5.2603
 30
0.0
 10
9.8338
 20
5.3263
 30
0.0
 10
9.8338
 20
5.3263
 30
0.0
 10
9.8338
 20
5.3263
 30
0.0
 10
9.8338
 20
5.3263
 30
0.0
 10
9.8895
 20
5.3864
 30
0.0
 10
9.8895
 20
5.3864
 30
0.0
 10
9.8895
 20
5.3864
 30
0.0
 10
9.8895
 20
5.3864
 30
0.0
 10
9.9445
 20
5.4419
 30
0.0
 10
9.9445
 20
5.4419
 30
0.0
 10
9.9445
 20
5.4419
 30
0.0
 10
9.9445
 20
5.4419
 30
0.0
 10
9.9997
 20
5.4942
 30
0.0
 10
9.9997
 20
5.4942
 30
0.0
 10
9.9997
 20
5.4942
 30
0.0
 10
9.9997
 20
5.4942
 30
0.0
 10
10.0573
 20
5.5443
 30
0.0
 10
10.0573
 20
5.5443
 30
0.0
 10
10.0573
 20
5.5443
 30
0.0
 10
10.0573
 20
5.5443
 30
0.0
 10
10.1181
 20
5.5923
 30
0.0
 10
10.1181
 20
5.5923
 30
0.0
 10
10.1181
 20
5.5923
 30
0.0
 10
10.1181
 20
5.5923
 30
0.0
 10
10.1822
 20
5.6371
 30
0.0
 10
10.1822
 20
5.6371
 30
0.0
 10
10.1822
 20
5.6371
 30
0.0
 10
10.1822
 20
5.6371
 30
0.0
 10
10.2496
 20
5.6775
 30
0.0
 10
10.2496
 20
5.6775
 30
0.0
 10
10.2496
 20
5.6775
 30
0.0
 10
10.2496
 20
5.6775
 30
0.0
 10
10.6793
 20
5.9024
 30
0.0
 10
10.6793
 20
5.9024
 30
0.0
 10
10.6793
 20
5.9024
 30
0.0
 10
10.6793
 20
5.9024
 30
0.0
 10
11.1911
 20
6.2507
 30
0.0
 10
11.1911
 20
6.2507
 30
0.0
 10
11.1911
 20
6.2507
 30
0.0
 10
11.1911
 20
6.2507
 30
0.0
 10
11.4905
 20
6.5121
 30
0.0
 10
11.4905
 20
6.5121
 30
0.0
 10
11.4905
 20
6.5121
 30
0.0
 10
11.4905
 20
6.5121
 30
0.0
 10
11.6837
 20
6.7346
 30
0.0
 10
11.6837
 20
6.7346
 30
0.0
 10
11.6837
 20
6.7346
 30
0.0
 10
11.6837
 20
6.7346
 30
0.0
 10
11.7371
 20
6.8418
 30
0.0
 10
11.7371
 20
6.8418
 30
0.0
 10
11.7371
 20
6.8418
 30
0.0
 10
11.7371
 20
6.8418
 30
0.0
 10
11.7513
 20
6.8701
 30
0.0
 10
11.7513
 20
6.8701
 30
0.0
 10
11.7513
 20
6.8701
 30
0.0
 10
11.7513
 20
6.8701
 30
0.0
 10
11.5774
 20
7.3057
 30
0.0
 10
11.5774
 20
7.3057
 30
0.0
 10
11.5774
 20
7.3057
 30
0.0
 10
11.5774
 20
7.3057
 30
0.0
 10
11.2973
 20
7.6928
 30
0.0
 10
11.2973
 20
7.6928
 30
0.0
 10
11.2973
 20
7.6928
 30
0.0
 10
11.2973
 20
7.6928
 30
0.0
 10
10.9497
 20
7.9735
 30
0.0
 10
10.9497
 20
7.9735
 30
0.0
 10
10.9497
 20
7.9735
 30
0.0
 10
10.9497
 20
7.9735
 30
0.0
 10
10.6021
 20
8.1574
 30
0.0
 10
10.6021
 20
8.1574
 30
0.0
 10
10.6021
 20
8.1574
 30
0.0
 10
10.6021
 20
8.1574
 30
0.0
 10
10.1578
 20
8.2541
 30
0.0
 10
10.1578
 20
8.2541
 30
0.0
 10
10.1578
 20
8.2541
 30
0.0
 10
10.1578
 20
8.2541
 30
0.0
 10
9.8874
 20
8.2444
 30
0.0
 10
9.8874
 20
8.2444
 30
0.0
 10
9.8874
 20
8.2444
 30
0.0
 10
9.8874
 20
8.2444
 30
0.0
 10
7.5213
 20
7.6153
 30
0.0
 10
7.5213
 20
7.6153
 30
0.0
 10
7.5213
 20
7.6153
 30
0.0
 10
7.5213
 20
7.6153
 30
0.0
 10
7.5365
 20
7.5599
 30
0.0
 10
7.5365
 20
7.5599
 30
0.0
 10
7.5365
 20
7.5599
 30
0.0
 10
7.5365
 20
7.5599
 30
0.0
 10
8.4483
 20
4.2571
 30
0.0
 10
8.4483
 20
4.2571
 30
0.0
 10
8.4483
 20
4.2571
 30
0.0
 10
8.4483
 20
4.2571
 30
0.0
 10
9.2074
 20
4.4867
 30
0.0
 10
9.2074
 20
4.4867
 30
0.0
  0
SPLINE
  5
119
330
1F
100
AcDbEntity
  8
DEFAULT_1
 62
   250
100
AcDbSpline
210
0.0
220
0.0
230
1.0
 70
    11
 71
     3
 72
    44
 73
    40
 74
     0
 42
0.0000000001
 43
0.0000000001
 40
0.0
 40
0.0
 40
0.0
 40
0.0
 40
0.0909090909090909
 40
0.0909090909090909
 40
0.0909090909090909
 40
0.0909090909090909
 40
0.1818181818181818
 40
0.1818181818181818
 40
0.1818181818181818
 40
0.1818181818181818
 40
0.2727272727272727
 40
0.2727272727272727
 40
0.2727272727272727
 40
0.2727272727272727
 40
0.3636363636363636
 40
0.3636363636363636
 40
0.3636363636363636
 40
0.3636363636363636
 40
0.4545454545454545
 40
0.4545454545454545
 40
0.4545454545454545
 40
0.4545454545454545
 40
0.5454545454545454
 40
0.5454545454545454
 40
0.5454545454545454
 40
0.5454545454545454
 40
0.6363636363636364
 40
0.6363636363636364
 40
0.6363636363636364
 40
0.6363636363636364
 40
0.7272727272727273
 40
0.7272727272727273
 40
0.7272727272727273
 40
0.7272727272727273
 40
0.8181818181818182
 40
0.8181818181818182
 40
0.8181818181818182
 40
0.8181818181818182
 40
1.0
 40
1.0
 40
1.0
 40
1.0
 10
9.4989
 20
2.8434
 30
0.0
 10
9.4989
 20
2.8434
 30
0.0
 10
9.6508
 20
2.8841
 30
0.0
 10
9.6508
 20
2.8841
 30
0.0
 10
9.6508
 20
2.8841
 30
0.0
 10
9.6508
 20
2.8841
 30
0.0
 10
9.1764
 20
3.8146
 30
0.0
 10
9.1764
 20
3.8146
 30
0.0
 10
9.1764
 20
3.8146
 30
0.0
 10
9.1764
 20
3.8146
 30
0.0
 10
9.6508
 20
2.8841
 30
0.0
 10
9.6508
 20
2.8841
 30
0.0
 10
9.6508
 20
2.8841
 30
0.0
 10
9.6508
 20
2.8841
 30
0.0
 10
12.5737
 20
3.6673
 30
0.0
 10
12.5737
 20
3.6673
 30
0.0
 10
12.5737
 20
3.6673
 30
0.0
 10
12.5737
 20
3.6673
 30
0.0
 10
12.5192
 20
4.7104
 30
0.0
 10
12.5192
 20
4.7104
 30
0.0
 10
12.5192
 20
4.7104
 30
0.0
 10
12.5192
 20
4.7104
 30
0.0
 10
12.5737
 20
3.6673
 30
0.0
 10
12.5737
 20
3.6673
 30
0.0
 10
12.5737
 20
3.6673
 30
0.0
 10
12.5737
 20
3.6673
 30
0.0
 10
12.7256
 20
3.7081
 30
0.0
 10
12.7256
 20
3.7081
 30
0.0
 10
12.7256
 20
3.7081
 30
0.0
 10
12.7256
 20
3.7081
 30
0.0
 10
12.5737
 20
3.6673
 30
0.0
 10
12.5737
 20
3.6673
 30
0.0
 10
12.5737
 20
3.6673
 30
0.0
 10
12.5737
 20
3.6673
 30
0.0
 10
9.6508
 20
2.8841
 30
0.0
 10
9.6508
 20
2.8841
 30
0.0
 10
9.6508
 20
2.8841
 30
0.0
 10
9.6508
 20
2.8841
 30
0.0
 10
9.4989
 20
2.8434
 30
0.0
 10
9.4989
 20
2.8434
 30
0.0
  0
SPLINE
  5
11A
330
1F
100
AcDbEntity
  8
DEFAULT_1
 62
   250
100
AcDbSpline
210
0.0
220
0.0
230
1.0
 70
    11
 71
     3
 72
    16
 73
    12
 74
     0
 42
0.0000000001
 43
0.0000000001
 40
0.0
 40
0.0
 40
0.0
 40
0.0
 40
0.25
 40
0.25
 40
0.25
 40
0.25
 40
0.5
 40
0.5
 40
0.5
 40
0.5
 40
1.0
 40
1.0
 40
1.0
 40
1.0
 10
7.5534
 20
7.5645
 30
0.0
 10
7.5534
 20
7.5645
 30
0.0
 10
7.5365
 20
7.5599
 30
0.0
 10
7.5365
 20
7.5599
 30
0.0
 10
7.5365
 20
7.5599
 30
0.0
 10
7.5365
 20
7.5599
 30
0.0
 10
7.2614
 20
7.4862
 30
0.0
 10
7.2614
 20
7.4862
 30
0.0
 10
7.2614
 20
7.4862
 30
0.0
 10
7.2614
 20
7.4862
 30
0.0
 10
7.5534
 20
7.5645
 30
0.0
 10
7.5534
 20
7.5645
 30
0.0
  0
SPLINE
  5
11B
330
1F
100
AcDbEntity
  8
DEFAULT_1
 62
   250
100
AcDbSpline
210
0.0
220
0.0
230
1.0
 70
    11
 71
     3
 72
    28
 73
    24
 74
     0
 42
0.0000000001
 43
0.0000000001
 40
0.0
 40
0.0
 40
0.0
 40
0.0
 40
0.1428571428571428
 40
0.1428571428571428
 40
0.1428571428571428
 40
0.1428571428571428
 40
0.2857142857142857
 40
0.2857142857142857
 40
0.2857142857142857
 40
0.2857142857142857
 40
0.4285714285714285
 40
0.4285714285714285
 40
0.4285714285714285
 40
0.4285714285714285
 40
0.5714285714285714
 40
0.5714285714285714
 40
0.5714285714285714
 40
0.5714285714285714
 40
0.7142857142857143
 40
0.7142857142857143
 40
0.7142857142857143
 40
0.7142857142857143
 40
1.0
 40
1.0
 40
1.0
 40
1.0
 10
12.313
 20
4.693
 30
0.0
 10
12.313
 20
4.693
 30
0.0
 10
11.7371
 20
6.8418
 30
0.0
 10
11.7371
 20
6.8418
 30
0.0
 10
11.7371
 20
6.8418
 30
0.0
 10
11.7371
 20
6.8418
 30
0.0
 10
11.7066
 20
6.956
 30
0.0
 10
11.7066
 20
6.956
 30
0.0
 10
11.7066
 20
6.956
 30
0.0
 10
11.7066
 20
6.956
 30
0.0
 10
11.7371
 20
6.8418
 30
0.0
 10
11.7371
 20
6.8418
 30
0.0
 10
11.7371
 20
6.8418
 30
0.0
 10
11.7371
 20
6.8418
 30
0.0
 10
12.313
 20
4.693
 30
0.0
 10
12.313
 20
4.693
 30
0.0
 10
12.313
 20
4.693
 30
0.0
 10
12.313
 20
4.693
 30
0.0
 10
12.4812
 20
4.7381
 30
0.0
 10
12.4812
 20
4.7381
 30
0.0
 10
12.4812
 20
4.7381
 30
0.0
 10
12.4812
 20
4.7381
 30
0.0
 10
12.313
 20
4.693
 30
0.0
 10
12.313
 20
4.693
 30
0.0
  0
SPLINE
  5
11C
330
1F
100
AcDbEntity
  8
DEFAULT_1
 62
   250
100
AcDbSpline
210
0.0
220
0.0
230
1.0
 70
    27
 71
     3
 72
    12
 73
     8
 74
     0
 42
0.0000000001
 43
0.0000000001
 40
0.0
 40
0.0
 40
0.0
 40
0.0
 40
0.3333333333333333
 40
0.3333333333333333
 40
0.3333333333333333
 40
0.3333333333333333
 40
1.0
 40
1.0
 40
1.0
 40
1.0
 10
9.3638
 20
3.9027
 30
0.0
 10
9.3638
 20
3.9027
 30
0.0
 10
9.2074
 20
4.4867
 30
0.0
 10
9.2074
 20
4.4867
 30
0.0
 10
9.2074
 20
4.4867
 30
0.0
 10
9.2074
 20
4.4867
 30
0.0
 10
9.3638
 20
3.9027
 30
0.0
 10
9.3638
 20
3.9027
 30
0.0
  0
SPLINE
  5
11D
330
1F
100
AcDbEntity
  8
DEFAULT_1
 62
   250
100
AcDbSpline
210
0.0
220
0.0
230
1.0
 70
    27
 71
     3
 72
    12
 73
     8
 74
     0
 42
0.0000000001
 43
0.0000000001
 40
0.0
 40
0.0
 40
0.0
 40
0.0
 40
0.3333333333333333
 40
0.3333333333333333
 40
0.3333333333333333
 40
0.3333333333333333
 40
1.0
 40
1.0
 40
1.0
 40
1.0
 10
8.414
 20
4.3523
 30
0.0
 10
8.414
 20
4.3523
 30
0.0
 10
8.122
 20
4.2741
 30
0.0
 10
8.122
 20
4.2741
 30
0.0
 10
8.122
 20
4.2741
 30
0.0
 10
8.122
 20
4.2741
 30
0.0
 10
8.414
 20
4.3523
 30
0.0
 10
8.414
 20
4.3523
 30
0.0
  0
SPLINE
  5
11E
330
1F
100
AcDbEntity
  8
DEFAULT_1
 62
   250
100
AcDbSpline
210
0.0
220
0.0
230
1.0
 70
    11
 71
     3
 72
    68
 73
    64
 74
     0
 42
0.0000000001
 43
0.0000000001
 40
0.0
 40
0.0
 40
0.0
 40
0.0
 40
0.0588235294117647
 40
0.0588235294117647
 40
0.0588235294117647
 40
0.0588235294117647
 40
0.1176470588235294
 40
0.1176470588235294
 40
0.1176470588235294
 40
0.1176470588235294
 40
0.1764705882352941
 40
0.1764705882352941
 40
0.1764705882352941
 40
0.1764705882352941
 40
0.2352941176470588
 40
0.2352941176470588
 40
0.2352941176470588
 40
0.2352941176470588
 40
0.2941176470588235
 40
0.2941176470588235
 40
0.2941176470588235
 40
0.2941176470588235
 40
0.3529411764705883
 40
0.3529411764705883
 40
0.3529411764705883
 40
0.3529411764705883
 40
0.4117647058823529
 40
0.4117647058823529
 40
0.4117647058823529
 40
0.4117647058823529
 40
0.4705882352941176
 40
0.4705882352941176
 40
0.4705882352941176
 40
0.4705882352941176
 40
0.5294117647058824
 40
0.5294117647058824
 40
0.5294117647058824
 40
0.5294117647058824
 40
0.5882352941176471
 40
0.5882352941176471
 40
0.5882352941176471
 40
0.5882352941176471
 40
0.6470588235294118
 40
0.6470588235294118
 40
0.6470588235294118
 40
0.6470588235294118
 40
0.7058823529411765
 40
0.7058823529411765
 40
0.7058823529411765
 40
0.7058823529411765
 40
0.7647058823529411
 40
0.7647058823529411
 40
0.7647058823529411
 40
0.7647058823529411
 40
0.8235294117647058
 40
0.8235294117647058
 40
0.8235294117647058
 40
0.8235294117647058
 40
0.8823529411764706
 40
0.8823529411764706
 40
0.8823529411764706
 40
0.8823529411764706
 40
1.0
 40
1.0
 40
1.0
 40
1.0
 10
13.505
 20
-0.6248
 30
0.0
 10
13.505
 20
-0.6248
 30
0.0
 10
13.503
 20
-0.6158
 30
0.0
 10
13.503
 20
-0.6158
 30
0.0
 10
13.503
 20
-0.6158
 30
0.0
 10
13.503
 20
-0.6158
 30
0.0
 10
13.2331
 20
0.5579
 30
0.0
 10
13.2331
 20
0.5579
 30
0.0
 10
13.2331
 20
0.5579
 30
0.0
 10
13.2331
 20
0.5579
 30
0.0
 10
13.2127
 20
0.5523
 30
0.0
 10
13.2127
 20
0.5523
 30
0.0
 10
13.2127
 20
0.5523
 30
0.0
 10
13.2127
 20
0.5523
 30
0.0
 10
13.0468
 20
1.6033
 30
0.0
 10
13.0468
 20
1.6033
 30
0.0
 10
13.0468
 20
1.6033
 30
0.0
 10
13.0468
 20
1.6033
 30
0.0
 10
12.9752
 20
1.5841
 30
0.0
 10
12.9752
 20
1.5841
 30
0.0
 10
12.9752
 20
1.5841
 30
0.0
 10
12.9752
 20
1.5841
 30
0.0
 10
12.8824
 20
2.6547
 30
0.0
 10
12.8824
 20
2.6547
 30
0.0
 10
12.8824
 20
2.6547
 30
0.0
 10
12.8824
 20
2.6547
 30
0.0
 10
12.8095
 20
2.6351
 30
0.0
 10
12.8095
 20
2.6351
 30
0.0
 10
12.8095
 20
2.6351
 30
0.0
 10
12.8095
 20
2.6351
 30
0.0
 10
12.7636
 20
3.6802
 30
0.0
 10
12.7636
 20
3.6802
 30
0.0
 10
12.7636
 20
3.6802
 30
0.0
 10
12.7636
 20
3.6802
 30
0.0
 10
12.8095
 20
2.6351
 30
0.0
 10
12.8095
 20
2.6351
 30
0.0
 10
12.8095
 20
2.6351
 30
0.0
 10
12.8095
 20
2.6351
 30
0.0
 10
12.8824
 20
2.6547
 30
0.0
 10
12.8824
 20
2.6547
 30
0.0
 10
12.8824
 20
2.6547
 30
0.0
 10
12.8824
 20
2.6547
 30
0.0
 10
12.9752
 20
1.5841
 30
0.0
 10
12.9752
 20
1.5841
 30
0.0
 10
12.9752
 20
1.5841
 30
0.0
 10
12.9752
 20
1.5841
 30
0.0
 10
13.0468
 20
1.6033
 30
0.0
 10
13.0468
 20
1.6033
 30
0.0
 10
13.0468
 20
1.6033
 30
0.0
 10
13.0468
 20
1.6033
 30
0.0
 10
13.2127
 20
0.5523
 30
0.0
 10
13.2127
 20
0.5523
 30
0.0
 10
13.2127
 20
0.5523
 30
0.0
 10
13.2127
 20
0.5523
 30
0.0
 10
13.2331
 20
0.5579
 30
0.0
 10
13.2331
 20
0.5579
 30
0.0
 10
13.2331
 20
0.5579
 30
0.0
 10
13.2331
 20
0.5579
 30
0.0
 10
13.503
 20
-0.6158
 30
0.0
 10
13.503
 20
-0.6158
 30
0.0
 10
13.503
 20
-0.6158
 30
0.0
 10
13.503
 20
-0.6158
 30
0.0
 10
13.505
 20
-0.6248
 30
0.0
 10
13.505
 20
-0.6248
 30
0.0
  0
SPLINE
  5
11F
330
1F
100
AcDbEntity
  8
DEFAULT_1
 62
   250
100
AcDbSpline
210
0.0
220
0.0
230
1.0
 70
    27
 71
     3
 72
    12
 73
     8
 74
     0
 42
0.0000000001
 43
0.0000000001
 40
0.0
 40
0.0
 40
0.0
 40
0.0
 40
0.3333333333333333
 40
0.3333333333333333
 40
0.3333333333333333
 40
0.3333333333333333
 40
1.0
 40
1.0
 40
1.0
 40
1.0
 10
9.1955
 20
3.8575
 30
0.0
 10
9.1955
 20
3.8575
 30
0.0
 10
12.313
 20
4.693
 30
0.0
 10
12.313
 20
4.693
 30
0.0
 10
12.313
 20
4.693
 30
0.0
 10
12.313
 20
4.693
 30
0.0
 10
9.1955
 20
3.8575
 30
0.0
 10
9.1955
 20
3.8575
 30
0.0
  0
SPLINE
  5
120
330
1F
100
AcDbEntity
  8
DEFAULT_1
 62
   250
100
AcDbSpline
210
0.0
220
0.0
230
1.0
 70
    11
 71
     3
 72
    20
 73
    16
 74
     0
 42
0.0000000001
 43
0.0000000001
 40
0.0
 40
0.0
 40
0.0
 40
0.0
 40
0.2
 40
0.2
 40
0.2
 40
0.2
 40
0.4
 40
0.4
 40
0.4
 40
0.4
 40
0.6
 40
0.6
 40
0.6
 40
0.6
 40
1.0
 40
1.0
 40
1.0
 40
1.0
 10
9.9626
 20
1.8722
 30
0.0
 10
9.9626
 20
1.8722
 30
0.0
 10
9.4798
 20
2.8003
 30
0.0
 10
9.4798
 20
2.8003
 30
0.0
 10
9.4798
 20
2.8003
 30
0.0
 10
9.4798
 20
2.8003
 30
0.0
 10
9.9626
 20
1.8722
 30
0.0
 10
9.9626
 20
1.8722
 30
0.0
 10
9.9626
 20
1.8722
 30
0.0
 10
9.9626
 20
1.8722
 30
0.0
 10
12.8095
 20
2.6351
 30
0.0
 10
12.8095
 20
2.6351
 30
0.0
 10
12.8095
 20
2.6351
 30
0.0
 10
12.8095
 20
2.6351
 30
0.0
 10
9.9626
 20
1.8722
 30
0.0
 10
9.9626
 20
1.8722
 30
0.0
  0
SPLINE
  5
121
330
1F
100
AcDbEntity
  8
DEFAULT_1
 62
   250
100
AcDbSpline
210
0.0
220
0.0
230
1.0
 70
    11
 71
     3
 72
    20
 73
    16
 74
     0
 42
0.0000000001
 43
0.0000000001
 40
0.0
 40
0.0
 40
0.0
 40
0.0
 40
0.2
 40
0.2
 40
0.2
 40
0.2
 40
0.4
 40
0.4
 40
0.4
 40
0.4
 40
0.6
 40
0.6
 40
0.6
 40
0.6
 40
1.0
 40
1.0
 40
1.0
 40
1.0
 10
10.3445
 20
0.8793
 30
0.0
 10
10.3445
 20
0.8793
 30
0.0
 10
9.8895
 20
1.8527
 30
0.0
 10
9.8895
 20
1.8527
 30
0.0
 10
9.8895
 20
1.8527
 30
0.0
 10
9.8895
 20
1.8527
 30
0.0
 10
9.9626
 20
1.8722
 30
0.0
 10
9.9626
 20
1.8722
 30
0.0
 10
9.9626
 20
1.8722
 30
0.0
 10
9.9626
 20
1.8722
 30
0.0
 10
9.8895
 20
1.8527
 30
0.0
 10
9.8895
 20
1.8527
 30
0.0
 10
9.8895
 20
1.8527
 30
0.0
 10
9.8895
 20
1.8527
 30
0.0
 10
10.3445
 20
0.8793
 30
0.0
 10
10.3445
 20
0.8793
 30
0.0
  0
SPLINE
  5
122
330
1F
100
AcDbEntity
  8
DEFAULT_1
 62
   250
100
AcDbSpline
210
0.0
220
0.0
230
1.0
 70
    11
 71
     3
 72
    20
 73
    16
 74
     0
 42
0.0000000001
 43
0.0000000001
 40
0.0
 40
0.0
 40
0.0
 40
0.0
 40
0.2
 40
0.2
 40
0.2
 40
0.2
 40
0.4
 40
0.4
 40
0.4
 40
0.4
 40
0.6
 40
0.6
 40
0.6
 40
0.6
 40
1.0
 40
1.0
 40
1.0
 40
1.0
 10
10.6548
 20
-0.133
 30
0.0
 10
10.6548
 20
-0.133
 30
0.0
 10
10.2729
 20
0.8601
 30
0.0
 10
10.2729
 20
0.8601
 30
0.0
 10
10.2729
 20
0.8601
 30
0.0
 10
10.2729
 20
0.8601
 30
0.0
 10
12.9752
 20
1.5841
 30
0.0
 10
12.9752
 20
1.5841
 30
0.0
 10
12.9752
 20
1.5841
 30
0.0
 10
12.9752
 20
1.5841
 30
0.0
 10
10.2729
 20
0.8601
 30
0.0
 10
10.2729
 20
0.8601
 30
0.0
 10
10.2729
 20
0.8601
 30
0.0
 10
10.2729
 20
0.8601
 30
0.0
 10
10.6548
 20
-0.133
 30
0.0
 10
10.6548
 20
-0.133
 30
0.0
  0
SPLINE
  5
123
330
1F
100
AcDbEntity
  8
DEFAULT_1
 62
   250
100
AcDbSpline
210
0.0
220
0.0
230
1.0
 70
    11
 71
     3
 72
    20
 73
    16
 74
     0
 42
0.0000000001
 43
0.0000000001
 40
0.0
 40
0.0
 40
0.0
 40
0.0
 40
0.2
 40
0.2
 40
0.2
 40
0.2
 40
0.4
 40
0.4
 40
0.4
 40
0.4
 40
0.6
 40
0.6
 40
0.6
 40
0.6
 40
1.0
 40
1.0
 40
1.0
 40
1.0
 10
10.9809
 20
-1.2688
 30
0.0
 10
10.9809
 20
-1.2688
 30
0.0
 10
10.6343
 20
-0.1385
 30
0.0
 10
10.6343
 20
-0.1385
 30
0.0
 10
10.6343
 20
-0.1385
 30
0.0
 10
10.6343
 20
-0.1385
 30
0.0
 10
13.2127
 20
0.5523
 30
0.0
 10
13.2127
 20
0.5523
 30
0.0
 10
13.2127
 20
0.5523
 30
0.0
 10
13.2127
 20
0.5523
 30
0.0
 10
10.6343
 20
-0.1385
 30
0.0
 10
10.6343
 20
-0.1385
 30
0.0
 10
10.6343
 20
-0.1385
 30
0.0
 10
10.6343
 20
-0.1385
 30
0.0
 10
10.9809
 20
-1.2688
 30
0.0
 10
10.9809
 20
-1.2688
 30
0.0
  0
SPLINE
  5
124
330
1F
100
AcDbEntity
  8
DEFAULT_1
 62
   250
100
AcDbSpline
210
0.0
220
0.0
230
1.0
 70
     8
 71
     3
 72
    48
 73
    44
 74
     0
 42
0.0000000001
 43
0.0000000001
 40
0.0
 40
0.0
 40
0.0
 40
0.0
 40
0.0833333333333333
 40
0.0833333333333333
 40
0.0833333333333333
 40
0.0833333333333333
 40
0.1666666666666667
 40
0.1666666666666667
 40
0.1666666666666667
 40
0.1666666666666667
 40
0.25
 40
0.25
 40
0.25
 40
0.25
 40
0.3333333333333333
 40
0.3333333333333333
 40
0.3333333333333333
 40
0.3333333333333333
 40
0.4166666666666667
 40
0.4166666666666667
 40
0.4166666666666667
 40
0.4166666666666667
 40
0.5
 40
0.5
 40
0.5
 40
0.5
 40
0.5833333333333334
 40
0.5833333333333334
 40
0.5833333333333334
 40
0.5833333333333334
 40
0.6666666666666666
 40
0.6666666666666666
 40
0.6666666666666666
 40
0.6666666666666666
 40
0.75
 40
0.75
 40
0.75
 40
0.75
 40
0.8333333333333334
 40
0.8333333333333334
 40
0.8333333333333334
 40
0.8333333333333334
 40
1.0
 40
1.0
 40
1.0
 40
1.0
 10
6.6565
 20
8.576
 30
0.0
 10
6.8177
 20
8.6192
 30
0.0
 10
6.9835
 20
8.5235
 30
0.0
 10
7.0266
 20
8.3622
 30
0.0
 10
7.0266
 20
8.3622
 30
0.0
 10
7.0266
 20
8.3622
 30
0.0
 10
8.3439
 20
3.3664
 30
0.0
 10
8.3439
 20
3.3664
 30
0.0
 10
8.3439
 20
3.3664
 30
0.0
 10
8.3439
 20
3.3664
 30
0.0
 10
8.3439
 20
3.2651
 30
0.0
 10
8.3439
 20
3.2651
 30
0.0
 10
8.3439
 20
3.2651
 30
0.0
 10
8.3439
 20
3.2651
 30
0.0
 10
8.3071
 20
3.1822
 30
0.0
 10
8.3071
 20
3.1822
 30
0.0
 10
8.3071
 20
3.1822
 30
0.0
 10
8.3071
 20
3.1822
 30
0.0
 10
8.2243
 20
3.0809
 30
0.0
 10
8.2243
 20
3.0809
 30
0.0
 10
8.2243
 20
3.0809
 30
0.0
 10
8.2243
 20
3.0809
 30
0.0
 10
8.1692
 20
3.0716
 30
0.0
 10
8.1692
 20
3.0716
 30
0.0
 10
8.1692
 20
3.0716
 30
0.0
 10
8.1692
 20
3.0716
 30
0.0
 10
8.2243
 20
2.9611
 30
0.0
 10
8.2243
 20
2.9611
 30
0.0
 10
8.2243
 20
2.9611
 30
0.0
 10
8.2243
 20
2.9611
 30
0.0
 10
6.0087
 20
2.3438
 30
0.0
 10
6.0087
 20
2.3438
 30
0.0
 10
6.0087
 20
2.3438
 30
0.0
 10
6.0087
 20
2.3438
 30
0.0
 10
4.4459
 20
8.065
 30
0.0
 10
4.4459
 20
8.065
 30
0.0
 10
4.4459
 20
8.065
 30
0.0
 10
4.4459
 20
8.065
 30
0.0
 10
6.7167
 20
8.6547
 30
0.0
 10
6.7167
 20
8.6547
 30
0.0
 10
6.7167
 20
8.6547
 30
0.0
 10
6.7167
 20
8.6547
 30
0.0
 10
6.7442
 20
8.5441
 30
0.0
 10
6.7442
 20
8.5441
 30
0.0
  0
SPLINE
  5
125
330
1F
100
AcDbEntity
  8
DEFAULT_1
 62
   250
100
AcDbSpline
210
0.0
220
0.0
230
1.0
 70
     8
 71
     3
 72
   132
 73
   128
 74
     0
 42
0.0000000001
 43
0.0000000001
 40
0.0
 40
0.0
 40
0.0
 40
0.0
 40
0.0303030303030303
 40
0.0303030303030303
 40
0.0303030303030303
 40
0.0303030303030303
 40
0.0606060606060606
 40
0.0606060606060606
 40
0.0606060606060606
 40
0.0606060606060606
 40
0.0909090909090909
 40
0.0909090909090909
 40
0.0909090909090909
 40
0.0909090909090909
 40
0.1212121212121212
 40
0.1212121212121212
 40
0.1212121212121212
 40
0.1212121212121212
 40
0.1515151515151515
 40
0.1515151515151515
 40
0.1515151515151515
 40
0.1515151515151515
 40
0.1818181818181818
 40
0.1818181818181818
 40
0.1818181818181818
 40
0.1818181818181818
 40
0.2121212121212121
 40
0.2121212121212121
 40
0.2121212121212121
 40
0.2121212121212121
 40
0.2424242424242424
 40
0.2424242424242424
 40
0.2424242424242424
 40
0.2424242424242424
 40
0.2727272727272727
 40
0.2727272727272727
 40
0.2727272727272727
 40
0.2727272727272727
 40
0.303030303030303
 40
0.303030303030303
 40
0.303030303030303
 40
0.303030303030303
 40
0.3333333333333333
 40
0.3333333333333333
 40
0.3333333333333333
 40
0.3333333333333333
 40
0.3636363636363636
 40
0.3636363636363636
 40
0.3636363636363636
 40
0.3636363636363636
 40
0.3939393939393939
 40
0.3939393939393939
 40
0.3939393939393939
 40
0.3939393939393939
 40
0.4242424242424243
 40
0.4242424242424243
 40
0.4242424242424243
 40
0.4242424242424243
 40
0.4545454545454545
 40
0.4545454545454545
 40
0.4545454545454545
 40
0.4545454545454545
 40
0.4848484848484849
 40
0.4848484848484849
 40
0.4848484848484849
 40
0.4848484848484849
 40
0.5151515151515151
 40
0.5151515151515151
 40
0.5151515151515151
 40
0.5151515151515151
 40
0.5454545454545454
 40
0.5454545454545454
 40
0.5454545454545454
 40
0.5454545454545454
 40
0.5757575757575758
 40
0.5757575757575758
 40
0.5757575757575758
 40
0.5757575757575758
 40
0.6060606060606061
 40
0.6060606060606061
 40
0.6060606060606061
 40
0.6060606060606061
 40
0.6363636363636364
 40
0.6363636363636364
 40
0.6363636363636364
 40
0.6363636363636364
 40
0.6666666666666666
 40
0.6666666666666666
 40
0.6666666666666666
 40
0.6666666666666666
 40
0.696969696969697
 40
0.696969696969697
 40
0.696969696969697
 40
0.696969696969697
 40
0.7272727272727273
 40
0.7272727272727273
 40
0.7272727272727273
 40
0.7272727272727273
 40
0.7575757575757576
 40
0.7575757575757576
 40
0.7575757575757576
 40
0.7575757575757576
 40
0.7878787878787878
 40
0.7878787878787878
 40
0.7878787878787878
 40
0.7878787878787878
 40
0.8181818181818182
 40
0.8181818181818182
 40
0.8181818181818182
 40
0.8181818181818182
 40
0.8484848484848485
 40
0.8484848484848485
 40
0.8484848484848485
 40
0.8484848484848485
 40
0.8787878787878788
 40
0.8787878787878788
 40
0.8787878787878788
 40
0.8787878787878788
 40
0.9090909090909091
 40
0.9090909090909091
 40
0.9090909090909091
 40
0.9090909090909091
 40
0.9393939393939394
 40
0.9393939393939394
 40
0.9393939393939394
 40
0.9393939393939394
 40
1.0
 40
1.0
 40
1.0
 40
1.0
 10
4.8838
 20
8.1871
 30
0.0
 10
4.8838
 20
8.1871
 30
0.0
 10
5.0551
 20
7.5262
 30
0.0
 10
5.0551
 20
7.5262
 30
0.0
 10
5.0551
 20
7.5262
 30
0.0
 10
5.0551
 20
7.5262
 30
0.0
 10
6.5158
 20
7.9328
 30
0.0
 10
6.5158
 20
7.9328
 30
0.0
 10
6.5158
 20
7.9328
 30
0.0
 10
6.5158
 20
7.9328
 30
0.0
 10
6.587
 20
7.9461
 30
0.0
 10
6.587
 20
7.9461
 30
0.0
 10
6.587
 20
7.9461
 30
0.0
 10
6.587
 20
7.9461
 30
0.0
 10
6.6571
 20
7.9477
 30
0.0
 10
6.6571
 20
7.9477
 30
0.0
 10
6.6571
 20
7.9477
 30
0.0
 10
6.6571
 20
7.9477
 30
0.0
 10
6.722
 20
7.9374
 30
0.0
 10
6.722
 20
7.9374
 30
0.0
 10
6.722
 20
7.9374
 30
0.0
 10
6.722
 20
7.9374
 30
0.0
 10
6.7782
 20
7.9151
 30
0.0
 10
6.7782
 20
7.9151
 30
0.0
 10
6.7782
 20
7.9151
 30
0.0
 10
6.7782
 20
7.9151
 30
0.0
 10
6.8222
 20
7.8818
 30
0.0
 10
6.8222
 20
7.8818
 30
0.0
 10
6.8222
 20
7.8818
 30
0.0
 10
6.8222
 20
7.8818
 30
0.0
 10
6.8516
 20
7.8392
 30
0.0
 10
6.8516
 20
7.8392
 30
0.0
 10
6.8516
 20
7.8392
 30
0.0
 10
6.8516
 20
7.8392
 30
0.0
 10
6.8603
 20
7.8151
 30
0.0
 10
6.8603
 20
7.8151
 30
0.0
 10
6.8603
 20
7.8151
 30
0.0
 10
6.8603
 20
7.8151
 30
0.0
 10
6.854
 20
7.6893
 30
0.0
 10
6.854
 20
7.6893
 30
0.0
 10
6.854
 20
7.6893
 30
0.0
 10
6.854
 20
7.6893
 30
0.0
 10
6.7768
 20
7.612
 30
0.0
 10
6.7768
 20
7.612
 30
0.0
 10
6.7768
 20
7.612
 30
0.0
 10
6.7768
 20
7.612
 30
0.0
 10
6.6656
 20
7.5347
 30
0.0
 10
6.6656
 20
7.5347
 30
0.0
 10
6.6656
 20
7.5347
 30
0.0
 10
6.6656
 20
7.5347
 30
0.0
 10
5.1665
 20
7.1313
 30
0.0
 10
5.1665
 20
7.1313
 30
0.0
 10
5.1665
 20
7.1313
 30
0.0
 10
5.1665
 20
7.1313
 30
0.0
 10
5.5691
 20
5.6033
 30
0.0
 10
5.5691
 20
5.6033
 30
0.0
 10
5.5691
 20
5.6033
 30
0.0
 10
5.5691
 20
5.6033
 30
0.0
 10
7.1196
 20
6.024
 30
0.0
 10
7.1196
 20
6.024
 30
0.0
 10
7.1196
 20
6.024
 30
0.0
 10
7.1196
 20
6.024
 30
0.0
 10
7.3079
 20
5.9553
 30
0.0
 10
7.3079
 20
5.9553
 30
0.0
 10
7.3079
 20
5.9553
 30
0.0
 10
7.3079
 20
5.9553
 30
0.0
 10
7.385
 20
5.8523
 30
0.0
 10
7.385
 20
5.8523
 30
0.0
 10
7.385
 20
5.8523
 30
0.0
 10
7.385
 20
5.8523
 30
0.0
 10
7.4108
 20
5.7321
 30
0.0
 10
7.4108
 20
5.7321
 30
0.0
 10
7.4108
 20
5.7321
 30
0.0
 10
7.4108
 20
5.7321
 30
0.0
 10
7.385
 20
5.6204
 30
0.0
 10
7.385
 20
5.6204
 30
0.0
 10
7.385
 20
5.6204
 30
0.0
 10
7.385
 20
5.6204
 30
0.0
 10
7.3765
 20
5.5174
 30
0.0
 10
7.3765
 20
5.5174
 30
0.0
 10
7.3765
 20
5.5174
 30
0.0
 10
7.3765
 20
5.5174
 30
0.0
 10
7.3079
 20
5.4574
 30
0.0
 10
7.3079
 20
5.4574
 30
0.0
 10
7.3079
 20
5.4574
 30
0.0
 10
7.3079
 20
5.4574
 30
0.0
 10
5.7318
 20
5.0282
 30
0.0
 10
5.7318
 20
5.0282
 30
0.0
 10
5.7318
 20
5.0282
 30
0.0
 10
5.7318
 20
5.0282
 30
0.0
 10
6.1345
 20
3.5173
 30
0.0
 10
6.1345
 20
3.5173
 30
0.0
 10
6.1345
 20
3.5173
 30
0.0
 10
6.1345
 20
3.5173
 30
0.0
 10
7.6335
 20
3.9466
 30
0.0
 10
7.6335
 20
3.9466
 30
0.0
 10
7.6335
 20
3.9466
 30
0.0
 10
7.6335
 20
3.9466
 30
0.0
 10
7.7706
 20
3.938
 30
0.0
 10
7.7706
 20
3.938
 30
0.0
 10
7.7706
 20
3.938
 30
0.0
 10
7.7706
 20
3.938
 30
0.0
 10
7.882
 20
3.9037
 30
0.0
 10
7.882
 20
3.9037
 30
0.0
 10
7.882
 20
3.9037
 30
0.0
 10
7.882
 20
3.9037
 30
0.0
 10
7.9591
 20
3.8349
 30
0.0
 10
7.9591
 20
3.8349
 30
0.0
 10
7.9591
 20
3.8349
 30
0.0
 10
7.9591
 20
3.8349
 30
0.0
 10
7.9591
 20
3.7233
 30
0.0
 10
7.9591
 20
3.7233
 30
0.0
 10
7.9591
 20
3.7233
 30
0.0
 10
7.9591
 20
3.7233
 30
0.0
 10
7.9076
 20
3.6031
 30
0.0
 10
7.9076
 20
3.6031
 30
0.0
 10
7.9076
 20
3.6031
 30
0.0
 10
7.9076
 20
3.6031
 30
0.0
 10
7.6935
 20
3.5088
 30
0.0
 10
7.6935
 20
3.5088
 30
0.0
 10
7.6935
 20
3.5088
 30
0.0
 10
7.6935
 20
3.5088
 30
0.0
 10
6.2287
 20
3.1052
 30
0.0
 10
6.2287
 20
3.1052
 30
0.0
 10
6.2287
 20
3.1052
 30
0.0
 10
6.2287
 20
3.1052
 30
0.0
 10
6.3948
 20
2.4912
 30
0.0
 10
6.3948
 20
2.4912
 30
0.0
  0
SPLINE
  5
126
330
1F
100
AcDbEntity
  8
DEFAULT_1
 62
   250
100
AcDbSpline
210
0.0
220
0.0
230
1.0
 70
    24
 71
     3
 72
     8
 73
     4
 74
     0
 42
0.0000000001
 43
0.0000000001
 40
0.0
 40
0.0
 40
0.0
 40
0.0
 40
1.0
 40
1.0
 40
1.0
 40
1.0
 10
2.1981
 20
8.2727
 30
0.0
 10
2.1981
 20
8.2727
 30
0.0
 10
2.1981
 20
6.5807
 30
0.0
 10
2.1981
 20
6.5807
 30
0.0
  0
ENDSEC
  0
SECTION
  2
OBJECTS
  0
DICTIONARY
  5
C
330
0
100
AcDbDictionary
  3
ACAD_GROUP
350
D
  3
ACAD_LAYOUT
350
1A
  3
ACAD_MATERIAL
350
3B
  3
ACAD_MLEADERSTYLE
350
149
  3
ACAD_MLINESTYLE
350
17
  3
ACAD_PLOTSETTINGS
350
19
  3
ACAD_VISUALSTYLE
350
2A
  3
ACDBHEADERROUNDTRIPXREC
350
127
  3
ACDBVARIABLEDICTIONARY
350
147
  0
DICTIONARY
  5
D
102
{ACAD_REACTORS
330
C
102
}
330
C
100
AcDbDictionary
  0
DICTIONARY
  5
1A
102
{ACAD_REACTORS
330
C
102
}
330
C
100
AcDbDictionary
  0
DICTIONARY
  5
3B
102
{ACAD_REACTORS
330
C
102
}
330
C
100
AcDbDictionary
  3
BYBLOCK
350
3D
  3
BYLAYER
350
3C
  3
GLOBAL
350
3E
  0
DICTIONARY
  5
149
102
{ACAD_REACTORS
330
C
102
}
330
C
100
AcDbDictionary
  0
DICTIONARY
  5
17
102
{ACAD_REACTORS
330
C
102
}
330
C
100
AcDbDictionary
  3
STANDARD
350
18
  0
DICTIONARY
  5
19
102
{ACAD_REACTORS
330
C
102
}
330
C
100
AcDbDictionary
  0
DICTIONARY
  5
2A
102
{ACAD_REACTORS
330
C
102
}
330
C
100
AcDbDictionary
  3
2DWIREFRAME
350
2F
  3
3D_HIDDEN
350
31
  3
3DWIREFRAME
350
30
  3
BASIC
350
32
  3
BRIGHTEN
350
36
  3
COLORCHANGE
350
3A
  3
CONCEPTUAL
350
34
  3
DIM
350
35
  3
FACEPATTERN
350
39
  3
FLAT
350
2B
  3
FLATWITHEDGES
350
2C
  3
GOURAUD
350
2D
  3
GOURAUDWITHEDGES
350
2E
  3
LINEPATTERN
350
38
  3
REALISTIC
350
33
  3
THICKEN
350
37
  0
DICTIONARY
  5
127
102
{ACAD_REACTORS
330
C
102
}
330
C
100
AcDbDictionary
  3
CEPSNTYPE
350
130
  3
DIMSTYLEDATA
350
146
  3
FINGERPRINTGUID
350
131
  3
HYPERLINKBASE
350
12A
  3
INSUNITS
350
12F
  3
LAYOUTDICT
350
12C
  3
LWETCUNION
350
12E
  3
PLOTSETDICT
350
12D
  3
PSVPSCALE
350
133
  3
PUCSBASE
350
136
  3
PUCSORGBACK
350
13C
  3
PUCSORGBOTTOM
350
138
  3
PUCSORGFRONT
350
13B
  3
PUCSORGLEFT
350
139
  3
PUCSORGRIGHT
350
13A
  3
PUCSORGTOP
350
137
  3
PUCSORTHOREF
350
134
  3
PUCSORTHOVIEW
350
135
  3
STYLESHEET
350
12B
  3
TSTACKALIGN
350
128
  3
TSTACKSIZE
350
129
  3
UCSBASE
350
13F
  3
UCSORGBACK
350
145
  3
UCSORGBOTTOM
350
141
  3
UCSORGFRONT
350
144
  3
UCSORGLEFT
350
142
  3
UCSORGRIGHT
350
143
  3
UCSORGTOP
350
140
  3
UCSORTHOREF
350
13D
  3
UCSORTHOVIEW
350
13E
  3
VERSIONGUID
350
132
  0
DICTIONARY
  5
147
102
{ACAD_REACTORS
330
C
102
}
330
C
100
AcDbDictionary
  3
DIMASSOC
350
14A
  3
HIDETEXT
350
14B
  0
MATERIAL
  5
3D
102
{ACAD_REACTORS
330
3B
102
}
102
{ACAD_XDICTIONARY
360
14E
102
}
330
3B
100
AcDbMaterial
  1
ByBlock
  0
MATERIAL
  5
3C
102
{ACAD_REACTORS
330
3B
102
}
102
{ACAD_XDICTIONARY
360
14C
102
}
330
3B
100
AcDbMaterial
  1
ByLayer
  0
MATERIAL
  5
3E
102
{ACAD_REACTORS
330
3B
102
}
102
{ACAD_XDICTIONARY
360
150
102
}
330
3B
100
AcDbMaterial
  1
Global
  0
MLINESTYLE
  5
18
102
{ACAD_REACTORS
330
17
102
}
330
17
100
AcDbMlineStyle
  2
Standard
 70
     0
  3

 62
   256
 51
90.0
 52
90.0
 71
     2
 49
0.5
 62
   256
  6
BYLAYER
 49
-0.5
 62
   256
  6
BYLAYER
  0
ACAD_PROXY_OBJECT
  5
2F
102
{ACAD_REACTORS
330
2A
102
}
330
2A
100
AcDbProxyObject
 90
      499
 91
      501
 93
      436
310
42CC9915DA5C99599C985B595049028333333333333E3BF0000000000000FB0107901411070040501600405405064090741402480A0340
1001
ACAD
1000
AcDbSavedByObjectVersion
1070
     0
  0
ACAD_PROXY_OBJECT
  5
31
102
{ACAD_REACTORS
330
2A
102
}
330
2A
100
AcDbProxyObject
 90
      499
 91
      501
 93
      500
310
424CD108121A5919195B90640502408333333333333E3BF0000000000000FB01079024090700405020000000000001110200405405064090740C02480A0340
1001
ACAD
1000
AcDbSavedByObjectVersion
1070
     0
  0
ACAD_PROXY_OBJECT
  5
30
102
{ACAD_REACTORS
330
2A
102
}
330
2A
100
AcDbProxyObject
 90
      499
 91
      501
 93
      436
310
42CCD915DA5C99599C985B595059028333333333333E3BF0000000000000FB0107901411070040501600405405064090741402480A0340
1001
ACAD
1000
AcDbSavedByObjectVersion
1070
     0
  0
ACAD_PROXY_OBJECT
  5
32
102
{ACAD_REACTORS
330
2A
102
}
330
2A
100
AcDbProxyObject
 90
      499
 91
      501
 93
      388
310
4150985CDA58D07406404333333333333E3BF0000000000000FB0107A41107004050150841D405064090741402480A0350
1001
ACAD
1000
AcDbSavedByObjectVersion
1070
     0
  0
ACAD_PROXY_OBJECT
  5
36
102
{ACAD_REACTORS
330
2A
102
}
330
2A
100
AcDbProxyObject
 90
      499
 91
      501
 93
      428
310
42109C9A59DA1D195B90C409028333333333333E3BF0000000000000FB010790141107004050150841D405064090741402480A029950
1001
ACAD
1000
AcDbSavedByObjectVersion
1070
     0
  0
ACAD_PROXY_OBJECT
  5
3A
102
{ACAD_REACTORS
330
2A
102
}
330
2A
100
AcDbProxyObject
 90
      499
 91
      501
 93
      452
310
42D0DBDB1BDC90DA185B99D95104090240C333333333333E3BF0000000000000FB0108901411070040501508421405064090741402480A0350
1001
ACAD
1000
AcDbSavedByObjectVersion
1070
     0
  0
ACAD_PROXY_OBJECT
  5
34
102
{ACAD_REACTORS
330
2A
102
}
330
2A
100
AcDbProxyObject
 90
      499
 91
      501
 93
      500
310
4290DBDB98D95C1D1D585B10940D028333333333333E3BF0000000000000FB0107902409070040501000000000000111010841D405064090740C02480A0340
1001
ACAD
1000
AcDbSavedByObjectVersion
1070
     0
  0
ACAD_PROXY_OBJECT
  5
35
102
{ACAD_REACTORS
330
2A
102
}
330
2A
100
AcDbProxyObject
 90
      499
 91
      501
 93
      412
310
40D11A5B50B409028333333333333E3BF0000000000000FB010790141107004050150841D405064090741402480A02677FFFFFD0
1001
ACAD
1000
AcDbSavedByObjectVersion
1070
     0
  0
ACAD_PROXY_OBJECT
  5
39
102
{ACAD_REACTORS
330
2A
102
}
330
2A
100
AcDbProxyObject
 90
      499
 91
      501
 93
      444
310
42D19858D95C185D1D195C9B90F409028333333333333E3BF0000000000000FB010790141107004050150841D405064090741402480A0350
1001
ACAD
1000
AcDbSavedByObjectVersion
1070
     0
  0
ACAD_PROXY_OBJECT
  5
2B
102
{ACAD_REACTORS
330
2A
102
}
330
2A
100
AcDbProxyObject
 90
      499
 91
      501
 93
      388
310
41119B185D240901404333333333333E3BF0000000000000F9010740A41107004050150841D405064090741402480A1B50
1001
ACAD
1000
AcDbSavedByObjectVersion
1070
     0
  0
ACAD_PROXY_OBJECT
  5
2C
102
{ACAD_REACTORS
330
2A
102
}
330
2A
100
AcDbProxyObject
 90
      499
 91
      501
 93
      476
310
43519B185D15DA5D1A115919D95CD0140901404333333333333E3BF0000000000000F9010740901411070040501600405405064090741402480A1B50
1001
ACAD
1000
AcDbSavedByObjectVersion
1070
     0
  0
ACAD_PROXY_OBJECT
  5
2D
102
{ACAD_REACTORS
330
2A
102
}
330
2A
100
AcDbProxyObject
 90
      499
 91
      501
 93
      412
310
41D1DBDD5C985D5910240902404333333333333E3BF0000000000000F9010740A411070040501641D405064090741402480A1B50
1001
ACAD
1000
AcDbSavedByObjectVersion
1070
     0
  0
ACAD_PROXY_OBJECT
  5
2E
102
{ACAD_REACTORS
330
2A
102
}
330
2A
100
AcDbProxyObject
 90
      499
 91
      501
 93
      500
310
4411DBDD5C985D5915DA5D1A115919D95CD0340902404333333333333E3BF0000000000000F9010740901411070040501600405405064090741402480A1B50
1001
ACAD
1000
AcDbSavedByObjectVersion
1070
     0
  0
ACAD_PROXY_OBJECT
  5
38
102
{ACAD_REACTORS
330
2A
102
}
330
2A
100
AcDbProxyObject
 90
      499
 91
      501
 93
      444
310
42D31A5B995C185D1D195C9B90E409028333333333333E3BF0000000000000FB010790141107004050750841D405064090741402483A0350
1001
ACAD
1000
AcDbSavedByObjectVersion
1070
     0
  0
ACAD_PROXY_OBJECT
  5
33
102
{ACAD_REACTORS
330
2A
102
}
330
2A
100
AcDbProxyObject
 90
      499
 91
      501
 93
      420
310
425499585B1A5CDD1A58D08409028333333333333E3BF0000000000000FB01079019070040501508421405064090741402480A1B40
1001
ACAD
1000
AcDbSavedByObjectVersion
1070
     0
  0
ACAD_PROXY_OBJECT
  5
37
102
{ACAD_REACTORS
330
2A
102
}
330
2A
100
AcDbProxyObject
 90
      499
 91
      501
 93
      412
310
41D51A1A58DAD95B90D409028333333333333E3BF0000000000000FB010790141107004050150C41D405064090741402480A0350
1001
ACAD
1000
AcDbSavedByObjectVersion
1070
     0
  0
XRECORD
  5
130
102
{ACAD_REACTORS
330
127
102
}
330
127
100
AcDbXrecord
 90
        0
  0
XRECORD
  5
146
102
{ACAD_REACTORS
330
127
102
}
330
127
100
AcDbXrecord
1000
DSTYLE
1002
{
1070
   340
340
11
1002
}
  0
XRECORD
  5
131
102
{ACAD_REACTORS
330
127
102
}
330
127
100
AcDbXrecord
  1
{E425C147-6B93-4822-9B42-6A68CE9BE71D}
  0
XRECORD
  5
12A
102
{ACAD_REACTORS
330
127
102
}
330
127
100
AcDbXrecord
  1

  0
XRECORD
  5
12F
102
{ACAD_REACTORS
330
127
102
}
330
127
100
AcDbXrecord
 90
        4
  0
XRECORD
  5
12C
102
{ACAD_REACTORS
330
127
102
}
330
127
100
AcDbXrecord
340
1A
  0
XRECORD
  5
12E
102
{ACAD_REACTORS
330
127
102
}
330
127
100
AcDbXrecord
 90
    10781
  0
XRECORD
  5
12D
102
{ACAD_REACTORS
330
127
102
}
330
127
100
AcDbXrecord
340
19
  0
XRECORD
  5
133
102
{ACAD_REACTORS
330
127
102
}
330
127
100
AcDbXrecord
 40
0.0
  0
XRECORD
  5
136
102
{ACAD_REACTORS
330
127
102
}
330
127
100
AcDbXrecord
340
0
  0
XRECORD
  5
13C
102
{ACAD_REACTORS
330
127
102
}
330
127
100
AcDbXrecord
 10
0.0
 20
0.0
 30
0.0
  0
XRECORD
  5
138
102
{ACAD_REACTORS
330
127
102
}
330
127
100
AcDbXrecord
 10
0.0
 20
0.0
 30
0.0
  0
XRECORD
  5
13B
102
{ACAD_REACTORS
330
127
102
}
330
127
100
AcDbXrecord
 10
0.0
 20
0.0
 30
0.0
  0
XRECORD
  5
139
102
{ACAD_REACTORS
330
127
102
}
330
127
100
AcDbXrecord
 10
0.0
 20
0.0
 30
0.0
  0
XRECORD
  5
13A
102
{ACAD_REACTORS
330
127
102
}
330
127
100
AcDbXrecord
 10
0.0
 20
0.0
 30
0.0
  0
XRECORD
  5
137
102
{ACAD_REACTORS
330
127
102
}
330
127
100
AcDbXrecord
 10
0.0
 20
0.0
 30
0.0
  0
XRECORD
  5
134
102
{ACAD_REACTORS
330
127
102
}
330
127
100
AcDbXrecord
340
0
  0
XRECORD
  5
135
102
{ACAD_REACTORS
330
127
102
}
330
127
100
AcDbXrecord
 70
     0
  0
XRECORD
  5
12B
102
{ACAD_REACTORS
330
127
102
}
330
127
100
AcDbXrecord
  1

  0
XRECORD
  5
128
102
{ACAD_REACTORS
330
127
102
}
330
127
100
AcDbXrecord
 90
        1
  0
XRECORD
  5
129
102
{ACAD_REACTORS
330
127
102
}
330
127
100
AcDbXrecord
 90
       70
  0
XRECORD
  5
13F
102
{ACAD_REACTORS
330
127
102
}
330
127
100
AcDbXrecord
340
0
  0
XRECORD
  5
145
102
{ACAD_REACTORS
330
127
102
}
330
127
100
AcDbXrecord
 10
0.0
 20
0.0
 30
0.0
  0
XRECORD
  5
141
102
{ACAD_REACTORS
330
127
102
}
330
127
100
AcDbXrecord
 10
0.0
 20
0.0
 30
0.0
  0
XRECORD
  5
144
102
{ACAD_REACTORS
330
127
102
}
330
127
100
AcDbXrecord
 10
0.0
 20
0.0
 30
0.0
  0
XRECORD
  5
142
102
{ACAD_REACTORS
330
127
102
}
330
127
100
AcDbXrecord
 10
0.0
 20
0.0
 30
0.0
  0
XRECORD
  5
143
102
{ACAD_REACTORS
330
127
102
}
330
127
100
AcDbXrecord
 10
0.0
 20
0.0
 30
0.0
  0
XRECORD
  5
140
102
{ACAD_REACTORS
330
127
102
}
330
127
100
AcDbXrecord
 10
0.0
 20
0.0
 30
0.0
  0
XRECORD
  5
13D
102
{ACAD_REACTORS
330
127
102
}
330
127
100
AcDbXrecord
340
0
  0
XRECORD
  5
13E
102
{ACAD_REACTORS
330
127
102
}
330
127
100
AcDbXrecord
 70
     0
  0
XRECORD
  5
132
102
{ACAD_REACTORS
330
127
102
}
330
127
100
AcDbXrecord
  1
{FAEB1C32-E019-11D5-929B-00C0DF256EC4}
  0
DICTIONARYVAR
  5
14A
102
{ACAD_REACTORS
330
147
102
}
330
147
100
DictionaryVariables
280
     0
  1
2
  0
DICTIONARYVAR
  5
14B
102
{ACAD_REACTORS
330
147
102
}
330
147
100
DictionaryVariables
280
     0
  1
1
  0
DICTIONARY
  5
14E
330
3D
100
AcDbDictionary
280
     1
  3
ACAD_XREC_ROUNDTRIP
360
14F
  0
DICTIONARY
  5
14C
330
3C
100
AcDbDictionary
280
     1
  3
ACAD_XREC_ROUNDTRIP
360
14D
  0
DICTIONARY
  5
150
330
3E
100
AcDbDictionary
280
     1
  3
ACAD_XREC_ROUNDTRIP
360
151
  0
XRECORD
  5
14F
102
{ACAD_REACTORS
330
14E
102
}
330
14E
100
AcDbXrecord
102
MATERIAL
148
0.0
149
0.0
149
0.0
 93
        0
 94
      127
282
     0
 72
     1
 77
     1
171
     1
175
     1
179
     1
273
     0
  0
XRECORD
  5
14D
102
{ACAD_REACTORS
330
14C
102
}
330
14C
100
AcDbXrecord
102
MATERIAL
148
0.0
149
0.0
149
0.0
 93
        0
 94
      127
282
     0
 72
     1
 77
     1
171
     1
175
     1
179
     1
273
     0
  0
XRECORD
  5
151
102
{ACAD_REACTORS
330
150
102
}
330
150
100
AcDbXrecord
102
MATERIAL
148
0.0
149
0.0
149
0.0
 93
        0
 94
      127
282
     0
 72
     1
 77
     1
171
     1
175
     1
179
     1
273
     0
  0
ENDSEC
  0
EOF
